  0
SECTION
  2
HEADER
  9
$ACADVER
  1
AC1009
999
I-DEAS 8 Not Encoded
  9
$EXTMIN
 10
0.0
 20
0.0
  9
$EXTMAX
 10
5.94E+002
 20
4.2E+002
  9
$TEXTSIZE
 40
1.25E-001
  9
$LTSCALE
 40
1.0
  9
$CLAYER
  8
104
  9
$CECOLOR
 62
40
  9
$DIMASZ
 40
1.25E-001
  9
$DIMEXO
 40
6.25E-002
  9
$DIMDLI
 40
2.5E-001
  9
$DIMEXE
 40
1.25E-001
  9
$DIMTP
 40
5.0E-003
  9
$DIMTM
 40
-5.0E-003
  9
$DIMTXT
 40
3.0
  9
$DIMLIM
 70
0
  9
$DIMTIH
 70
1
  9
$DIMTOH
 70
1
  9
$DIMSE1
 70
0
  9
$DIMSE2
 70
0
  9
$DIMTAD
 70
0
  9
$DIMASO
 70
1
  9
$DIMALT
 70
0
  9
$DIMALTD
 70
0
  9
$DIMTOFL
 70
1
  9
$DIMTIX
 70
0
  9
$DIMSAH
 70
0
  9
$DIMTFAC
 40
1.0
  9
$DIMGAP
 40
6.25E-002
  9
$LUNITS
 70
2
  9
$LUPREC
 70
3
  9
$FILLETRAD
 40
2.0
  9
$AUNITS
 70
0
  9
$AUPREC
 70
1
  9
$CHAMFERA
 40
1.0E+001
  9
$CHAMFERB
 40
1.0E+001
  9
$ANGBASE
 50
0.0
  9
$ANGDIR
 70
0
  9
$PDMODE
 70
2
  9
$PDSIZE
 40
-1.0E-002
  9
$SPLINETYPE
 70
6
  0
ENDSEC
  0
SECTION
  2
TABLES
  0
TABLE
  2
LTYPE
 70
7
  0
LTYPE
  2
HIDDENNEW00
  3
_ 
 70
64
 72
65
 73
3
 40
4.5
 49
1.5
 49
-1.5
 49
1.5
  0
LTYPE
  2
HIDDENNEW01
  3
_ 
 70
64
 72
65
 73
3
 40
4.5
 49
1.5
 49
-1.5
 49
1.5
  0
LTYPE
  2
HIDDEN
  3
_ 
 70
64
 72
65
 73
3
 40
4.5
 49
1.5
 49
-1.5
 49
1.5
  0
LTYPE
  2
CENTERLINE
  3
_ 
 70
64
 72
65
 73
5
 40
3.0E+001
 49
1.2E+001
 49
-1.5
 49
3.0
 49
-1.5
 49
1.2E+001
  0
LTYPE
  2
PHANTOM
  3
_ 
 70
64
 72
65
 73
7
 40
2.95E+001
 49
9.5
 49
-1.5
 49
3.0
 49
-1.5
 49
3.0
 49
-1.5
 49
9.5
  0
LTYPE
  2
SHORT_DASH
  3
_ 
 70
64
 72
65
 73
3
 40
3.0
 49
7.5E-001
 49
-1.5
 49
7.5E-001
  0
LTYPE
  2
LONG_DASH
  3
_ 
 70
64
 72
65
 73
3
 40
9.0
 49
2.25
 49
-4.5
 49
2.25
  0
ENDTAB
  0
TABLE
  2
LAYER
 70
258
  0
LAYER
  2
1
 70
0
 62
7
  6
CONTINUOUS
  0
LAYER
  2
2
 70
0
 62
7
  6
CONTINUOUS
  0
LAYER
  2
3
 70
0
 62
7
  6
CONTINUOUS
  0
LAYER
  2
4
 70
0
 62
7
  6
CONTINUOUS
  0
LAYER
  2
MED-5
 70
0
 62
5
  6
HIDDENNEW00
  0
LAYER
  2
MED-6
 70
0
 62
6
  6
HIDDENNEW00
  0
LAYER
  2
7
 70
0
 62
7
  6
CONTINUOUS
  0
LAYER
  2
8
 70
0
 62
7
  6
CONTINUOUS
  0
LAYER
  2
9
 70
0
 62
7
  6
CONTINUOUS
  0
LAYER
  2
10
 70
0
 62
7
  6
CONTINUOUS
  0
LAYER
  2
MED-11
 70
0
 62
70
  6
HIDDENNEW00
  0
LAYER
  2
12
 70
0
 62
7
  6
CONTINUOUS
  0
LAYER
  2
MED-13
 70
0
 62
110
  6
HIDDENNEW00
  0
LAYER
  2
14
 70
0
 62
7
  6
CONTINUOUS
  0
LAYER
  2
15
 70
0
 62
7
  6
CONTINUOUS
  0
LAYER
  2
16
 70
0
 62
7
  6
CONTINUOUS
  0
LAYER
  2
17
 70
0
 62
7
  6
CONTINUOUS
  0
LAYER
  2
18
 70
0
 62
7
  6
CONTINUOUS
  0
LAYER
  2
19
 70
0
 62
7
  6
CONTINUOUS
  0
LAYER
  2
20
 70
0
 62
7
  6
CONTINUOUS
  0
LAYER
  2
21
 70
0
 62
7
  6
CONTINUOUS
  0
LAYER
  2
22
 70
0
 62
7
  6
CONTINUOUS
  0
LAYER
  2
23
 70
0
 62
7
  6
CONTINUOUS
  0
LAYER
  2
24
 70
0
 62
7
  6
CONTINUOUS
  0
LAYER
  2
25
 70
0
 62
7
  6
CONTINUOUS
  0
LAYER
  2
26
 70
0
 62
7
  6
CONTINUOUS
  0
LAYER
  2
27
 70
0
 62
7
  6
CONTINUOUS
  0
LAYER
  2
28
 70
0
 62
7
  6
CONTINUOUS
  0
LAYER
  2
29
 70
0
 62
7
  6
CONTINUOUS
  0
LAYER
  2
30
 70
0
 62
7
  6
CONTINUOUS
  0
LAYER
  2
MED-31
 70
0
 62
230
  6
HIDDENNEW00
  0
LAYER
  2
32
 70
0
 62
7
  6
CONTINUOUS
  0
LAYER
  2
33
 70
0
 62
7
  6
CONTINUOUS
  0
LAYER
  2
34
 70
0
 62
7
  6
CONTINUOUS
  0
LAYER
  2
35
 70
0
 62
7
  6
CONTINUOUS
  0
LAYER
  2
36
 70
0
 62
7
  6
CONTINUOUS
  0
LAYER
  2
37
 70
0
 62
7
  6
CONTINUOUS
  0
LAYER
  2
38
 70
0
 62
7
  6
CONTINUOUS
  0
LAYER
  2
39
 70
0
 62
7
  6
CONTINUOUS
  0
LAYER
  2
40
 70
0
 62
7
  6
CONTINUOUS
  0
LAYER
  2
41
 70
0
 62
7
  6
CONTINUOUS
  0
LAYER
  2
42
 70
0
 62
7
  6
CONTINUOUS
  0
LAYER
  2
43
 70
0
 62
7
  6
CONTINUOUS
  0
LAYER
  2
44
 70
0
 62
7
  6
CONTINUOUS
  0
LAYER
  2
45
 70
0
 62
7
  6
CONTINUOUS
  0
LAYER
  2
46
 70
0
 62
7
  6
CONTINUOUS
  0
LAYER
  2
47
 70
0
 62
7
  6
CONTINUOUS
  0
LAYER
  2
48
 70
0
 62
7
  6
CONTINUOUS
  0
LAYER
  2
49
 70
0
 62
7
  6
CONTINUOUS
  0
LAYER
  2
50
 70
0
 62
7
  6
CONTINUOUS
  0
LAYER
  2
51
 70
0
 62
7
  6
CONTINUOUS
  0
LAYER
  2
52
 70
0
 62
7
  6
CONTINUOUS
  0
LAYER
  2
53
 70
0
 62
7
  6
CONTINUOUS
  0
LAYER
  2
54
 70
0
 62
7
  6
CONTINUOUS
  0
LAYER
  2
55
 70
0
 62
7
  6
CONTINUOUS
  0
LAYER
  2
56
 70
0
 62
7
  6
CONTINUOUS
  0
LAYER
  2
57
 70
0
 62
7
  6
CONTINUOUS
  0
LAYER
  2
58
 70
0
 62
7
  6
CONTINUOUS
  0
LAYER
  2
59
 70
0
 62
7
  6
CONTINUOUS
  0
LAYER
  2
60
 70
0
 62
7
  6
CONTINUOUS
  0
LAYER
  2
61
 70
0
 62
7
  6
CONTINUOUS
  0
LAYER
  2
62
 70
0
 62
7
  6
CONTINUOUS
  0
LAYER
  2
63
 70
0
 62
7
  6
CONTINUOUS
  0
LAYER
  2
64
 70
0
 62
7
  6
CONTINUOUS
  0
LAYER
  2
65
 70
0
 62
7
  6
CONTINUOUS
  0
LAYER
  2
66
 70
0
 62
7
  6
CONTINUOUS
  0
LAYER
  2
67
 70
0
 62
7
  6
CONTINUOUS
  0
LAYER
  2
68
 70
0
 62
7
  6
CONTINUOUS
  0
LAYER
  2
69
 70
0
 62
7
  6
CONTINUOUS
  0
LAYER
  2
70
 70
0
 62
7
  6
CONTINUOUS
  0
LAYER
  2
71
 70
0
 62
7
  6
CONTINUOUS
  0
LAYER
  2
72
 70
0
 62
7
  6
CONTINUOUS
  0
LAYER
  2
73
 70
0
 62
7
  6
CONTINUOUS
  0
LAYER
  2
74
 70
0
 62
7
  6
CONTINUOUS
  0
LAYER
  2
75
 70
0
 62
7
  6
CONTINUOUS
  0
LAYER
  2
76
 70
0
 62
7
  6
CONTINUOUS
  0
LAYER
  2
77
 70
0
 62
7
  6
CONTINUOUS
  0
LAYER
  2
78
 70
0
 62
7
  6
CONTINUOUS
  0
LAYER
  2
79
 70
0
 62
7
  6
CONTINUOUS
  0
LAYER
  2
80
 70
0
 62
7
  6
CONTINUOUS
  0
LAYER
  2
81
 70
0
 62
7
  6
CONTINUOUS
  0
LAYER
  2
82
 70
0
 62
7
  6
CONTINUOUS
  0
LAYER
  2
83
 70
0
 62
7
  6
CONTINUOUS
  0
LAYER
  2
84
 70
0
 62
7
  6
CONTINUOUS
  0
LAYER
  2
85
 70
0
 62
7
  6
CONTINUOUS
  0
LAYER
  2
86
 70
0
 62
7
  6
CONTINUOUS
  0
LAYER
  2
87
 70
0
 62
7
  6
CONTINUOUS
  0
LAYER
  2
88
 70
0
 62
7
  6
CONTINUOUS
  0
LAYER
  2
89
 70
0
 62
7
  6
CONTINUOUS
  0
LAYER
  2
90
 70
0
 62
7
  6
CONTINUOUS
  0
LAYER
  2
91
 70
0
 62
7
  6
CONTINUOUS
  0
LAYER
  2
92
 70
0
 62
7
  6
CONTINUOUS
  0
LAYER
  2
93
 70
0
 62
7
  6
CONTINUOUS
  0
LAYER
  2
94
 70
0
 62
7
  6
CONTINUOUS
  0
LAYER
  2
95
 70
0
 62
7
  6
CONTINUOUS
  0
LAYER
  2
96
 70
0
 62
7
  6
CONTINUOUS
  0
LAYER
  2
97
 70
0
 62
7
  6
CONTINUOUS
  0
LAYER
  2
98
 70
0
 62
7
  6
CONTINUOUS
  0
LAYER
  2
99
 70
0
 62
7
  6
CONTINUOUS
  0
LAYER
  2
MED-0
 70
0
 62
230
  6
HIDDENNEW00
  0
LAYER
  2
M_ERR
 70
0
 62
1
  6
HIDDENNEW00
  0
LAYER
  2
102
 70
0
 62
7
  6
CONTINUOUS
  0
LAYER
  2
103
 70
0
 62
7
  6
CONTINUOUS
  0
LAYER
  2
104
 70
0
 62
7
  6
CONTINUOUS
  0
LAYER
  2
105
 70
0
 62
7
  6
CONTINUOUS
  0
LAYER
  2
106
 70
0
 62
7
  6
CONTINUOUS
  0
LAYER
  2
107
 70
0
 62
7
  6
CONTINUOUS
  0
LAYER
  2
108
 70
0
 62
7
  6
CONTINUOUS
  0
LAYER
  2
Drafting_Hidden_Entities
 70
1
 62
7
  6
CONTINUOUS
  0
ENDTAB
  0
TABLE
  2
STYLE
 70
1
  0
STYLE
  2
STANDARD
 70
64
 40
0.0
 41
1.0
 50
0.0
 71
0
 42
1.0
  3
monotxt.shx
  4

  0
ENDTAB
  0
TABLE
  2
VIEW
 70
0
  0
ENDTAB
  0
TABLE
  2
DIMSTYLE
 70
0
  0
ENDTAB
  0
ENDSEC
  0
SECTION
  2
BLOCKS
  0
BLOCK
  2
*XH26
  3
*XH
 10
0.0
 20
0.0
 70
65
  0
LINE
  8
108
  6
CONTINUOUS
 62
1
 10
-5.75
 20
2.0
 11
-5.75
 21
-2.0
  0
LINE
  8
108
  6
CONTINUOUS
 62
1
 10
-5.25
 20
-2.0
 11
-5.25
 21
2.0
  0
LINE
  8
108
  6
CONTINUOUS
 62
1
 10
-4.75
 20
2.0
 11
-4.75
 21
-2.0
  0
LINE
  8
108
  6
CONTINUOUS
 62
1
 10
-4.25
 20
-2.0
 11
-4.25
 21
2.0
  0
LINE
  8
108
  6
CONTINUOUS
 62
1
 10
-3.75
 20
2.0
 11
-3.75
 21
-2.0
  0
LINE
  8
108
  6
CONTINUOUS
 62
1
 10
-3.25
 20
-2.0
 11
-3.25
 21
2.0
  0
LINE
  8
108
  6
CONTINUOUS
 62
1
 10
-2.75
 20
2.0
 11
-2.75
 21
-2.0
  0
LINE
  8
108
  6
CONTINUOUS
 62
1
 10
-2.25
 20
-2.0
 11
-2.25
 21
2.0
  0
LINE
  8
108
  6
CONTINUOUS
 62
1
 10
-1.75
 20
2.0
 11
-1.75
 21
-2.0
  0
LINE
  8
108
  6
CONTINUOUS
 62
1
 10
-1.25
 20
-2.0
 11
-1.25
 21
2.0
  0
LINE
  8
108
  6
CONTINUOUS
 62
1
 10
-7.5E-001
 20
2.0
 11
-7.5E-001
 21
-2.0
  0
LINE
  8
108
  6
CONTINUOUS
 62
1
 10
-2.5E-001
 20
-2.0
 11
-2.5E-001
 21
2.0
  0
LINE
  8
108
  6
CONTINUOUS
 62
1
 10
2.5E-001
 20
2.0
 11
2.5E-001
 21
-2.0
  0
LINE
  8
108
  6
CONTINUOUS
 62
1
 10
7.5E-001
 20
-2.0
 11
7.5E-001
 21
2.0
  0
LINE
  8
108
  6
CONTINUOUS
 62
1
 10
1.25
 20
2.0
 11
1.25
 21
-2.0
  0
LINE
  8
108
  6
CONTINUOUS
 62
1
 10
1.75
 20
-2.0
 11
1.75
 21
2.0
  0
LINE
  8
108
  6
CONTINUOUS
 62
1
 10
2.25
 20
2.0
 11
2.25
 21
-2.0
  0
LINE
  8
108
  6
CONTINUOUS
 62
1
 10
2.75
 20
-2.0
 11
2.75
 21
2.0
  0
LINE
  8
108
  6
CONTINUOUS
 62
1
 10
3.25
 20
2.0
 11
3.25
 21
-2.0
  0
LINE
  8
108
  6
CONTINUOUS
 62
1
 10
3.75
 20
-2.0
 11
3.75
 21
2.0
  0
LINE
  8
108
  6
CONTINUOUS
 62
1
 10
4.25
 20
2.0
 11
4.25
 21
-2.0
  0
LINE
  8
108
  6
CONTINUOUS
 62
1
 10
4.75
 20
-2.0
 11
4.75
 21
2.0
  0
LINE
  8
108
  6
CONTINUOUS
 62
1
 10
5.25
 20
2.0
 11
5.25
 21
-2.0
  0
LINE
  8
108
  6
CONTINUOUS
 62
1
 10
5.75
 20
-2.0
 11
5.75
 21
2.0
  0
ENDBLK
  0
BLOCK
  2
*XH27
  3
*XH
 10
0.0
 20
0.0
 70
65
  0
LINE
  8
108
  6
CONTINUOUS
 62
1
 10
1.9302733
 20
-7.8940526
 11
3.3142143
 21
-6.5101109
  0
LINE
  8
108
  6
CONTINUOUS
 62
1
 10
3.3142143
 20
-3.6816807
 11
-1.0066777
 21
-8.0025425
  0
LINE
  8
108
  6
CONTINUOUS
 62
1
 10
-3.4631597
 20
-7.6306248
 11
3.3142143
 21
-8.5325046E-001
  0
LINE
  8
108
  6
CONTINUOUS
 62
1
 10
3.3142143
 20
1.9751491
 11
-3.4128967
 21
-4.7519322
  0
LINE
  8
108
  6
CONTINUOUS
 62
1
 10
-3.3626647
 20
-1.8732701
 11
3.3142143
 21
4.8035793
  0
LINE
  8
108
  6
CONTINUOUS
 62
1
 10
3.1288513
 20
7.2461757
 11
-3.3124327
 21
8.0492214E-001
  0
LINE
  8
108
  6
CONTINUOUS
 62
1
 10
-3.2621707
 20
3.6836147
 11
1.1150873
 21
8.060873
  0
LINE
  8
108
  6
CONTINUOUS
 62
1
 10
-1.7133427
 20
8.060873
 11
-3.2119387
 21
6.5622768
  0
ENDBLK
  0
BLOCK
  2
*XH28
  3
*XH
 10
0.0
 20
0.0
 70
65
  0
LINE
  8
108
  6
CONTINUOUS
 62
1
 10
4.4526221E-001
 20
-7.9540907
 11
3.4394942
 21
-4.9598585
  0
LINE
  8
108
  6
CONTINUOUS
 62
1
 10
3.3910022
 20
-2.1799207
 11
-2.5153398
 21
-8.0862623
  0
LINE
  8
108
  6
CONTINUOUS
 62
1
 10
-3.2876478
 20
-6.030171
 11
3.3424792
 21
5.99956E-001
  0
LINE
  8
108
  6
CONTINUOUS
 62
1
 10
3.2939562
 20
3.3798632
 11
-3.2876478
 21
-3.2017408
  0
LINE
  8
108
  6
CONTINUOUS
 62
1
 10
-3.2876478
 20
-5.737806E-001
 11
3.2454332
 21
5.9593004
  0
LINE
  8
108
  6
CONTINUOUS
 62
1
 10
2.3122062
 20
7.8545031
 11
-3.2876478
 21
2.2546496
  0
LINE
  8
108
  6
CONTINUOUS
 62
1
 10
-3.2876478
 20
5.0830797
 11
-5.1625479E-001
 21
7.8544726
  0
ENDBLK
  0
BLOCK
  2
*XH29
  3
*XH
 10
0.0
 20
0.0
 70
65
  0
LINE
  8
108
  6
CONTINUOUS
 62
1
 10
1.7064209
 20
-4.5348435
 11
7.0642087E-001
 21
-3.5348435
  0
LINE
  8
108
  6
CONTINUOUS
 62
1
 10
-3.7572021
 20
2.3429947
 11
-2.8880921
 21
1.4738846
  0
LINE
  8
108
  6
CONTINUOUS
 62
1
 10
7.0642087E-001
 20
-2.1206284
 11
1.7064209
 21
-3.1206284
  0
LINE
  8
108
  6
CONTINUOUS
 62
1
 10
1.7064209
 20
-1.7064133
 11
7.0642087E-001
 21
-7.0641329E-001
  0
LINE
  8
108
  6
CONTINUOUS
 62
1
 10
-1.4738771
 20
1.4738541
 11
-2.4738461
 21
2.4738541
  0
LINE
  8
108
  6
CONTINUOUS
 62
1
 10
-1.0596311
 20
2.4738541
 11
-5.9662125E-002
 21
1.4738541
  0
LINE
  8
108
  6
CONTINUOUS
 62
1
 10
7.0639087E-001
 20
7.0780181E-001
 11
1.7064209
 21
-2.9219819E-001
  0
LINE
  8
108
  6
CONTINUOUS
 62
1
 10
1.7064209
 20
1.1220169
 11
3.5455287E-001
 21
2.4738541
  0
ENDBLK
  0
BLOCK
  2
*XH30
  3
*XH
 10
0.0
 20
0.0
 70
65
  0
LINE
  8
108
  6
CONTINUOUS
 62
1
 10
3.4394871
 20
-1.5102463
 11
2.4395181
 21
-2.5102463
  0
LINE
  8
108
  6
CONTINUOUS
 62
1
 10
1.1163371
 20
-2.4192124
 11
2.0252721
 21
-1.5102768
  0
LINE
  8
108
  6
CONTINUOUS
 62
1
 10
8.4543212E-001
 20
-1.2759018
 11
1.0535013E-001
 21
-2.0159836
  0
LINE
  8
108
  6
CONTINUOUS
 62
1
 10
-6.8084387E-001
 20
-1.3879319
 11
2.6706125E-002
 21
-6.8038178E-001
  0
LINE
  8
108
  6
CONTINUOUS
 62
1
 10
-5.0472688E-001
 20
2.0240022E-001
 11
-1.2646139
 21
-5.5751798E-001
  0
LINE
  8
108
  6
CONTINUOUS
 62
1
 10
-1.6096459
 20
5.1166532E-001
 11
-6.5206487E-001
 21
1.4692459
  0
LINE
  8
108
  6
CONTINUOUS
 62
1
 10
-6.5206487E-001
 20
2.883461
 11
-1.6520649
 21
1.8834915
  0
LINE
  8
108
  6
CONTINUOUS
 62
1
 10
-1.6520649
 20
3.2977066
 11
-1.3300129
 21
3.6197281
  0
ENDBLK
  0
BLOCK
  2
*XH31
  3
*XH
 10
0.0
 20
0.0
 70
65
  0
LINE
  8
108
  6
CONTINUOUS
 62
1
 10
-8.6014167E-001
 20
-4.7967122
 11
-1.8601417
 21
-3.7967122
  0
LINE
  8
108
  6
CONTINUOUS
 62
1
 10
-1.8601417
 20
-2.3824971
 11
-8.6014167E-001
 21
-3.3824971
  0
LINE
  8
108
  6
CONTINUOUS
 62
1
 10
-8.6014167E-001
 20
-1.9682821
 11
-1.8601417
 21
-9.6828212E-001
  0
LINE
  8
108
  6
CONTINUOUS
 62
1
 10
-1.8601417
 20
4.4593298E-001
 11
-8.6017167E-001
 21
-5.5406702E-001
  0
LINE
  8
108
  6
CONTINUOUS
 62
1
 10
-8.5562467E-001
 20
8.5560098E-001
 11
-1.8555947
 21
1.855601
  0
LINE
  8
108
  6
CONTINUOUS
 62
1
 10
-8.7362967E-001
 20
2.2878215
 11
1.2637033E-001
 21
1.287852
  0
LINE
  8
108
  6
CONTINUOUS
 62
1
 10
1.5405853
 20
1.287852
 11
5.4058533E-001
 21
2.2878215
  0
LINE
  8
108
  6
CONTINUOUS
 62
1
 10
1.9548003
 20
2.287852
 11
2.9548003
 21
1.287852
  0
LINE
  8
108
  6
CONTINUOUS
 62
1
 10
3.9798553
 20
1.6770121
 11
3.3690153
 21
2.287852
  0
ENDBLK
  0
BLOCK
  2
*XH32
  3
*XH
 10
0.0
 20
0.0
 70
65
  0
LINE
  8
108
  6
CONTINUOUS
 62
1
 10
2.1169677
 20
4.1991577E-001
 11
-6.406003E-001
 21
-2.337622
  0
LINE
  8
108
  6
CONTINUOUS
 62
1
 10
-2.1081913
 20
-2.3910278
 11
-1.1036743
 21
-1.3865112
  0
LINE
  8
108
  6
CONTINUOUS
 62
1
 10
1.3089537
 20
1.026117
 11
2.3134707
 21
2.0306336
  0
LINE
  8
108
  6
CONTINUOUS
 62
1
 10
2.3134707
 20
3.4448181
 11
1.3134707
 21
2.4448181
  0
LINE
  8
108
  6
CONTINUOUS
 62
1
 10
-2.5224063
 20
-1.3910583
 11
-2.9914613
 21
-1.860083
  0
ENDBLK
  0
BLOCK
  2
*XH33
  3
*XH
 10
0.0
 20
0.0
 70
65
  0
LINE
  8
108
  6
CONTINUOUS
 62
1
 10
-2.6443791
 20
-7.2551088
 11
-1.6423341
 21
-8.2571535
  0
LINE
  8
108
  6
CONTINUOUS
 62
1
 10
4.2648287E-001
 20
-7.4975405
 11
-2.6946411
 21
-4.3764162
  0
LINE
  8
108
  6
CONTINUOUS
 62
1
 10
-2.7448731
 20
-1.4977541
 11
4.7500588E-001
 21
-4.7176333
  0
LINE
  8
108
  6
CONTINUOUS
 62
1
 10
5.2352888E-001
 20
-1.937726
 11
-2.7951351
 21
1.380908
  0
LINE
  8
108
  6
CONTINUOUS
 62
1
 10
-2.8453671
 20
4.2596011
 11
9.7137487E-001
 21
4.4282823E-001
  0
LINE
  8
108
  6
CONTINUOUS
 62
1
 10
3.7998049
 20
4.4282823E-001
 11
-2.8956301
 21
7.1382471
  0
LINE
  8
108
  6
CONTINUOUS
 62
1
 10
-1.7178313E-001
 20
7.2428311
 11
4.7663879
 21
2.3046751
  0
LINE
  8
108
  6
CONTINUOUS
 62
1
 10
4.8149109
 20
5.0845821
 11
2.6566469
 21
7.2428311
  0
ENDBLK
  0
BLOCK
  2
*XH34
  3
*XH
 10
0.0
 20
0.0
 70
65
  0
LINE
  8
108
  6
CONTINUOUS
 62
1
 10
6.746345E-001
 20
-8.8063507
 11
-5.247365E-001
 21
-7.6069794
  0
LINE
  8
108
  6
CONTINUOUS
 62
1
 10
-5.749985E-001
 20
-4.7283173
 11
1.5574785
 21
-6.8607941
  0
LINE
  8
108
  6
CONTINUOUS
 62
1
 10
1.6060005
 20
-4.0808869
 11
-6.252305E-001
 21
-1.8496246
  0
LINE
  8
108
  6
CONTINUOUS
 62
1
 10
-2.3685165
 20
-1.06369E-001
 11
-4.8681205
 21
2.3932342
  0
LINE
  8
108
  6
CONTINUOUS
 62
1
 10
-4.9183525
 20
5.2719119
 11
1.6545545
 21
-1.3009796
  0
LINE
  8
108
  6
CONTINUOUS
 62
1
 10
1.7030465
 20
1.4789276
 11
-3.5116445
 21
6.6936339
  0
LINE
  8
108
  6
CONTINUOUS
 62
1
 10
-6.832145E-001
 20
6.6936339
 11
4.3167555
 21
1.6936493
  0
LINE
  8
108
  6
CONTINUOUS
 62
1
 10
4.4171585
 20
4.4216769
 11
2.1451855
 21
6.6936339
  0
ENDBLK
  0
BLOCK
  2
*XH35
  3
*XH
 10
0.0
 20
0.0
 70
65
  0
LINE
  8
108
  6
CONTINUOUS
 62
1
 10
-3.5564696
 20
-2.1003982
 11
-3.9347656
 21
-1.7221023
  0
LINE
  8
108
  6
CONTINUOUS
 62
1
 10
-3.9849976
 20
1.1565599
 11
-7.280396E-001
 21
-2.1003677
  0
LINE
  8
108
  6
CONTINUOUS
 62
1
 10
2.1003904
 20
-2.1003677
 11
-2.8996096
 21
2.8996169
  0
LINE
  8
108
  6
CONTINUOUS
 62
1
 10
-7.11786E-002
 20
2.8996169
 11
4.9287904
 21
-2.1003677
  0
LINE
  8
108
  6
CONTINUOUS
 62
1
 10
5.3886594
 20
2.6819291E-001
 11
2.7572204
 21
2.8996169
  0
ENDBLK
  0
BLOCK
  2
*XH36
  3
*XH
 10
0.0
 20
0.0
 70
65
  0
LINE
  8
108
  6
CONTINUOUS
 62
1
 10
-3.1696133
 20
-2.4872421
 11
-4.5865453
 21
-1.0702805
  0
LINE
  8
108
  6
CONTINUOUS
 62
1
 10
-4.6368073
 20
1.8083665
 11
-3.411833E-001
 21
-2.4872421
  0
LINE
  8
108
  6
CONTINUOUS
 62
1
 10
2.4872467
 20
-2.4872421
 11
-2.5127533
 21
2.5127425
  0
LINE
  8
108
  6
CONTINUOUS
 62
1
 10
3.156767E-001
 20
2.5127425
 11
4.6256747
 21
-1.7972397
  0
LINE
  8
108
  6
CONTINUOUS
 62
1
 10
4.6741977
 20
9.826525E-001
 11
3.1441067
 21
2.5127425
  0
ENDBLK
  0
BLOCK
  2
*XH37
  3
*XH
 10
0.0
 20
0.0
 70
65
  0
LINE
  8
108
  6
CONTINUOUS
 62
1
 10
-3.4895817E-001
 20
-2.4794693
 11
-1.4954432
 21
-1.3329849
  0
LINE
  8
108
  6
CONTINUOUS
 62
1
 10
-1.5456742
 20
1.5456923
 11
1.5168258
 21
-1.5168228
  0
LINE
  8
108
  6
CONTINUOUS
 62
1
 10
1.5653478
 20
1.2630693
 11
3.0790183E-001
 21
2.5205153
  0
ENDBLK
  0
BLOCK
  2
*XH38
  3
*XH
 10
0.0
 20
0.0
 70
65
  0
LINE
  8
108
  6
CONTINUOUS
 62
1
 10
1.7064097
 20
-4.5348387
 11
7.0640975E-001
 21
-3.5348387
  0
LINE
  8
108
  6
CONTINUOUS
 62
1
 10
-3.7572143
 20
2.3429995
 11
-2.8880733
 21
1.4738741
  0
LINE
  8
108
  6
CONTINUOUS
 62
1
 10
7.0640975E-001
 20
-2.1206236
 11
1.7064097
 21
-3.1206236
  0
LINE
  8
108
  6
CONTINUOUS
 62
1
 10
1.7064097
 20
-1.7064085
 11
7.0640975E-001
 21
-7.0640852E-001
  0
LINE
  8
108
  6
CONTINUOUS
 62
1
 10
-1.4738582
 20
1.4738589
 11
-2.4738272
 21
2.4738436
  0
LINE
  8
108
  6
CONTINUOUS
 62
1
 10
-1.0596432
 20
2.4738436
 11
-5.964325E-002
 21
1.4738589
  0
LINE
  8
108
  6
CONTINUOUS
 62
1
 10
7.0640975E-001
 20
7.0780658E-001
 11
1.7064097
 21
-2.9220862E-001
  0
LINE
  8
108
  6
CONTINUOUS
 62
1
 10
1.7064097
 20
1.1220064
 11
3.5457175E-001
 21
2.4738589
  0
ENDBLK
  0
BLOCK
  2
*XH39
  3
*XH
 10
0.0
 20
0.0
 70
65
  0
LINE
  8
108
  6
CONTINUOUS
 62
1
 10
3.4394951
 20
-1.5102559
 11
2.4395261
 21
-2.5102405
  0
LINE
  8
108
  6
CONTINUOUS
 62
1
 10
1.1163441
 20
-2.4192067
 11
2.0252801
 21
-1.5102711
  0
LINE
  8
108
  6
CONTINUOUS
 62
1
 10
8.4540912E-001
 20
-1.2758961
 11
1.0535813E-001
 21
-2.0159779
  0
LINE
  8
108
  6
CONTINUOUS
 62
1
 10
-6.8083587E-001
 20
-1.3879414
 11
2.6714125E-002
 21
-6.8039135E-001
  0
LINE
  8
108
  6
CONTINUOUS
 62
1
 10
-5.0471888E-001
 20
2.0239065E-001
 11
-1.2646059
 21
-5.5751225E-001
  0
LINE
  8
108
  6
CONTINUOUS
 62
1
 10
-1.6096689
 20
5.1167105E-001
 11
-6.5208787E-001
 21
1.4692516
  0
LINE
  8
108
  6
CONTINUOUS
 62
1
 10
-6.5208787E-001
 20
2.8834668
 11
-1.6520579
 21
1.883482
  0
LINE
  8
108
  6
CONTINUOUS
 62
1
 10
-1.6520579
 20
3.2976971
 11
-1.3300059
 21
3.6197338
  0
ENDBLK
  0
BLOCK
  2
*XH40
  3
*XH
 10
0.0
 20
0.0
 70
65
  0
LINE
  8
108
  6
CONTINUOUS
 62
1
 10
-8.6015461E-001
 20
-4.7967148
 11
-1.8601546
 21
-3.7966995
  0
LINE
  8
108
  6
CONTINUOUS
 62
1
 10
-1.8601546
 20
-2.3824997
 11
-8.6015461E-001
 21
-3.3824997
  0
LINE
  8
108
  6
CONTINUOUS
 62
1
 10
-8.6015461E-001
 20
-1.9682846
 11
-1.8601546
 21
-9.6828459E-001
  0
LINE
  8
108
  6
CONTINUOUS
 62
1
 10
-1.8601546
 20
4.4593051E-001
 11
-8.6015461E-001
 21
-5.5405429E-001
  0
LINE
  8
108
  6
CONTINUOUS
 62
1
 10
-8.5560761E-001
 20
8.5561371E-001
 11
-1.8555776
 21
1.8555984
  0
LINE
  8
108
  6
CONTINUOUS
 62
1
 10
-8.7361361E-001
 20
2.2878189
 11
1.2635639E-001
 21
1.2878494
  0
LINE
  8
108
  6
CONTINUOUS
 62
1
 10
1.5406014
 20
1.2878494
 11
5.4060139E-001
 21
2.2878189
  0
LINE
  8
108
  6
CONTINUOUS
 62
1
 10
1.9547864
 20
2.2878494
 11
2.9547864
 21
1.2878494
  0
LINE
  8
108
  6
CONTINUOUS
 62
1
 10
3.9798714
 20
1.6770096
 11
3.3690324
 21
2.2878494
  0
ENDBLK
  0
BLOCK
  2
*XH41
  3
*XH
 10
0.0
 20
0.0
 70
65
  0
LINE
  8
108
  6
CONTINUOUS
 62
1
 10
2.1169459
 20
4.1990964E-001
 11
-6.405911E-001
 21
-2.3376282
  0
LINE
  8
108
  6
CONTINUOUS
 62
1
 10
-2.1082121
 20
-2.391034
 11
-1.1036961
 21
-1.3865174
  0
LINE
  8
108
  6
CONTINUOUS
 62
1
 10
1.3089629
 20
1.0261261
 11
2.3134799
 21
2.0306274
  0
LINE
  8
108
  6
CONTINUOUS
 62
1
 10
2.3134799
 20
3.4448272
 11
1.3134799
 21
2.4448272
  0
LINE
  8
108
  6
CONTINUOUS
 62
1
 10
-2.5223971
 20
-1.3910492
 11
-2.9914521
 21
-1.8600891
  0
ENDBLK
  0
BLOCK
  2
*XH42
  3
*XH
 10
0.0
 20
0.0
 70
65
  0
LINE
  8
108
  6
CONTINUOUS
 62
1
 10
-3.0890081
 20
-6.8104754
 11
-8.7669712E-001
 21
-9.0228014
  0
LINE
  8
108
  6
CONTINUOUS
 62
1
 10
2.3387875E-002
 20
-7.0944567
 11
-3.1392711
 21
-3.9318133
  0
LINE
  8
108
  6
CONTINUOUS
 62
1
 10
-3.1895031
 20
-1.0531359
 11
7.1910875E-002
 21
-4.3145495
  0
LINE
  8
108
  6
CONTINUOUS
 62
1
 10
1.2043388E-001
 20
-1.5346423
 11
-3.2397651
 21
1.8255414
  0
LINE
  8
108
  6
CONTINUOUS
 62
1
 10
-3.2899971
 20
4.7042036
 11
1.7370109
 21
-3.2280446E-001
  0
LINE
  8
108
  6
CONTINUOUS
 62
1
 10
4.3147389
 20
-7.2117856E-002
 11
-2.2345471
 21
6.4771986
  0
LINE
  8
108
  6
CONTINUOUS
 62
1
 10
5.9388387E-001
 20
6.4771986
 11
4.3632929
 21
2.7077741
  0
LINE
  8
108
  6
CONTINUOUS
 62
1
 10
4.4118159
 20
5.4876813
 11
3.4223139
 21
6.4771986
  0
ENDBLK
  0
BLOCK
  2
*XH43
  3
*XH
 10
0.0
 20
0.0
 70
65
  0
LINE
  8
108
  6
CONTINUOUS
 62
1
 10
-4.2293417E-001
 20
-7.1195382
 11
1.6522908
 21
-9.1947793
  0
LINE
  8
108
  6
CONTINUOUS
 62
1
 10
1.7008138
 20
-6.4148721
 11
-4.7319717E-001
 21
-4.2408608
  0
LINE
  8
108
  6
CONTINUOUS
 62
1
 10
-3.8848492
 20
-8.2917871E-001
 11
-4.7160562
 21
2.0132944E-003
  0
LINE
  8
108
  6
CONTINUOUS
 62
1
 10
-4.7663182
 20
2.8806907
 11
-1.0564492
 21
-8.2917871E-001
  0
LINE
  8
108
  6
CONTINUOUS
 62
1
 10
-5.2342917E-001
 20
-1.3621835
 11
1.7493368
 21
-3.6349801
  0
LINE
  8
108
  6
CONTINUOUS
 62
1
 10
1.7978908
 20
-8.5507291E-001
 11
-4.8165502
 21
5.7593528
  0
LINE
  8
108
  6
CONTINUOUS
 62
1
 10
-2.1995762
 20
5.9708244
 11
2.8004238
 21
9.7082439E-001
  0
LINE
  8
108
  6
CONTINUOUS
 62
1
 10
4.5119718
 20
2.0876914
 11
6.2885383E-001
 21
5.9708244
  0
LINE
  8
108
  6
CONTINUOUS
 62
1
 10
3.4572838
 20
5.9708244
 11
4.5604938
 21
4.8675986
  0
ENDBLK
  0
BLOCK
  2
*XH44
  3
*XH
 10
0.0
 20
0.0
 70
65
  0
LINE
  8
108
  6
CONTINUOUS
 62
1
 10
-3.5564545
 20
-2.1003936
 11
-3.9347505
 21
-1.7220977
  0
LINE
  8
108
  6
CONTINUOUS
 62
1
 10
-3.9849825
 20
1.1565644
 11
-7.280545E-001
 21
-2.1003784
  0
LINE
  8
108
  6
CONTINUOUS
 62
1
 10
2.1003755
 20
-2.1003784
 11
-2.8996245
 21
2.8996216
  0
LINE
  8
108
  6
CONTINUOUS
 62
1
 10
-7.11945E-002
 20
2.8996216
 11
4.9288055
 21
-2.1003784
  0
LINE
  8
108
  6
CONTINUOUS
 62
1
 10
5.3886445
 20
2.6819766E-001
 11
2.7572355
 21
2.8996216
  0
ENDBLK
  0
BLOCK
  2
*XH45
  3
*XH
 10
0.0
 20
0.0
 70
65
  0
LINE
  8
108
  6
CONTINUOUS
 62
1
 10
-3.1695958
 20
-2.4872574
 11
-4.5865568
 21
-1.0702957
  0
LINE
  8
108
  6
CONTINUOUS
 62
1
 10
-4.6367888
 20
1.8083817
 11
-3.411648E-001
 21
-2.4872574
  0
LINE
  8
108
  6
CONTINUOUS
 62
1
 10
2.4872652
 20
-2.4872574
 11
-2.5127658
 21
2.5127579
  0
LINE
  8
108
  6
CONTINUOUS
 62
1
 10
3.156642E-001
 20
2.5127579
 11
4.6256622
 21
-1.7972397
  0
LINE
  8
108
  6
CONTINUOUS
 62
1
 10
4.6741852
 20
9.8265229E-001
 11
3.1440952
 21
2.5127579
  0
ENDBLK
  0
BLOCK
  2
*XH46
  3
*XH
 10
0.0
 20
0.0
 70
65
  0
LINE
  8
108
  6
CONTINUOUS
 62
1
 10
-3.4895283E-001
 20
-2.4794795
 11
-1.4954378
 21
-1.3329798
  0
LINE
  8
108
  6
CONTINUOUS
 62
1
 10
-1.5456998
 20
1.5456975
 11
1.5168302
 21
-1.516833
  0
LINE
  8
108
  6
CONTINUOUS
 62
1
 10
1.5653532
 20
1.2630742
 11
3.0790717E-001
 21
2.5205205
  0
ENDBLK
  0
ENDSEC
  0
SECTION
  2
ENTITIES
  0
TEXT
  8
103
  6
CONTINUOUS
 62
40
 10
5.8610364E+002
 20
1.5556993E+001
 40
5.0
  1
RTS85-Seitenmontage
 41
6.6315789E-001
 72
1
 11
5.5460364E+002
 21
1.3056993E+001
 73
2
  0
TEXT
  8
103
  6
CONTINUOUS
 62
40
 10
8.3220295E+001
 20
1.4968434E+002
 40
6.9999999
  1
8556
 41
6.1875E-001
 72
1
 11
7.4557795E+001
 21
1.4618434E+002
 73
2
  0
TEXT
  8
103
  6
CONTINUOUS
 62
40
 10
1.0861661E+002
 20
1.6582146E+002
 40
7.0
  1
Schwellenlager 1   "
 41
6.6375002E-001
 72
1
 11
6.2154107E+001
 21
1.6232146E+002
 73
2
  0
TEXT
  8
103
  6
CONTINUOUS
 62
40
 10
9.5692345E+001
 20
1.688374E+002
 40
3.5
  1
9
 72
1
 11
9.3942345E+001
 21
1.670874E+002
 73
2
  0
TEXT
  8
103
  6
CONTINUOUS
 62
40
 10
1.0080608E+002
 20
1.6187142E+002
 40
3.5
  1
16
 41
5.6250002E-001
 72
1
 11
9.8837334E+001
 21
1.6012142E+002
 73
2
  0
TEXT
  8
103
  6
CONTINUOUS
 62
40
 10
9.7763299E+001
 20
1.6563682E+002
 40
3.5
  1
/
 72
1
 11
9.6013299E+001
 21
1.6388682E+002
 73
2
  0
TEXT
  8
103
  6
CONTINUOUS
 62
40
 10
5.8859169E+001
 20
1.4968434E+002
 40
7.0
  1
Art.-Nr.
 41
6.4687502E-001
 72
1
 11
4.0746669E+001
 21
1.4618434E+002
 73
2
  0
LINE
  8
104
  6
CONTINUOUS
 62
40
 10
4.2755334E+001
 20
1.9095856E+002
 11
4.2755334E+001
 21
2.1725856E+002
  0
LINE
  8
104
  6
CONTINUOUS
 62
40
 10
5.5455346E+001
 20
1.9095856E+002
 11
5.5455346E+001
 21
2.1725856E+002
  0
LINE
  8
99
  6
CONTINUOUS
 62
1
 10
5.4100335E+001
 20
1.7925856E+002
 11
5.4100335E+001
 21
1.8995856E+002
  0
LINE
  8
99
  6
CONTINUOUS
 62
1
 10
5.4100335E+001
 20
1.8995856E+002
 11
5.4444817E+001
 21
1.9050069E+002
  0
LINE
  8
99
  6
CONTINUOUS
 62
1
 10
5.4444817E+001
 20
1.9050069E+002
 11
5.5079736E+001
 21
1.9084702E+002
  0
LINE
  8
99
  6
CONTINUOUS
 62
1
 10
5.5079736E+001
 20
1.9084702E+002
 11
5.5455346E+001
 21
1.9095856E+002
  0
LINE
  8
99
  6
CONTINUOUS
 62
1
 10
4.4110345E+001
 20
1.8995856E+002
 11
5.4100335E+001
 21
1.8995856E+002
  0
LINE
  8
99
  6
CONTINUOUS
 62
1
 10
4.4110345E+001
 20
1.7925856E+002
 11
4.4110345E+001
 21
1.8995856E+002
  0
LINE
  8
99
  6
CONTINUOUS
 62
1
 10
4.4110345E+001
 20
1.8995856E+002
 11
4.38854E+001
 21
1.9040166E+002
  0
LINE
  8
99
  6
CONTINUOUS
 62
1
 10
4.38854E+001
 20
1.9040166E+002
 11
4.2755334E+001
 21
1.9095856E+002
  0
LINE
  8
104
  6
CONTINUOUS
 62
40
 10
5.5455346E+001
 20
1.9095856E+002
 11
5.5455346E+001
 21
1.8061356E+002
  0
LINE
  8
104
  6
CONTINUOUS
 62
40
 10
5.5455346E+001
 20
1.8061356E+002
 11
5.4100335E+001
 21
1.7925856E+002
  0
LINE
  8
104
  6
CONTINUOUS
 62
40
 10
5.4100335E+001
 20
1.7925856E+002
 11
4.4110345E+001
 21
1.7925856E+002
  0
LINE
  8
104
  6
CONTINUOUS
 62
40
 10
4.4110345E+001
 20
1.7925856E+002
 11
4.2755334E+001
 21
1.8061356E+002
  0
LINE
  8
104
  6
CONTINUOUS
 62
40
 10
4.2755334E+001
 20
1.8061356E+002
 11
4.2755334E+001
 21
1.9095856E+002
  0
LINE
  8
99
  6
CONTINUOUS
 62
1
 10
4.2755334E+001
 20
1.8061356E+002
 11
5.5455346E+001
 21
1.8061356E+002
  0
LINE
  8
104
  6
CONTINUOUS
 62
40
 10
5.910534E+001
 20
2.2075856E+002
 11
5.9055352E+001
 21
2.2075856E+002
  0
ARC
  8
104
  6
CONTINUOUS
 62
40
 10
5.9055353E+001
 20
2.2435857E+002
 40
3.6000071
 50
1.8000002E+002
 51
2.6999998E+002
  0
LINE
  8
104
  6
CONTINUOUS
 62
40
 10
5.5455346E+001
 20
2.2435857E+002
 11
5.5455346E+001
 21
2.2497255E+002
  0
ARC
  8
104
  6
CONTINUOUS
 62
40
 10
5.3455305E+001
 20
2.2497252E+002
 40
2.0000413
 50
9.261592E-004
 51
5.706236E+001
  0
ARC
  8
104
  6
CONTINUOUS
 62
40
 10
4.9105348E+001
 20
2.1825856E+002
 40
9.9999996
 50
5.7061188E+001
 51
1.2293914E+002
  0
ARC
  8
104
  6
CONTINUOUS
 62
40
 10
4.4755348E+001
 20
2.2497252E+002
 40
2.0000144
 50
1.2293828E+002
 51
1.7999918E+002
  0
LINE
  8
104
  6
CONTINUOUS
 62
40
 10
4.2755334E+001
 20
2.2497255E+002
 11
4.2755334E+001
 21
2.2435857E+002
  0
ARC
  8
104
  6
CONTINUOUS
 62
40
 10
3.9155336E+001
 20
2.2435856E+002
 40
3.5999979
 50
2.7000035E+002
 51
3.6000013E+002
  0
LINE
  8
104
  6
CONTINUOUS
 62
40
 10
3.9155358E+001
 20
2.2075856E+002
 11
3.9105355E+001
 21
2.2075856E+002
  0
LINE
  8
104
  6
CONTINUOUS
 62
40
 10
3.6400353E+001
 20
1.9095856E+002
 11
6.1810357E+001
 21
1.9095856E+002
  0
LINE
  8
104
  6
CONTINUOUS
 62
40
 10
6.1810357E+001
 20
1.9095856E+002
 11
6.1810357E+001
 21
2.1725856E+002
  0
LINE
  8
104
  6
CONTINUOUS
 62
40
 10
6.1810357E+001
 20
2.1725856E+002
 11
3.6400353E+001
 21
2.1725856E+002
  0
LINE
  8
104
  6
CONTINUOUS
 62
40
 10
3.6400353E+001
 20
2.1725856E+002
 11
3.6400353E+001
 21
1.9095856E+002
  0
LINE
  8
104
  6
CONTINUOUS
 62
40
 10
3.9105355E+001
 20
2.1725856E+002
 11
3.9105355E+001
 21
2.2075856E+002
  0
LINE
  8
104
  6
CONTINUOUS
 62
40
 10
3.9105355E+001
 20
2.2075856E+002
 11
5.910534E+001
 21
2.2075856E+002
  0
LINE
  8
104
  6
CONTINUOUS
 62
40
 10
5.910534E+001
 20
2.2075856E+002
 11
5.910534E+001
 21
2.1725856E+002
  0
LINE
  8
106
  6
CENTERLINE
 62
1
 10
4.910534E+001
 20
1.7152418E+002
 11
4.910534E+001
 21
2.3455934E+002
  0
TEXT
  8
103
  6
CONTINUOUS
 62
40
 10
5.2445358E+002
 20
1.5323217E+002
 40
7.0
  1
Art.-Nr.
 41
6.4687502E-001
 72
1
 11
5.0634108E+002
 21
1.4973217E+002
 73
2
  0
TEXT
  8
103
  6
CONTINUOUS
 62
40
 10
5.4881468E+002
 20
1.5246372E+002
 40
6.9999999
  1
8554
 41
6.1875E-001
 72
1
 11
5.4015218E+002
 21
1.4896372E+002
 73
2
  0
TEXT
  8
103
  6
CONTINUOUS
 62
40
 10
5.5819468E+002
 20
1.6706399E+002
 40
7.0
  1
Schwellenlager 1"
 41
6.6176473E-001
 72
1
 11
5.1881968E+002
 21
1.6356399E+002
 73
2
  0
LINE
  8
104
  6
CONTINUOUS
 62
40
 10
5.1057721E+002
 20
1.9087047E+002
 11
5.1057721E+002
 21
2.0287047E+002
  0
LINE
  8
104
  6
CONTINUOUS
 62
40
 10
5.2327722E+002
 20
1.9087047E+002
 11
5.2327972E+002
 21
2.0287047E+002
  0
LINE
  8
99
  6
CONTINUOUS
 62
1
 10
5.2192221E+002
 20
1.7917048E+002
 11
5.2192221E+002
 21
1.8987047E+002
  0
LINE
  8
99
  6
CONTINUOUS
 62
1
 10
5.2192221E+002
 20
1.8987047E+002
 11
5.2226666E+002
 21
1.904126E+002
  0
LINE
  8
99
  6
CONTINUOUS
 62
1
 10
5.2226666E+002
 20
1.904126E+002
 11
5.2290161E+002
 21
1.9075893E+002
  0
LINE
  8
99
  6
CONTINUOUS
 62
1
 10
5.2290161E+002
 20
1.9075893E+002
 11
5.2327722E+002
 21
1.9087047E+002
  0
LINE
  8
99
  6
CONTINUOUS
 62
1
 10
5.1193222E+002
 20
1.8987047E+002
 11
5.2192221E+002
 21
1.8987047E+002
  0
LINE
  8
99
  6
CONTINUOUS
 62
1
 10
5.1193222E+002
 20
1.7917048E+002
 11
5.1193222E+002
 21
1.8987047E+002
  0
LINE
  8
99
  6
CONTINUOUS
 62
1
 10
5.1193222E+002
 20
1.8987047E+002
 11
5.1170727E+002
 21
1.9031357E+002
  0
LINE
  8
99
  6
CONTINUOUS
 62
1
 10
5.1170727E+002
 20
1.9031357E+002
 11
5.1057721E+002
 21
1.9087047E+002
  0
LINE
  8
104
  6
CONTINUOUS
 62
40
 10
5.2327722E+002
 20
1.9087047E+002
 11
5.2327722E+002
 21
1.8052547E+002
  0
LINE
  8
104
  6
CONTINUOUS
 62
40
 10
5.2327722E+002
 20
1.8052547E+002
 11
5.2192221E+002
 21
1.7917048E+002
  0
LINE
  8
104
  6
CONTINUOUS
 62
40
 10
5.2192221E+002
 20
1.7917048E+002
 11
5.1193222E+002
 21
1.7917048E+002
  0
LINE
  8
104
  6
CONTINUOUS
 62
40
 10
5.1193222E+002
 20
1.7917048E+002
 11
5.1057721E+002
 21
1.8052547E+002
  0
LINE
  8
104
  6
CONTINUOUS
 62
40
 10
5.1057721E+002
 20
1.8052547E+002
 11
5.1057721E+002
 21
1.9087047E+002
  0
LINE
  8
99
  6
CONTINUOUS
 62
1
 10
5.1057721E+002
 20
1.8052547E+002
 11
5.2327722E+002
 21
1.8052547E+002
  0
LINE
  8
104
  6
CONTINUOUS
 62
40
 10
5.2692721E+002
 20
2.0637047E+002
 11
5.268772E+002
 21
2.0637047E+002
  0
ARC
  8
104
  6
CONTINUOUS
 62
40
 10
5.2687721E+002
 20
2.0997047E+002
 40
3.5999935
 50
1.799998E+002
 51
2.6999972E+002
  0
LINE
  8
104
  6
CONTINUOUS
 62
40
 10
5.2327722E+002
 20
2.0997048E+002
 11
5.2327722E+002
 21
2.1058446E+002
  0
ARC
  8
104
  6
CONTINUOUS
 62
40
 10
5.2127718E+002
 20
2.1058443E+002
 40
2.0000413
 50
9.261592E-004
 51
5.706236E+001
  0
ARC
  8
104
  6
CONTINUOUS
 62
40
 10
5.1692721E+002
 20
2.0387047E+002
 40
1.0000008E+001
 50
5.7061116E+001
 51
1.2293921E+002
  0
ARC
  8
104
  6
CONTINUOUS
 62
40
 10
5.1257723E+002
 20
2.1058445E+002
 40
2.0000226
 50
1.2293943E+002
 51
1.7999961E+002
  0
LINE
  8
104
  6
CONTINUOUS
 62
40
 10
5.1057721E+002
 20
2.1058446E+002
 11
5.1057721E+002
 21
2.0997048E+002
  0
ARC
  8
104
  6
CONTINUOUS
 62
40
 10
5.069772E+002
 20
2.0997048E+002
 40
3.6000068
 50
2.7000025E+002
 51
3.5999999E+002
  0
LINE
  8
104
  6
CONTINUOUS
 62
40
 10
5.0697722E+002
 20
2.0637047E+002
 11
5.0692721E+002
 21
2.0637047E+002
  0
LINE
  8
104
  6
CONTINUOUS
 62
40
 10
5.0422221E+002
 20
1.9087047E+002
 11
5.296322E+002
 21
1.9087047E+002
  0
LINE
  8
104
  6
CONTINUOUS
 62
40
 10
5.296322E+002
 20
1.9087047E+002
 11
5.296322E+002
 21
2.0287047E+002
  0
LINE
  8
104
  6
CONTINUOUS
 62
40
 10
5.296322E+002
 20
2.0287047E+002
 11
5.0422221E+002
 21
2.0287047E+002
  0
LINE
  8
104
  6
CONTINUOUS
 62
40
 10
5.0422221E+002
 20
2.0287047E+002
 11
5.0422221E+002
 21
1.9087047E+002
  0
LINE
  8
104
  6
CONTINUOUS
 62
40
 10
5.0692721E+002
 20
2.0287047E+002
 11
5.0692721E+002
 21
2.0637047E+002
  0
LINE
  8
104
  6
CONTINUOUS
 62
40
 10
5.0692721E+002
 20
2.0637047E+002
 11
5.2692721E+002
 21
2.0637047E+002
  0
LINE
  8
104
  6
CONTINUOUS
 62
40
 10
5.2692721E+002
 20
2.0637047E+002
 11
5.2692721E+002
 21
2.0287047E+002
  0
LINE
  8
106
  6
CENTERLINE
 62
1
 10
5.1692721E+002
 20
1.714361E+002
 11
5.1692721E+002
 21
2.2017126E+002
  0
LINE
  8
106
  6
CENTERLINE
 62
1
 10
4.7881014E+002
 20
9.1720513E+001
 11
4.7881014E+002
 21
1.2033895E+002
  0
LINE
  8
99
  6
CONTINUOUS
 62
1
 10
4.7381014E+002
 20
9.8243523E+001
 11
4.7381014E+002
 21
9.3743523E+001
  0
ARC
  8
99
  6
CONTINUOUS
 62
1
 10
4.7431016E+002
 20
9.3743539E+001
 40
5.0001643E-001
 50
1.8000188E+002
 51
2.6999812E+002
  0
LINE
  8
99
  6
CONTINUOUS
 62
1
 10
4.7431014E+002
 20
9.3243523E+001
 11
4.7781014E+002
 21
9.3243523E+001
  0
LINE
  8
99
  6
CONTINUOUS
 62
1
 10
4.7781014E+002
 20
9.3243523E+001
 11
4.7781014E+002
 21
9.5243523E+001
  0
LINE
  8
99
  6
CONTINUOUS
 62
1
 10
4.7781014E+002
 20
9.5243523E+001
 11
4.7981014E+002
 21
9.5243523E+001
  0
LINE
  8
99
  6
CONTINUOUS
 62
1
 10
4.7981014E+002
 20
9.5243523E+001
 11
4.7981014E+002
 21
9.3243523E+001
  0
LINE
  8
99
  6
CONTINUOUS
 62
1
 10
4.7981014E+002
 20
9.3243523E+001
 11
4.8331014E+002
 21
9.3243523E+001
  0
ARC
  8
99
  6
CONTINUOUS
 62
1
 10
4.8331014E+002
 20
9.3743525E+001
 40
5.0000156E-001
 50
2.7000018E+002
 51
3.5999982E+002
  0
LINE
  8
99
  6
CONTINUOUS
 62
1
 10
4.8381014E+002
 20
9.3743523E+001
 11
4.8381014E+002
 21
9.8243523E+001
  0
LINE
  8
99
  6
CONTINUOUS
 62
1
 10
4.8381014E+002
 20
9.8243523E+001
 11
4.7381014E+002
 21
9.8243523E+001
  0
LINE
  8
99
  6
CONTINUOUS
 62
1
 10
4.7581014E+002
 20
9.8243523E+001
 11
4.7581014E+002
 21
1.1824351E+002
  0
LINE
  8
99
  6
CONTINUOUS
 62
1
 10
4.7581014E+002
 20
1.1824351E+002
 11
4.8181014E+002
 21
1.1824351E+002
  0
LINE
  8
99
  6
CONTINUOUS
 62
1
 10
4.8181014E+002
 20
1.1824351E+002
 11
4.8181014E+002
 21
9.8243523E+001
  0
LINE
  8
99
  6
CONTINUOUS
 62
1
 10
4.7681014E+002
 20
1.1824351E+002
 11
4.7681014E+002
 21
9.8243523E+001
  0
LINE
  8
99
  6
CONTINUOUS
 62
1
 10
4.8081014E+002
 20
9.8243523E+001
 11
4.8081014E+002
 21
1.1824351E+002
  0
LINE
  8
99
  6
CONTINUOUS
 62
1
 10
4.9611037E+002
 20
9.8243523E+001
 11
4.9611037E+002
 21
9.3743523E+001
  0
ARC
  8
99
  6
CONTINUOUS
 62
1
 10
4.9661037E+002
 20
9.3743517E+001
 40
4.999938E-001
 50
1.7999929E+002
 51
2.7000071E+002
  0
LINE
  8
99
  6
CONTINUOUS
 62
1
 10
4.9661037E+002
 20
9.3243523E+001
 11
5.0011037E+002
 21
9.3243523E+001
  0
LINE
  8
99
  6
CONTINUOUS
 62
1
 10
5.0011037E+002
 20
9.3243523E+001
 11
5.0011037E+002
 21
9.5243523E+001
  0
LINE
  8
99
  6
CONTINUOUS
 62
1
 10
5.0011037E+002
 20
9.5243523E+001
 11
5.0211037E+002
 21
9.5243523E+001
  0
LINE
  8
99
  6
CONTINUOUS
 62
1
 10
5.0211037E+002
 20
9.5243523E+001
 11
5.0211037E+002
 21
9.3243523E+001
  0
LINE
  8
99
  6
CONTINUOUS
 62
1
 10
5.0211037E+002
 20
9.3243523E+001
 11
5.0561037E+002
 21
9.3243523E+001
  0
ARC
  8
99
  6
CONTINUOUS
 62
1
 10
5.0561035E+002
 20
9.3743546E+001
 40
5.0002348E-001
 50
2.7000269E+002
 51
3.5999731E+002
  0
LINE
  8
99
  6
CONTINUOUS
 62
1
 10
5.0611037E+002
 20
9.3743523E+001
 11
5.0611037E+002
 21
9.8243523E+001
  0
LINE
  8
99
  6
CONTINUOUS
 62
1
 10
5.0611037E+002
 20
9.8243523E+001
 11
4.9611037E+002
 21
9.8243523E+001
  0
LINE
  8
99
  6
CONTINUOUS
 62
1
 10
4.9811037E+002
 20
9.8243523E+001
 11
4.9811037E+002
 21
1.1824351E+002
  0
LINE
  8
99
  6
CONTINUOUS
 62
1
 10
4.9811037E+002
 20
1.1824351E+002
 11
5.0411037E+002
 21
1.1824351E+002
  0
LINE
  8
99
  6
CONTINUOUS
 62
1
 10
5.0411037E+002
 20
1.1824351E+002
 11
5.0411037E+002
 21
9.8243523E+001
  0
LINE
  8
99
  6
CONTINUOUS
 62
1
 10
4.9911037E+002
 20
1.1824351E+002
 11
4.9911037E+002
 21
9.8243523E+001
  0
LINE
  8
99
  6
CONTINUOUS
 62
1
 10
5.0311037E+002
 20
9.8243523E+001
 11
5.0311037E+002
 21
1.1824351E+002
  0
LINE
  8
106
  6
CENTERLINE
 62
1
 10
5.2331014E+002
 20
1.2048647E+002
 11
5.2331014E+002
 21
9.2605629E+001
  0
LINE
  8
99
  6
CONTINUOUS
 62
1
 10
5.1831014E+002
 20
9.8243523E+001
 11
5.1831014E+002
 21
9.3743523E+001
  0
ARC
  8
99
  6
CONTINUOUS
 62
1
 10
5.1881014E+002
 20
9.374352E+001
 40
4.9999749E-001
 50
1.7999971E+002
 51
2.7000029E+002
  0
LINE
  8
99
  6
CONTINUOUS
 62
1
 10
5.1881014E+002
 20
9.3243523E+001
 11
5.2231014E+002
 21
9.3243523E+001
  0
LINE
  8
99
  6
CONTINUOUS
 62
1
 10
5.2231014E+002
 20
9.3243523E+001
 11
5.2231014E+002
 21
9.5243523E+001
  0
LINE
  8
99
  6
CONTINUOUS
 62
1
 10
5.2231014E+002
 20
9.5243523E+001
 11
5.2431014E+002
 21
9.5243523E+001
  0
LINE
  8
99
  6
CONTINUOUS
 62
1
 10
5.2431014E+002
 20
9.5243523E+001
 11
5.2431014E+002
 21
9.3243523E+001
  0
LINE
  8
99
  6
CONTINUOUS
 62
1
 10
5.2431014E+002
 20
9.3243523E+001
 11
5.2781014E+002
 21
9.3243523E+001
  0
ARC
  8
99
  6
CONTINUOUS
 62
1
 10
5.2781012E+002
 20
9.3743543E+001
 40
5.0002049E-001
 50
2.7000235E+002
 51
3.5999765E+002
  0
LINE
  8
99
  6
CONTINUOUS
 62
1
 10
5.2831014E+002
 20
9.3743523E+001
 11
5.2831014E+002
 21
9.8243523E+001
  0
LINE
  8
99
  6
CONTINUOUS
 62
1
 10
5.2831014E+002
 20
9.8243523E+001
 11
5.1831014E+002
 21
9.8243523E+001
  0
LINE
  8
99
  6
CONTINUOUS
 62
1
 10
5.2031014E+002
 20
9.8243523E+001
 11
5.2031014E+002
 21
1.1824351E+002
  0
LINE
  8
99
  6
CONTINUOUS
 62
1
 10
5.2031014E+002
 20
1.1824351E+002
 11
5.2631014E+002
 21
1.1824351E+002
  0
LINE
  8
99
  6
CONTINUOUS
 62
1
 10
5.2631014E+002
 20
1.1824351E+002
 11
5.2631014E+002
 21
9.8243523E+001
  0
LINE
  8
99
  6
CONTINUOUS
 62
1
 10
5.2131014E+002
 20
1.1824351E+002
 11
5.2131014E+002
 21
9.8243523E+001
  0
LINE
  8
99
  6
CONTINUOUS
 62
1
 10
5.2531014E+002
 20
9.8243523E+001
 11
5.2531014E+002
 21
1.1824351E+002
  0
INSERT
  2
*XH26
  8
108
 10
4.5025442E+002
 20
8.2043511E+001
  0
LINE
  8
106
  6
CENTERLINE
 62
1
 10
4.5156435E+002
 20
8.6014794E+001
 11
4.4920009E+002
 21
8.6014794E+001
  0
LINE
  8
104
  6
CONTINUOUS
 62
40
 10
4.5570803E+002
 20
7.6543511E+001
 11
4.4491271E+002
 21
7.6543511E+001
  0
LINE
  8
104
  6
CONTINUOUS
 62
40
 10
4.4491271E+002
 20
7.6543511E+001
 11
4.4433538E+002
 21
7.7543511E+001
  0
LINE
  8
104
  6
CONTINUOUS
 62
40
 10
4.4433538E+002
 20
7.7543511E+001
 11
4.4433538E+002
 21
8.5043511E+001
  0
LINE
  8
104
  6
CONTINUOUS
 62
40
 10
4.4433538E+002
 20
8.5043511E+001
 11
4.4031039E+002
 21
8.5043511E+001
  0
LINE
  8
104
  6
CONTINUOUS
 62
40
 10
4.4031039E+002
 20
8.5043511E+001
 11
4.4031039E+002
 21
8.8543511E+001
  0
LINE
  8
104
  6
CONTINUOUS
 62
40
 10
4.4031039E+002
 20
8.8543511E+001
 11
4.4036037E+002
 21
8.8543511E+001
  0
ARC
  8
104
  6
CONTINUOUS
 62
40
 10
4.4036037E+002
 20
9.2143521E+001
 40
3.6000099
 50
2.7000006E+002
 51
3.5999994E+002
  0
LINE
  8
104
  6
CONTINUOUS
 62
40
 10
4.4396038E+002
 20
9.2143517E+001
 11
4.4396038E+002
 21
9.2728783E+001
  0
ARC
  8
104
  6
CONTINUOUS
 62
40
 10
4.4596039E+002
 20
9.2728777E+001
 40
2.0000099
 50
1.2293923E+002
 51
1.7999981E+002
  0
ARC
  8
104
  6
CONTINUOUS
 62
40
 10
4.5031038E+002
 20
8.6014794E+001
 40
1.0000008E+001
 50
5.7061115E+001
 51
1.2293921E+002
  0
ARC
  8
104
  6
CONTINUOUS
 62
40
 10
4.5466031E+002
 20
9.2728767E+001
 40
2.0000488
 50
2.2219624E-003
 51
5.7061184E+001
  0
LINE
  8
104
  6
CONTINUOUS
 62
40
 10
4.5666036E+002
 20
9.2728844E+001
 11
4.5666036E+002
 21
9.2143517E+001
  0
ARC
  8
104
  6
CONTINUOUS
 62
40
 10
4.6026037E+002
 20
9.2143501E+001
 40
3.600005
 50
1.7999974E+002
 51
2.7000003E+002
  0
LINE
  8
104
  6
CONTINUOUS
 62
40
 10
4.6026037E+002
 20
8.8543496E+001
 11
4.6031039E+002
 21
8.8543496E+001
  0
LINE
  8
104
  6
CONTINUOUS
 62
40
 10
4.6031039E+002
 20
8.8543496E+001
 11
4.6031039E+002
 21
8.5043511E+001
  0
LINE
  8
104
  6
CONTINUOUS
 62
40
 10
4.6031039E+002
 20
8.5043511E+001
 11
4.5628536E+002
 21
8.5043511E+001
  0
LINE
  8
104
  6
CONTINUOUS
 62
40
 10
4.5628536E+002
 20
8.5043511E+001
 11
4.5628536E+002
 21
7.7543511E+001
  0
LINE
  8
104
  6
CONTINUOUS
 62
40
 10
4.5628536E+002
 20
7.7543511E+001
 11
4.5570803E+002
 21
7.6543511E+001
  0
LINE
  8
104
  6
CONTINUOUS
 62
40
 10
4.5628536E+002
 20
7.7543511E+001
 11
4.4433538E+002
 21
7.7543511E+001
  0
LINE
  8
99
  6
CONTINUOUS
 62
1
 10
4.5628536E+002
 20
8.0043511E+001
 11
4.4433538E+002
 21
8.0043511E+001
  0
LINE
  8
99
  6
CONTINUOUS
 62
1
 10
4.5628536E+002
 20
8.4043511E+001
 11
4.4433538E+002
 21
8.4043511E+001
  0
LINE
  8
99
  6
CONTINUOUS
 62
1
 10
4.5628536E+002
 20
8.5043511E+001
 11
4.4433538E+002
 21
8.5043511E+001
  0
LINE
  8
104
  6
CONTINUOUS
 62
40
 10
4.6031039E+002
 20
8.8543511E+001
 11
4.4031039E+002
 21
8.8543511E+001
  0
LINE
  8
106
  6
CENTERLINE
 62
1
 10
4.0911037E+002
 20
5.3374077E+001
 11
4.0911037E+002
 21
4.3804879E+001
  0
LINE
  8
106
  6
CENTERLINE
 62
1
 10
4.7251037E+002
 20
5.3086876E+001
 11
4.7251037E+002
 21
4.3622109E+001
  0
LINE
  8
99
  6
CONTINUOUS
 62
1
 10
4.5059902E+002
 20
5.0743523E+001
 11
4.5031039E+002
 21
5.1243493E+001
  0
LINE
  8
99
  6
CONTINUOUS
 62
1
 10
4.5031039E+002
 20
5.1243493E+001
 11
4.5002169E+002
 21
5.0743523E+001
  0
LINE
  8
104
  6
CONTINUOUS
 62
40
 10
4.8251037E+002
 20
4.9743523E+001
 11
3.8051037E+002
 21
4.9743523E+001
  0
LINE
  8
104
  6
CONTINUOUS
 62
40
 10
4.8151037E+002
 20
5.0743523E+001
 11
4.3476989E+002
 21
5.0743523E+001
  0
INSERT
  2
*XH27
  8
108
 10
4.4099474E+002
 20
7.6984103E+001
  0
INSERT
  2
*XH28
  8
108
 10
4.5959663E+002
 20
7.7190473E+001
  0
LINE
  8
104
  6
CONTINUOUS
 62
40
 10
4.4331036E+002
 20
8.5043511E+001
 11
4.4431036E+002
 21
8.4043511E+001
  0
LINE
  8
104
  6
CONTINUOUS
 62
40
 10
4.4431036E+002
 20
8.4043511E+001
 11
4.4431036E+002
 21
6.914016E+001
  0
LINE
  8
104
  6
CONTINUOUS
 62
40
 10
4.5731039E+002
 20
8.5043511E+001
 11
4.5631039E+002
 21
8.404348E+001
  0
LINE
  8
104
  6
CONTINUOUS
 62
40
 10
4.5631039E+002
 20
8.404348E+001
 11
4.5631039E+002
 21
6.9090844E+001
  0
LINE
  8
99
  6
CONTINUOUS
 62
1
 10
4.4431039E+002
 20
8.404348E+001
 11
4.5631036E+002
 21
8.404348E+001
  0
LINE
  8
99
  6
CONTINUOUS
 62
1
 10
4.3752492E+002
 20
6.8890557E+001
 11
4.4228094E+002
 21
6.9063408E+001
  0
LINE
  8
99
  6
CONTINUOUS
 62
1
 10
4.4228094E+002
 20
6.9063408E+001
 11
4.4642159E+002
 21
6.9220024E+001
  0
LINE
  8
99
  6
CONTINUOUS
 62
1
 10
4.4642159E+002
 20
6.9220024E+001
 11
4.5017043E+002
 21
6.9298363E+001
  0
LINE
  8
99
  6
CONTINUOUS
 62
1
 10
4.5017043E+002
 20
6.9298363E+001
 11
4.5453316E+002
 21
6.9063408E+001
  0
LINE
  8
99
  6
CONTINUOUS
 62
1
 10
4.5453316E+002
 20
6.9063408E+001
 11
4.5960125E+002
 21
6.9141686E+001
  0
LINE
  8
99
  6
CONTINUOUS
 62
1
 10
4.5960125E+002
 20
6.9141686E+001
 11
4.6308459E+002
 21
6.9534203E+001
  0
ARC
  8
104
  6
CONTINUOUS
 62
40
 10
4.3425932E+002
 20
5.3699773E+001
 40
3.0000115
 50
2.6906882E+002
 51
3.5900015E+002
  0
LINE
  8
104
  6
CONTINUOUS
 62
40
 10
4.3725887E+002
 20
5.3647423E+001
 11
4.3781039E+002
 21
8.5043511E+001
  0
LINE
  8
104
  6
CONTINUOUS
 62
40
 10
4.3781039E+002
 20
8.5043511E+001
 11
4.6281039E+002
 21
8.5043511E+001
  0
LINE
  8
104
  6
CONTINUOUS
 62
40
 10
4.6281039E+002
 20
8.5043511E+001
 11
4.6336114E+002
 21
5.3691155E+001
  0
ARC
  8
104
  6
CONTINUOUS
 62
40
 10
4.6636068E+002
 20
5.3743489E+001
 40
2.9999969
 50
1.8099957E+002
 51
2.7000003E+002
  0
LINE
  8
104
  6
CONTINUOUS
 62
40
 10
3.8051037E+002
 20
5.0743523E+001
 11
3.8051037E+002
 21
5.1243554E+001
  0
LINE
  8
104
  6
CONTINUOUS
 62
40
 10
3.8051037E+002
 20
5.1243554E+001
 11
4.3598183E+002
 21
5.1243554E+001
  0
LINE
  8
104
  6
CONTINUOUS
 62
40
 10
4.3476989E+002
 20
5.0743523E+001
 11
3.8051037E+002
 21
5.0743523E+001
  0
LINE
  8
104
  6
CONTINUOUS
 62
40
 10
3.8051037E+002
 20
5.0743523E+001
 11
3.8051037E+002
 21
4.6243523E+001
  0
LINE
  8
104
  6
CONTINUOUS
 62
40
 10
3.8051037E+002
 20
4.6243523E+001
 11
4.8251037E+002
 21
4.6243523E+001
  0
LINE
  8
104
  6
CONTINUOUS
 62
40
 10
4.8251037E+002
 20
4.6243523E+001
 11
4.8251037E+002
 21
4.9743523E+001
  0
LINE
  8
104
  6
CONTINUOUS
 62
40
 10
4.8251037E+002
 20
4.9743523E+001
 11
4.8151037E+002
 21
5.0743523E+001
  0
LINE
  8
104
  6
CONTINUOUS
 62
40
 10
4.8151037E+002
 20
5.0743523E+001
 11
4.662604E+002
 21
5.0743523E+001
  0
LINE
  8
106
  6
CENTERLINE
 62
1
 10
4.5031039E+002
 20
8.7126641E+001
 11
4.5031039E+002
 21
4.3802269E+001
  0
LINE
  8
99
  6
CONTINUOUS
 62
1
 10
4.6142538E+002
 20
9.6443535E+001
 11
4.6142538E+002
 21
9.5843529E+001
  0
LINE
  8
99
  6
CONTINUOUS
 62
1
 10
4.6142538E+002
 20
8.831353E+001
 11
4.6142538E+002
 21
8.7743523E+001
  0
LINE
  8
99
  6
CONTINUOUS
 62
1
 10
4.3919536E+002
 20
8.7713524E+001
 11
4.3919536E+002
 21
8.831353E+001
  0
LINE
  8
99
  6
CONTINUOUS
 62
1
 10
4.3919536E+002
 20
9.5843529E+001
 11
4.3919536E+002
 21
9.6443535E+001
  0
INSERT
  2
*XH29
  8
108
 10
4.6179467E+002
 20
9.3370377E+001
  0
INSERT
  2
*XH30
  8
108
 10
4.5831172E+002
 20
9.1224503E+001
  0
INSERT
  2
*XH31
  8
108
 10
4.3898123E+002
 20
9.355641E+001
  0
INSERT
  2
*XH32
  8
108
 10
4.4164621E+002
 20
9.1105285E+001
  0
LINE
  8
106
  6
CENTERLINE
 62
1
 10
4.4054037E+002
 20
9.3810143E+001
 11
4.4054037E+002
 21
9.0885857E+001
  0
LINE
  8
106
  6
CENTERLINE
 62
1
 10
4.4233895E+002
 20
9.2347985E+001
 11
4.3887749E+002
 21
9.2347985E+001
  0
LINE
  8
106
  6
CENTERLINE
 62
1
 10
4.6008038E+002
 20
9.387542E+001
 11
4.6008038E+002
 21
9.0676964E+001
  0
LINE
  8
106
  6
CENTERLINE
 62
1
 10
4.6172307E+002
 20
9.2347985E+001
 11
4.5841839E+002
 21
9.2347985E+001
  0
LINE
  8
99
  6
CONTINUOUS
 62
1
 10
4.5666036E+002
 20
9.4843529E+001
 11
4.5666036E+002
 21
9.2283532E+001
  0
ARC
  8
99
  6
CONTINUOUS
 62
1
 10
4.6023036E+002
 20
9.2283526E+001
 40
3.5700016
 50
1.7999991E+002
 51
2.700001E+002
  0
LINE
  8
99
  6
CONTINUOUS
 62
1
 10
4.6023037E+002
 20
8.8713524E+001
 11
4.6193209E+002
 21
8.8713524E+001
  0
LINE
  8
99
  6
CONTINUOUS
 62
1
 10
4.6193209E+002
 20
8.8713524E+001
 11
4.6193209E+002
 21
8.9713524E+001
  0
LINE
  8
99
  6
CONTINUOUS
 62
1
 10
4.6193209E+002
 20
8.9713524E+001
 11
4.6023037E+002
 21
8.9713524E+001
  0
ARC
  8
99
  6
CONTINUOUS
 62
1
 10
4.6023036E+002
 20
9.2283525E+001
 40
2.5700004
 50
1.7999985E+002
 51
2.7000017E+002
  0
LINE
  8
99
  6
CONTINUOUS
 62
1
 10
4.5766036E+002
 20
9.2283532E+001
 11
4.5766036E+002
 21
9.4843529E+001
  0
LINE
  8
99
  6
CONTINUOUS
 62
1
 10
4.5766036E+002
 20
9.4843529E+001
 11
4.6200039E+002
 21
9.4843529E+001
  0
ARC
  8
99
  6
CONTINUOUS
 62
1
 10
4.620004E+002
 20
9.4343541E+001
 40
4.9998841E-001
 50
3.5999867E+002
 51
4.5000133E+002
  0
LINE
  8
99
  6
CONTINUOUS
 62
1
 10
4.6250039E+002
 20
9.4343529E+001
 11
4.6250039E+002
 21
8.8713524E+001
  0
LINE
  8
99
  6
CONTINUOUS
 62
1
 10
4.5817019E+002
 20
9.5843529E+001
 11
4.5766036E+002
 21
9.5343529E+001
  0
LINE
  8
99
  6
CONTINUOUS
 62
1
 10
4.5766036E+002
 20
9.5343529E+001
 11
4.5766036E+002
 21
9.4843529E+001
  0
LINE
  8
99
  6
CONTINUOUS
 62
1
 10
4.4296038E+002
 20
9.5343529E+001
 11
4.4296038E+002
 21
9.4843529E+001
  0
LINE
  8
99
  6
CONTINUOUS
 62
1
 10
4.4396038E+002
 20
9.4843529E+001
 11
4.4396038E+002
 21
9.2283532E+001
  0
ARC
  8
99
  6
CONTINUOUS
 62
1
 10
4.4039036E+002
 20
9.2283527E+001
 40
3.5700179
 50
2.7000016E+002
 51
3.6000008E+002
  0
LINE
  8
99
  6
CONTINUOUS
 62
1
 10
4.4039037E+002
 20
8.8713509E+001
 11
4.3812038E+002
 21
8.8713509E+001
  0
LINE
  8
99
  6
CONTINUOUS
 62
1
 10
4.4296038E+002
 20
9.4843529E+001
 11
4.3862038E+002
 21
9.4843529E+001
  0
ARC
  8
99
  6
CONTINUOUS
 62
1
 10
4.3862037E+002
 20
9.4343543E+001
 40
4.9998668E-001
 50
8.9998474E+001
 51
1.8000153E+002
  0
LINE
  8
99
  6
CONTINUOUS
 62
1
 10
4.3812038E+002
 20
9.4343529E+001
 11
4.3812038E+002
 21
8.8713524E+001
  0
CIRCLE
  8
99
  6
CONTINUOUS
 62
1
 10
4.6008038E+002
 20
9.2347985E+001
 40
2.399994
  0
CIRCLE
  8
99
  6
CONTINUOUS
 62
1
 10
4.4054037E+002
 20
9.2347985E+001
 40
2.399994
  0
LINE
  8
99
  6
CONTINUOUS
 62
1
 10
4.4296038E+002
 20
9.4843529E+001
 11
4.4296038E+002
 21
9.2283532E+001
  0
ARC
  8
99
  6
CONTINUOUS
 62
1
 10
4.4039036E+002
 20
9.2283526E+001
 40
2.5700172
 50
2.700002E+002
 51
3.6000012E+002
  0
LINE
  8
99
  6
CONTINUOUS
 62
1
 10
4.4039037E+002
 20
8.9713509E+001
 11
4.3865545E+002
 21
8.9713509E+001
  0
LINE
  8
99
  6
CONTINUOUS
 62
1
 10
4.3865545E+002
 20
8.9713509E+001
 11
4.3865545E+002
 21
8.8713555E+001
  0
LINE
  8
99
  6
CONTINUOUS
 62
1
 10
4.4296038E+002
 20
9.4843529E+001
 11
4.4561425E+002
 21
9.4843529E+001
  0
LINE
  8
99
  6
CONTINUOUS
 62
1
 10
4.5500649E+002
 20
9.4843529E+001
 11
4.5766036E+002
 21
9.4843529E+001
  0
LINE
  8
99
  6
CONTINUOUS
 62
1
 10
4.5766036E+002
 20
9.5343529E+001
 11
4.5391244E+002
 21
9.5343529E+001
  0
LINE
  8
99
  6
CONTINUOUS
 62
1
 10
4.4670833E+002
 20
9.5343529E+001
 11
4.4616427E+002
 21
9.5343529E+001
  0
LINE
  8
99
  6
CONTINUOUS
 62
1
 10
4.4616427E+002
 20
9.5343529E+001
 11
4.4296038E+002
 21
9.5343529E+001
  0
LINE
  8
99
  6
CONTINUOUS
 62
1
 10
4.424696E+002
 20
9.5843529E+001
 11
4.4296038E+002
 21
9.5343529E+001
  0
LINE
  8
99
  6
CONTINUOUS
 62
1
 10
4.6350039E+002
 20
8.8713524E+001
 11
4.6023037E+002
 21
8.8713524E+001
  0
LINE
  8
99
  6
CONTINUOUS
 62
1
 10
4.4031039E+002
 20
8.8713524E+001
 11
4.3712038E+002
 21
8.8713524E+001
  0
LINE
  8
99
  6
CONTINUOUS
 62
1
 10
4.4751034E+002
 20
9.5843499E+001
 11
4.4846746E+002
 21
9.5843499E+001
  0
LINE
  8
99
  6
CONTINUOUS
 62
1
 10
4.4846746E+002
 20
9.5843499E+001
 11
4.3762038E+002
 21
9.5843499E+001
  0
ARC
  8
99
  6
CONTINUOUS
 62
1
 10
4.3762037E+002
 20
9.534351E+001
 40
4.9998814E-001
 50
8.9998641E+001
 51
1.7999785E+002
  0
LINE
  8
99
  6
CONTINUOUS
 62
1
 10
4.3712038E+002
 20
9.5343529E+001
 11
4.3712038E+002
 21
8.8513543E+001
  0
ARC
  8
99
  6
CONTINUOUS
 62
1
 10
4.373204E+002
 20
8.851353E+001
 40
2.0001526E-001
 50
1.7999649E+002
 51
2.6999935E+002
  0
LINE
  8
99
  6
CONTINUOUS
 62
1
 10
4.373204E+002
 20
8.8313515E+001
 11
4.4031039E+002
 21
8.8313515E+001
  0
LINE
  8
99
  6
CONTINUOUS
 62
1
 10
4.6031036E+002
 20
8.8313515E+001
 11
4.6330038E+002
 21
8.8313515E+001
  0
ARC
  8
99
  6
CONTINUOUS
 62
1
 10
4.6330038E+002
 20
8.851352E+001
 40
2.000045E-001
 50
2.6999785E+002
 51
3.5999785E+002
  0
LINE
  8
99
  6
CONTINUOUS
 62
1
 10
4.6350039E+002
 20
8.8513512E+001
 11
4.6350039E+002
 21
9.5343529E+001
  0
ARC
  8
99
  6
CONTINUOUS
 62
1
 10
4.6300041E+002
 20
9.534352E+001
 40
4.9997856E-001
 50
1.0495299E-003
 51
9.0002457E+001
  0
LINE
  8
99
  6
CONTINUOUS
 62
1
 10
4.6300039E+002
 20
9.5843499E+001
 11
4.5311034E+002
 21
9.5843499E+001
  0
LINE
  8
99
  6
CONTINUOUS
 62
1
 10
4.5311034E+002
 20
9.5843499E+001
 11
4.5215331E+002
 21
9.5843499E+001
  0
LINE
  8
104
  6
CONTINUOUS
 62
40
 10
4.4031039E+002
 20
8.7713524E+001
 11
4.3702038E+002
 21
8.7713524E+001
  0
ARC
  8
104
  6
CONTINUOUS
 62
40
 10
4.3702036E+002
 20
8.8213508E+001
 40
4.9998407E-001
 50
1.7999817E+002
 51
2.7000183E+002
  0
LINE
  8
104
  6
CONTINUOUS
 62
40
 10
4.3652038E+002
 20
8.8213524E+001
 11
4.3652038E+002
 21
9.5443535E+001
  0
ARC
  8
104
  6
CONTINUOUS
 62
40
 10
4.3752039E+002
 20
9.544352E+001
 40
1.0000153
 50
9.0000877E+001
 51
1.7999912E+002
  0
LINE
  8
104
  6
CONTINUOUS
 62
40
 10
4.3752038E+002
 20
9.6443535E+001
 11
4.6310039E+002
 21
9.6443535E+001
  0
ARC
  8
104
  6
CONTINUOUS
 62
40
 10
4.631004E+002
 20
9.5443543E+001
 40
9.9999263E-001
 50
3.5999958E+002
 51
4.5000042E+002
  0
LINE
  8
104
  6
CONTINUOUS
 62
40
 10
4.6410039E+002
 20
9.5443535E+001
 11
4.6410039E+002
 21
8.8213524E+001
  0
ARC
  8
104
  6
CONTINUOUS
 62
40
 10
4.636004E+002
 20
8.8213521E+001
 40
4.9999641E-001
 50
2.6999959E+002
 51
3.6000041E+002
  0
LINE
  8
104
  6
CONTINUOUS
 62
40
 10
4.6360039E+002
 20
8.7713524E+001
 11
4.6031036E+002
 21
8.7713524E+001
  0
LINE
  8
99
  6
CONTINUOUS
 62
1
 10
4.3637102E+002
 20
8.7743523E+001
 11
4.3684981E+002
 21
8.7743523E+001
  0
LINE
  8
99
  6
CONTINUOUS
 62
1
 10
4.6424975E+002
 20
8.7743523E+001
 11
4.6377099E+002
 21
8.7743523E+001
  0
LINE
  8
104
  6
CONTINUOUS
 62
40
 10
4.6596038E+002
 20
8.7743523E+001
 11
4.6710644E+002
 21
8.7743523E+001
  0
LINE
  8
104
  6
CONTINUOUS
 62
40
 10
4.6710644E+002
 20
8.7743523E+001
 11
4.6717098E+002
 21
9.586834E+001
  0
ARC
  8
104
  6
CONTINUOUS
 62
40
 10
4.6966787E+002
 20
9.5743516E+001
 40
2.5000066
 50
9.0000034E+001
 51
1.7713807E+002
  0
LINE
  8
104
  6
CONTINUOUS
 62
40
 10
4.6871035E+002
 20
9.8243523E+001
 11
4.8891036E+002
 21
9.8243523E+001
  0
LINE
  8
99
  6
CONTINUOUS
 62
1
 10
4.9736037E+002
 20
9.8243523E+001
 11
5.0486037E+002
 21
9.8243523E+001
  0
LINE
  8
104
  6
CONTINUOUS
 62
40
 10
5.1321038E+002
 20
9.8243523E+001
 11
5.3341036E+002
 21
9.8243523E+001
  0
LINE
  8
106
  6
CENTERLINE
 62
1
 10
5.0111037E+002
 20
1.1982264E+002
 11
5.0111037E+002
 21
9.2236824E+001
  0
LINE
  8
106
  6
CENTERLINE
 62
1
 10
4.5031039E+002
 20
1.068336E+002
 11
4.5031039E+002
 21
8.4640404E+001
  0
LINE
  8
104
  6
CONTINUOUS
 62
40
 10
5.3291036E+002
 20
1.0324351E+002
 11
5.1371038E+002
 21
1.0324351E+002
  0
LINE
  8
99
  6
CONTINUOUS
 62
1
 10
5.0436037E+002
 20
1.0324351E+002
 11
4.9786037E+002
 21
1.0324351E+002
  0
LINE
  8
104
  6
CONTINUOUS
 62
40
 10
4.8841036E+002
 20
1.0324351E+002
 11
4.6921035E+002
 21
1.0324351E+002
  0
LINE
  8
104
  6
CONTINUOUS
 62
40
 10
4.5981036E+002
 20
1.0324351E+002
 11
4.4081039E+002
 21
1.0324351E+002
  0
LINE
  8
99
  6
CONTINUOUS
 62
1
 10
4.4031039E+002
 20
9.6443535E+001
 11
4.6031036E+002
 21
9.6443535E+001
  0
LINE
  8
104
  6
CONTINUOUS
 62
40
 10
4.4081039E+002
 20
1.0324351E+002
 11
4.406917E+002
 21
9.6443535E+001
  0
LINE
  8
104
  6
CONTINUOUS
 62
40
 10
4.406917E+002
 20
9.6443535E+001
 11
4.3652288E+002
 21
9.6443535E+001
  0
LINE
  8
104
  6
CONTINUOUS
 62
40
 10
4.3652288E+002
 20
9.6443535E+001
 11
4.3637102E+002
 21
8.7743523E+001
  0
LINE
  8
104
  6
CONTINUOUS
 62
40
 10
4.3637102E+002
 20
8.7743523E+001
 11
4.3333092E+002
 21
8.7743523E+001
  0
LINE
  8
104
  6
CONTINUOUS
 62
40
 10
4.3333092E+002
 20
8.7743523E+001
 11
4.3306036E+002
 21
1.0324351E+002
  0
LINE
  8
104
  6
CONTINUOUS
 62
40
 10
4.3306036E+002
 20
1.0324351E+002
 11
4.4081039E+002
 21
1.0324351E+002
  0
INSERT
  2
*XH33
  8
108
 10
4.3595922E+002
 20
9.6002111E+001
  0
LINE
  8
104
  6
CONTINUOUS
 62
40
 10
4.6921035E+002
 20
1.0324351E+002
 11
4.691231E+002
 21
9.8243523E+001
  0
LINE
  8
104
  6
CONTINUOUS
 62
40
 10
4.691231E+002
 20
9.8243523E+001
 11
4.6646035E+002
 21
9.8243523E+001
  0
LINE
  8
104
  6
CONTINUOUS
 62
40
 10
4.6646035E+002
 20
9.8243523E+001
 11
4.6627706E+002
 21
8.7743523E+001
  0
LINE
  8
104
  6
CONTINUOUS
 62
40
 10
4.6627706E+002
 20
8.7743523E+001
 11
4.6424975E+002
 21
8.7743523E+001
  0
LINE
  8
104
  6
CONTINUOUS
 62
40
 10
4.6424975E+002
 20
8.7743523E+001
 11
4.6409786E+002
 21
9.6443535E+001
  0
LINE
  8
104
  6
CONTINUOUS
 62
40
 10
4.6409786E+002
 20
9.6443535E+001
 11
4.5992907E+002
 21
9.6443535E+001
  0
LINE
  8
104
  6
CONTINUOUS
 62
40
 10
4.5992907E+002
 20
9.6443535E+001
 11
4.5981036E+002
 21
1.0324351E+002
  0
LINE
  8
104
  6
CONTINUOUS
 62
40
 10
4.5981036E+002
 20
1.0324351E+002
 11
4.6921035E+002
 21
1.0324351E+002
  0
INSERT
  2
*XH34
  8
108
 10
4.6475495E+002
 20
9.6551308E+001
  0
LINE
  8
104
  6
CONTINUOUS
 62
40
 10
4.9786037E+002
 20
1.0324351E+002
 11
4.9777309E+002
 21
9.8243523E+001
  0
LINE
  8
104
  6
CONTINUOUS
 62
40
 10
4.9777309E+002
 20
9.8243523E+001
 11
4.8849764E+002
 21
9.8243523E+001
  0
LINE
  8
104
  6
CONTINUOUS
 62
40
 10
4.8849764E+002
 20
9.8243523E+001
 11
4.8841036E+002
 21
1.0324351E+002
  0
LINE
  8
104
  6
CONTINUOUS
 62
40
 10
4.8841036E+002
 20
1.0324351E+002
 11
4.9786037E+002
 21
1.0324351E+002
  0
INSERT
  2
*XH35
  8
108
 10
4.9242719E+002
 20
1.0034533E+002
  0
LINE
  8
104
  6
CONTINUOUS
 62
40
 10
5.1371038E+002
 20
1.0324351E+002
 11
5.136231E+002
 21
9.8243523E+001
  0
LINE
  8
104
  6
CONTINUOUS
 62
40
 10
5.136231E+002
 20
9.8243523E+001
 11
5.0444765E+002
 21
9.8243523E+001
  0
LINE
  8
104
  6
CONTINUOUS
 62
40
 10
5.0444765E+002
 20
9.8243523E+001
 11
5.0436037E+002
 21
1.0324351E+002
  0
LINE
  8
104
  6
CONTINUOUS
 62
40
 10
5.0436037E+002
 20
1.0324351E+002
 11
5.1371038E+002
 21
1.0324351E+002
  0
INSERT
  2
*XH36
  8
108
 10
5.0901088E+002
 20
1.007322E+002
  0
LINE
  8
104
  6
CONTINUOUS
 62
40
 10
5.3606039E+002
 20
1.0324351E+002
 11
5.3597311E+002
 21
9.8243523E+001
  0
LINE
  8
104
  6
CONTINUOUS
 62
40
 10
5.3597311E+002
 20
9.8243523E+001
 11
5.3299764E+002
 21
9.8243523E+001
  0
LINE
  8
104
  6
CONTINUOUS
 62
40
 10
5.3299764E+002
 20
9.8243523E+001
 11
5.3291036E+002
 21
1.0324351E+002
  0
LINE
  8
104
  6
CONTINUOUS
 62
40
 10
5.3291036E+002
 20
1.0324351E+002
 11
5.3606039E+002
 21
1.0324351E+002
  0
INSERT
  2
*XH37
  8
108
 10
5.344745E+002
 20
1.0072443E+002
  0
LINE
  8
99
  6
CONTINUOUS
 62
1
 10
3.3283239E+002
 20
9.8243523E+001
 11
3.3283239E+002
 21
9.3743523E+001
  0
ARC
  8
99
  6
CONTINUOUS
 62
1
 10
3.3333239E+002
 20
9.3743524E+001
 40
5.0000099E-001
 50
1.8000011E+002
 51
2.6999989E+002
  0
LINE
  8
99
  6
CONTINUOUS
 62
1
 10
3.3333239E+002
 20
9.3243523E+001
 11
3.3683239E+002
 21
9.3243523E+001
  0
LINE
  8
99
  6
CONTINUOUS
 62
1
 10
3.3683239E+002
 20
9.3243523E+001
 11
3.3683239E+002
 21
9.5243523E+001
  0
LINE
  8
99
  6
CONTINUOUS
 62
1
 10
3.3683239E+002
 20
9.5243523E+001
 11
3.3883239E+002
 21
9.5243523E+001
  0
LINE
  8
99
  6
CONTINUOUS
 62
1
 10
3.3883239E+002
 20
9.5243523E+001
 11
3.3883239E+002
 21
9.3243523E+001
  0
LINE
  8
99
  6
CONTINUOUS
 62
1
 10
3.3883239E+002
 20
9.3243523E+001
 11
3.4233239E+002
 21
9.3243523E+001
  0
ARC
  8
99
  6
CONTINUOUS
 62
1
 10
3.4233239E+002
 20
9.374355E+001
 40
5.0002704E-001
 50
2.6999955E+002
 51
3.599969E+002
  0
LINE
  8
99
  6
CONTINUOUS
 62
1
 10
3.4283242E+002
 20
9.3743523E+001
 11
3.4283242E+002
 21
9.8243523E+001
  0
LINE
  8
99
  6
CONTINUOUS
 62
1
 10
3.4283242E+002
 20
9.8243523E+001
 11
3.3283239E+002
 21
9.8243523E+001
  0
LINE
  8
99
  6
CONTINUOUS
 62
1
 10
3.3483239E+002
 20
9.8243523E+001
 11
3.3483239E+002
 21
1.1824351E+002
  0
LINE
  8
99
  6
CONTINUOUS
 62
1
 10
3.3483239E+002
 20
1.1824351E+002
 11
3.4083239E+002
 21
1.1824351E+002
  0
LINE
  8
99
  6
CONTINUOUS
 62
1
 10
3.4083239E+002
 20
1.1824351E+002
 11
3.4083239E+002
 21
9.8243523E+001
  0
LINE
  8
99
  6
CONTINUOUS
 62
1
 10
3.3583239E+002
 20
1.1824351E+002
 11
3.3583239E+002
 21
9.8243523E+001
  0
LINE
  8
99
  6
CONTINUOUS
 62
1
 10
3.3983239E+002
 20
9.8243523E+001
 11
3.3983239E+002
 21
1.1824351E+002
  0
LINE
  8
99
  6
CONTINUOUS
 62
1
 10
3.2783239E+002
 20
8.7743523E+001
 11
3.2783239E+002
 21
8.5043511E+001
  0
LINE
  8
104
  6
CONTINUOUS
 62
40
 10
3.4783239E+002
 20
8.7743523E+001
 11
3.4783239E+002
 21
8.5043511E+001
  0
LINE
  8
106
  6
CENTERLINE
 62
1
 10
3.2783242E+002
 20
5.3743523E+001
 11
3.2783242E+002
 21
4.2377785E+001
  0
LINE
  8
106
  6
CENTERLINE
 62
1
 10
3.4783239E+002
 20
5.3743523E+001
 11
3.4783239E+002
 21
4.3198098E+001
  0
LINE
  8
104
  6
CONTINUOUS
 62
40
 10
3.2083239E+002
 20
8.7743523E+001
 11
3.5483239E+002
 21
8.7743523E+001
  0
LINE
  8
104
  6
CONTINUOUS
 62
40
 10
3.5483239E+002
 20
8.7743523E+001
 11
3.5483239E+002
 21
1.0324351E+002
  0
LINE
  8
104
  6
CONTINUOUS
 62
40
 10
3.5483239E+002
 20
1.0324351E+002
 11
3.2083239E+002
 21
1.0324351E+002
  0
LINE
  8
104
  6
CONTINUOUS
 62
40
 10
3.2083239E+002
 20
1.0324351E+002
 11
3.2083239E+002
 21
8.7743523E+001
  0
LINE
  8
104
  6
CONTINUOUS
 62
40
 10
3.2083239E+002
 20
9.8243523E+001
 11
3.5483239E+002
 21
9.8243523E+001
  0
LINE
  8
106
  6
CENTERLINE
 62
1
 10
3.3783239E+002
 20
1.2077619E+002
 11
3.3783239E+002
 21
3.7592629E+001
  0
LINE
  8
104
  6
CONTINUOUS
 62
40
 10
3.5583239E+002
 20
4.9743523E+001
 11
3.1983239E+002
 21
4.9743523E+001
  0
LINE
  8
104
  6
CONTINUOUS
 62
40
 10
3.2483242E+002
 20
5.0743523E+001
 11
3.5083239E+002
 21
5.0743523E+001
  0
LINE
  8
104
  6
CONTINUOUS
 62
40
 10
3.5083239E+002
 20
5.0743523E+001
 11
3.4783239E+002
 21
5.0743508E+001
  0
LINE
  8
104
  6
CONTINUOUS
 62
40
 10
3.4783239E+002
 20
5.0743508E+001
 11
3.2483242E+002
 21
5.0743523E+001
  0
LINE
  8
104
  6
CONTINUOUS
 62
40
 10
3.2483242E+002
 20
5.0743523E+001
 11
3.2083239E+002
 21
5.0743523E+001
  0
LINE
  8
104
  6
CONTINUOUS
 62
40
 10
3.2083239E+002
 20
5.0743523E+001
 11
3.1983239E+002
 21
4.9743523E+001
  0
LINE
  8
104
  6
CONTINUOUS
 62
40
 10
3.1983239E+002
 20
4.9743523E+001
 11
3.1983239E+002
 21
4.6243523E+001
  0
LINE
  8
104
  6
CONTINUOUS
 62
40
 10
3.1983239E+002
 20
4.6243523E+001
 11
3.5583239E+002
 21
4.6243523E+001
  0
LINE
  8
104
  6
CONTINUOUS
 62
40
 10
3.5583239E+002
 20
4.6243523E+001
 11
3.5583239E+002
 21
4.9743523E+001
  0
LINE
  8
104
  6
CONTINUOUS
 62
40
 10
3.5583239E+002
 20
4.9743523E+001
 11
3.5483239E+002
 21
5.0743523E+001
  0
LINE
  8
104
  6
CONTINUOUS
 62
40
 10
3.5483239E+002
 20
5.0743523E+001
 11
3.5083239E+002
 21
5.0743523E+001
  0
LINE
  8
104
  6
CONTINUOUS
 62
40
 10
3.5483239E+002
 20
5.0743523E+001
 11
3.5333236E+002
 21
5.0743508E+001
  0
ARC
  8
104
  6
CONTINUOUS
 62
40
 10
3.5333231E+002
 20
5.3743493E+001
 40
2.9999853
 50
1.7999972E+002
 51
2.7000085E+002
  0
LINE
  8
104
  6
CONTINUOUS
 62
40
 10
3.5033233E+002
 20
5.3743508E+001
 11
3.5033236E+002
 21
8.5043511E+001
  0
LINE
  8
104
  6
CONTINUOUS
 62
40
 10
3.5033236E+002
 20
8.5043511E+001
 11
3.2533236E+002
 21
8.5043511E+001
  0
LINE
  8
104
  6
CONTINUOUS
 62
40
 10
3.2533236E+002
 20
8.5043511E+001
 11
3.2533236E+002
 21
5.3743523E+001
  0
ARC
  8
104
  6
CONTINUOUS
 62
40
 10
3.2233235E+002
 20
5.3743536E+001
 40
3.0000129
 50
2.7000025E+002
 51
3.5999975E+002
  0
LINE
  8
104
  6
CONTINUOUS
 62
40
 10
3.2233236E+002
 20
5.0743523E+001
 11
3.2083239E+002
 21
5.0743523E+001
  0
TEXT
  8
103
  6
CONTINUOUS
 62
40
 10
4.9285282E+002
 20
2.6690491E+001
 40
7.0
  1
Bodenlager mit Oberteil 57mm Art.-Nr.
 41
6.6891894E-001
 72
1
 11
4.0622781E+002
 21
2.3190491E+001
 73
2
  0
TEXT
  8
103
  6
CONTINUOUS
 62
40
 10
5.1199654E+002
 20
2.6280915E+001
 40
6.9999999
  1
8551
 41
6.1875E-001
 72
1
 11
5.0333404E+002
 21
2.2780915E+001
 73
2
  0
TEXT
  8
103
  6
CONTINUOUS
 62
40
 10
2.0240852E+002
 20
2.5895531E+001
 40
7.0
  1
Bodenlager mit Oberteil 27mm Art.-Nr.
 41
6.6891894E-001
 72
1
 11
1.1578351E+002
 21
2.2395531E+001
 73
2
  0
TEXT
  8
103
  6
CONTINUOUS
 62
40
 10
2.2531702E+002
 20
2.5293206E+001
 40
6.9999999
  1
8550
 41
6.1875E-001
 72
1
 11
2.1665452E+002
 21
2.1793206E+001
 73
2
  0
LINE
  8
106
  6
CENTERLINE
 62
1
 10
4.1666631E+001
 20
5.3743523E+001
 11
4.1666631E+001
 21
4.2377785E+001
  0
LINE
  8
106
  6
CENTERLINE
 62
1
 10
6.1666601E+001
 20
5.3743523E+001
 11
6.1666601E+001
 21
4.3198098E+001
  0
LINE
  8
104
  6
CONTINUOUS
 62
40
 10
3.4666601E+001
 20
5.7743523E+001
 11
6.8666601E+001
 21
5.7743523E+001
  0
LINE
  8
104
  6
CONTINUOUS
 62
40
 10
6.8666601E+001
 20
5.7743523E+001
 11
6.8666601E+001
 21
7.3243523E+001
  0
LINE
  8
104
  6
CONTINUOUS
 62
40
 10
6.8666601E+001
 20
7.3243523E+001
 11
3.4666601E+001
 21
7.3243523E+001
  0
LINE
  8
104
  6
CONTINUOUS
 62
40
 10
3.4666601E+001
 20
7.3243523E+001
 11
3.4666601E+001
 21
5.7743523E+001
  0
LINE
  8
104
  6
CONTINUOUS
 62
40
 10
3.4666601E+001
 20
6.8243523E+001
 11
6.8666601E+001
 21
6.8243523E+001
  0
LINE
  8
106
  6
CENTERLINE
 62
1
 10
5.1666601E+001
 20
9.0776223E+001
 11
5.1666601E+001
 21
4.3368981E+001
  0
LINE
  8
104
  6
CONTINUOUS
 62
40
 10
6.9666601E+001
 20
4.9743523E+001
 11
3.366657E+001
 21
4.9743523E+001
  0
LINE
  8
104
  6
CONTINUOUS
 62
40
 10
3.8666631E+001
 20
5.0743538E+001
 11
6.4666601E+001
 21
5.0743538E+001
  0
LINE
  8
104
  6
CONTINUOUS
 62
40
 10
4.1666631E+001
 20
5.7743523E+001
 11
4.1666631E+001
 21
5.3743523E+001
  0
ARC
  8
104
  6
CONTINUOUS
 62
40
 10
3.8666661E+001
 20
5.3743509E+001
 40
2.9999705
 50
2.6999944E+002
 51
3.6000027E+002
  0
LINE
  8
104
  6
CONTINUOUS
 62
40
 10
3.8666631E+001
 20
5.0743538E+001
 11
3.4666601E+001
 21
5.0743538E+001
  0
LINE
  8
104
  6
CONTINUOUS
 62
40
 10
3.4666601E+001
 20
5.0743538E+001
 11
3.3666601E+001
 21
4.9743538E+001
  0
LINE
  8
104
  6
CONTINUOUS
 62
40
 10
3.3666601E+001
 20
4.9743538E+001
 11
3.3666601E+001
 21
4.6243523E+001
  0
LINE
  8
104
  6
CONTINUOUS
 62
40
 10
3.3666601E+001
 20
4.6243523E+001
 11
6.9666601E+001
 21
4.6243523E+001
  0
LINE
  8
104
  6
CONTINUOUS
 62
40
 10
6.9666601E+001
 20
4.6243523E+001
 11
6.9666601E+001
 21
4.9743523E+001
  0
LINE
  8
104
  6
CONTINUOUS
 62
40
 10
6.9666601E+001
 20
4.9743523E+001
 11
6.8666601E+001
 21
5.0743523E+001
  0
LINE
  8
104
  6
CONTINUOUS
 62
40
 10
6.8666601E+001
 20
5.0743523E+001
 11
6.4666601E+001
 21
5.0743523E+001
  0
ARC
  8
104
  6
CONTINUOUS
 62
40
 10
6.4666565E+001
 20
5.3743518E+001
 40
2.9999945
 50
1.799999E+002
 51
2.7000069E+002
  0
LINE
  8
104
  6
CONTINUOUS
 62
40
 10
6.166657E+001
 20
5.3743523E+001
 11
6.166657E+001
 21
5.7743523E+001
  0
LINE
  8
99
  6
CONTINUOUS
 62
1
 10
4.6666601E+001
 20
6.8243523E+001
 11
4.6666601E+001
 21
6.3743523E+001
  0
ARC
  8
99
  6
CONTINUOUS
 62
1
 10
4.7166597E+001
 20
6.3743519E+001
 40
4.9999593E-001
 50
1.7999953E+002
 51
2.7000047E+002
  0
LINE
  8
99
  6
CONTINUOUS
 62
1
 10
4.7166601E+001
 20
6.3243523E+001
 11
5.0666601E+001
 21
6.3243523E+001
  0
LINE
  8
99
  6
CONTINUOUS
 62
1
 10
5.0666601E+001
 20
6.3243523E+001
 11
5.0666601E+001
 21
6.5243523E+001
  0
LINE
  8
99
  6
CONTINUOUS
 62
1
 10
5.0666601E+001
 20
6.5243523E+001
 11
5.2666601E+001
 21
6.5243523E+001
  0
LINE
  8
99
  6
CONTINUOUS
 62
1
 10
5.2666601E+001
 20
6.5243523E+001
 11
5.2666601E+001
 21
6.3243523E+001
  0
LINE
  8
99
  6
CONTINUOUS
 62
1
 10
5.2666601E+001
 20
6.3243523E+001
 11
5.6166601E+001
 21
6.3243523E+001
  0
ARC
  8
99
  6
CONTINUOUS
 62
1
 10
5.6166603E+001
 20
6.3743521E+001
 40
4.9999801E-001
 50
2.6999977E+002
 51
3.6000023E+002
  0
LINE
  8
99
  6
CONTINUOUS
 62
1
 10
5.6666601E+001
 20
6.3743523E+001
 11
5.6666601E+001
 21
6.8243523E+001
  0
LINE
  8
99
  6
CONTINUOUS
 62
1
 10
5.6666601E+001
 20
6.8243523E+001
 11
4.6666601E+001
 21
6.8243523E+001
  0
LINE
  8
99
  6
CONTINUOUS
 62
1
 10
4.8666601E+001
 20
6.8243523E+001
 11
4.8666601E+001
 21
8.8243523E+001
  0
LINE
  8
99
  6
CONTINUOUS
 62
1
 10
4.8666601E+001
 20
8.8243523E+001
 11
5.4666601E+001
 21
8.8243523E+001
  0
LINE
  8
99
  6
CONTINUOUS
 62
1
 10
5.4666601E+001
 20
8.8243523E+001
 11
5.4666601E+001
 21
6.8243523E+001
  0
LINE
  8
99
  6
CONTINUOUS
 62
1
 10
4.9666601E+001
 20
8.8243523E+001
 11
4.9666601E+001
 21
6.8243523E+001
  0
LINE
  8
99
  6
CONTINUOUS
 62
1
 10
5.3666601E+001
 20
6.8243523E+001
 11
5.3666601E+001
 21
8.8243523E+001
  0
LINE
  8
99
  6
CONTINUOUS
 62
1
 10
2.3214457E+002
 20
6.8243523E+001
 11
2.3214457E+002
 21
6.3743523E+001
  0
ARC
  8
99
  6
CONTINUOUS
 62
1
 10
2.3264456E+002
 20
6.3743514E+001
 40
4.9999094E-001
 50
1.7999896E+002
 51
2.7000104E+002
  0
LINE
  8
99
  6
CONTINUOUS
 62
1
 10
2.3264457E+002
 20
6.3243523E+001
 11
2.3614457E+002
 21
6.3243523E+001
  0
LINE
  8
99
  6
CONTINUOUS
 62
1
 10
2.3614457E+002
 20
6.3243523E+001
 11
2.3614457E+002
 21
6.5243523E+001
  0
LINE
  8
99
  6
CONTINUOUS
 62
1
 10
2.3614457E+002
 20
6.5243523E+001
 11
2.3814457E+002
 21
6.5243523E+001
  0
LINE
  8
99
  6
CONTINUOUS
 62
1
 10
2.3814457E+002
 20
6.5243523E+001
 11
2.3814457E+002
 21
6.3243523E+001
  0
LINE
  8
99
  6
CONTINUOUS
 62
1
 10
2.3814457E+002
 20
6.3243523E+001
 11
2.4164457E+002
 21
6.3243523E+001
  0
ARC
  8
99
  6
CONTINUOUS
 62
1
 10
2.4164455E+002
 20
6.3743537E+001
 40
5.0001417E-001
 50
2.7000162E+002
 51
3.5999838E+002
  0
LINE
  8
99
  6
CONTINUOUS
 62
1
 10
2.4214457E+002
 20
6.3743523E+001
 11
2.4214457E+002
 21
6.8243523E+001
  0
LINE
  8
99
  6
CONTINUOUS
 62
1
 10
2.4214457E+002
 20
6.8243523E+001
 11
2.3214457E+002
 21
6.8243523E+001
  0
LINE
  8
99
  6
CONTINUOUS
 62
1
 10
2.3414457E+002
 20
6.8243523E+001
 11
2.3414457E+002
 21
8.8243523E+001
  0
LINE
  8
99
  6
CONTINUOUS
 62
1
 10
2.3414457E+002
 20
8.8243523E+001
 11
2.4014457E+002
 21
8.8243523E+001
  0
LINE
  8
99
  6
CONTINUOUS
 62
1
 10
2.4014457E+002
 20
8.8243523E+001
 11
2.4014457E+002
 21
6.8243523E+001
  0
LINE
  8
99
  6
CONTINUOUS
 62
1
 10
2.3514457E+002
 20
8.8243523E+001
 11
2.3514457E+002
 21
6.8243523E+001
  0
LINE
  8
99
  6
CONTINUOUS
 62
1
 10
2.3914457E+002
 20
6.8243523E+001
 11
2.3914457E+002
 21
8.8243523E+001
  0
LINE
  8
99
  6
CONTINUOUS
 62
1
 10
2.0994458E+002
 20
6.8243523E+001
 11
2.0994458E+002
 21
6.3743523E+001
  0
ARC
  8
99
  6
CONTINUOUS
 62
1
 10
2.1044457E+002
 20
6.3743511E+001
 40
4.9998773E-001
 50
1.7999859E+002
 51
2.7000141E+002
  0
LINE
  8
99
  6
CONTINUOUS
 62
1
 10
2.1044458E+002
 20
6.3243523E+001
 11
2.1394458E+002
 21
6.3243523E+001
  0
LINE
  8
99
  6
CONTINUOUS
 62
1
 10
2.1394458E+002
 20
6.3243523E+001
 11
2.1394458E+002
 21
6.5243523E+001
  0
LINE
  8
99
  6
CONTINUOUS
 62
1
 10
2.1394458E+002
 20
6.5243523E+001
 11
2.1594458E+002
 21
6.5243523E+001
  0
LINE
  8
99
  6
CONTINUOUS
 62
1
 10
2.1594458E+002
 20
6.5243523E+001
 11
2.1594458E+002
 21
6.3243523E+001
  0
LINE
  8
99
  6
CONTINUOUS
 62
1
 10
2.1594458E+002
 20
6.3243523E+001
 11
2.1944458E+002
 21
6.3243523E+001
  0
ARC
  8
99
  6
CONTINUOUS
 62
1
 10
2.1944457E+002
 20
6.374354E+001
 40
5.0001668E-001
 50
2.7000191E+002
 51
3.5999809E+002
  0
LINE
  8
99
  6
CONTINUOUS
 62
1
 10
2.1994458E+002
 20
6.3743523E+001
 11
2.1994458E+002
 21
6.8243523E+001
  0
LINE
  8
99
  6
CONTINUOUS
 62
1
 10
2.1994458E+002
 20
6.8243523E+001
 11
2.0994458E+002
 21
6.8243523E+001
  0
LINE
  8
99
  6
CONTINUOUS
 62
1
 10
2.1194458E+002
 20
6.8243523E+001
 11
2.1194458E+002
 21
8.8243523E+001
  0
LINE
  8
99
  6
CONTINUOUS
 62
1
 10
2.1194458E+002
 20
8.8243523E+001
 11
2.1794458E+002
 21
8.8243523E+001
  0
LINE
  8
99
  6
CONTINUOUS
 62
1
 10
2.1794458E+002
 20
8.8243523E+001
 11
2.1794458E+002
 21
6.8243523E+001
  0
LINE
  8
99
  6
CONTINUOUS
 62
1
 10
2.1294458E+002
 20
8.8243523E+001
 11
2.1294458E+002
 21
6.8243523E+001
  0
LINE
  8
99
  6
CONTINUOUS
 62
1
 10
2.1694458E+002
 20
6.8243523E+001
 11
2.1694458E+002
 21
8.8243523E+001
  0
LINE
  8
99
  6
CONTINUOUS
 62
1
 10
1.8764457E+002
 20
6.8243523E+001
 11
1.8764457E+002
 21
6.3743523E+001
  0
ARC
  8
99
  6
CONTINUOUS
 62
1
 10
1.8814455E+002
 20
6.3743511E+001
 40
4.9998796E-001
 50
1.7999862E+002
 51
2.7000138E+002
  0
LINE
  8
99
  6
CONTINUOUS
 62
1
 10
1.8814457E+002
 20
6.3243523E+001
 11
1.9164457E+002
 21
6.3243523E+001
  0
LINE
  8
99
  6
CONTINUOUS
 62
1
 10
1.9164457E+002
 20
6.3243523E+001
 11
1.9164457E+002
 21
6.5243523E+001
  0
LINE
  8
99
  6
CONTINUOUS
 62
1
 10
1.9164457E+002
 20
6.5243523E+001
 11
1.9364457E+002
 21
6.5243523E+001
  0
LINE
  8
99
  6
CONTINUOUS
 62
1
 10
1.9364457E+002
 20
6.5243523E+001
 11
1.9364457E+002
 21
6.3243523E+001
  0
LINE
  8
99
  6
CONTINUOUS
 62
1
 10
1.9364457E+002
 20
6.3243523E+001
 11
1.9714457E+002
 21
6.3243523E+001
  0
ARC
  8
99
  6
CONTINUOUS
 62
1
 10
1.9714455E+002
 20
6.374354E+001
 40
5.0001645E-001
 50
2.7000188E+002
 51
3.5999812E+002
  0
LINE
  8
99
  6
CONTINUOUS
 62
1
 10
1.9764457E+002
 20
6.3743523E+001
 11
1.9764457E+002
 21
6.8243523E+001
  0
LINE
  8
99
  6
CONTINUOUS
 62
1
 10
1.9764457E+002
 20
6.8243523E+001
 11
1.8764457E+002
 21
6.8243523E+001
  0
LINE
  8
99
  6
CONTINUOUS
 62
1
 10
1.8964457E+002
 20
6.8243523E+001
 11
1.8964457E+002
 21
8.8243523E+001
  0
LINE
  8
99
  6
CONTINUOUS
 62
1
 10
1.8964457E+002
 20
8.8243523E+001
 11
1.9564457E+002
 21
8.8243523E+001
  0
LINE
  8
99
  6
CONTINUOUS
 62
1
 10
1.9564457E+002
 20
8.8243523E+001
 11
1.9564457E+002
 21
6.8243523E+001
  0
LINE
  8
99
  6
CONTINUOUS
 62
1
 10
1.9064457E+002
 20
8.8243523E+001
 11
1.9064457E+002
 21
6.8243523E+001
  0
LINE
  8
99
  6
CONTINUOUS
 62
1
 10
1.9464457E+002
 20
6.8243523E+001
 11
1.9464457E+002
 21
8.8243523E+001
  0
LINE
  8
99
  6
CONTINUOUS
 62
1
 10
1.7525959E+002
 20
6.644352E+001
 11
1.7525959E+002
 21
6.5843514E+001
  0
LINE
  8
99
  6
CONTINUOUS
 62
1
 10
1.7525959E+002
 20
5.8313515E+001
 11
1.7525959E+002
 21
5.7743523E+001
  0
LINE
  8
99
  6
CONTINUOUS
 62
1
 10
1.5302958E+002
 20
5.7713524E+001
 11
1.5302958E+002
 21
5.8313515E+001
  0
LINE
  8
99
  6
CONTINUOUS
 62
1
 10
1.5302958E+002
 20
6.5843514E+001
 11
1.5302958E+002
 21
6.644352E+001
  0
INSERT
  2
*XH38
  8
108
 10
1.7562886E+002
 20
6.3370372E+001
  0
INSERT
  2
*XH39
  8
108
 10
1.7214593E+002
 20
6.1224497E+001
  0
INSERT
  2
*XH40
  8
108
 10
1.5281542E+002
 20
6.3556397E+001
  0
INSERT
  2
*XH41
  8
108
 10
1.5548041E+002
 20
6.1105275E+001
  0
LINE
  8
106
  6
CENTERLINE
 62
1
 10
1.5437458E+002
 20
6.3810128E+001
 11
1.5437458E+002
 21
6.0885842E+001
  0
LINE
  8
106
  6
CENTERLINE
 62
1
 10
1.5617316E+002
 20
6.2347985E+001
 11
1.5271171E+002
 21
6.2347985E+001
  0
LINE
  8
106
  6
CENTERLINE
 62
1
 10
1.7391456E+002
 20
6.3875405E+001
 11
1.7391456E+002
 21
6.0676964E+001
  0
LINE
  8
106
  6
CENTERLINE
 62
1
 10
1.7555729E+002
 20
6.2347985E+001
 11
1.7225257E+002
 21
6.2347985E+001
  0
LINE
  8
99
  6
CONTINUOUS
 62
1
 10
1.7049457E+002
 20
6.4843514E+001
 11
1.7049457E+002
 21
6.2283532E+001
  0
ARC
  8
99
  6
CONTINUOUS
 62
1
 10
1.7406458E+002
 20
6.2283531E+001
 40
3.5700068
 50
1.7999999E+002
 51
2.7000002E+002
  0
LINE
  8
99
  6
CONTINUOUS
 62
1
 10
1.7406458E+002
 20
5.8713524E+001
 11
1.757663E+002
 21
5.8713524E+001
  0
LINE
  8
99
  6
CONTINUOUS
 62
1
 10
1.757663E+002
 20
5.8713524E+001
 11
1.757663E+002
 21
5.9713524E+001
  0
LINE
  8
99
  6
CONTINUOUS
 62
1
 10
1.757663E+002
 20
5.9713524E+001
 11
1.7406458E+002
 21
5.9713524E+001
  0
ARC
  8
99
  6
CONTINUOUS
 62
1
 10
1.7406458E+002
 20
6.228353E+001
 40
2.5700056
 50
1.7999996E+002
 51
2.7000005E+002
  0
LINE
  8
99
  6
CONTINUOUS
 62
1
 10
1.7149457E+002
 20
6.2283532E+001
 11
1.7149457E+002
 21
6.4843514E+001
  0
LINE
  8
99
  6
CONTINUOUS
 62
1
 10
1.7149457E+002
 20
6.4843514E+001
 11
1.758346E+002
 21
6.4843514E+001
  0
ARC
  8
99
  6
CONTINUOUS
 62
1
 10
1.7583461E+002
 20
6.4343524E+001
 40
4.9999016E-001
 50
3.5999887E+002
 51
4.5000113E+002
  0
LINE
  8
99
  6
CONTINUOUS
 62
1
 10
1.763346E+002
 20
6.4343514E+001
 11
1.763346E+002
 21
5.8713524E+001
  0
LINE
  8
99
  6
CONTINUOUS
 62
1
 10
1.720044E+002
 20
6.5843514E+001
 11
1.7149457E+002
 21
6.5343514E+001
  0
LINE
  8
99
  6
CONTINUOUS
 62
1
 10
1.7149457E+002
 20
6.5343514E+001
 11
1.7149457E+002
 21
6.4843514E+001
  0
LINE
  8
99
  6
CONTINUOUS
 62
1
 10
1.5679456E+002
 20
6.5343514E+001
 11
1.5679456E+002
 21
6.4843514E+001
  0
LINE
  8
99
  6
CONTINUOUS
 62
1
 10
1.5779456E+002
 20
6.4843514E+001
 11
1.5779456E+002
 21
6.2283532E+001
  0
ARC
  8
99
  6
CONTINUOUS
 62
1
 10
1.5422452E+002
 20
6.228353E+001
 40
3.5700363
 50
2.7000047E+002
 51
3.6000002E+002
  0
LINE
  8
99
  6
CONTINUOUS
 62
1
 10
1.5422455E+002
 20
5.8713494E+001
 11
1.519546E+002
 21
5.8713494E+001
  0
LINE
  8
99
  6
CONTINUOUS
 62
1
 10
1.5679456E+002
 20
6.4843514E+001
 11
1.524546E+002
 21
6.4843514E+001
  0
ARC
  8
99
  6
CONTINUOUS
 62
1
 10
1.5245456E+002
 20
6.4343523E+001
 40
4.9999087E-001
 50
8.9995516E+001
 51
1.8000105E+002
  0
LINE
  8
99
  6
CONTINUOUS
 62
1
 10
1.5195457E+002
 20
6.4343514E+001
 11
1.5195457E+002
 21
5.8713524E+001
  0
CIRCLE
  8
99
  6
CONTINUOUS
 62
1
 10
1.7391456E+002
 20
6.2347985E+001
 40
2.399963
  0
CIRCLE
  8
99
  6
CONTINUOUS
 62
1
 10
1.5437458E+002
 20
6.2347985E+001
 40
2.399994
  0
LINE
  8
99
  6
CONTINUOUS
 62
1
 10
1.5679456E+002
 20
6.4843514E+001
 11
1.5679456E+002
 21
6.2283516E+001
  0
ARC
  8
99
  6
CONTINUOUS
 62
1
 10
1.5422453E+002
 20
6.2283521E+001
 40
2.5700273
 50
2.7000045E+002
 51
3.5999989E+002
  0
LINE
  8
99
  6
CONTINUOUS
 62
1
 10
1.5422455E+002
 20
5.9713494E+001
 11
1.5248966E+002
 21
5.9713494E+001
  0
LINE
  8
99
  6
CONTINUOUS
 62
1
 10
1.5248966E+002
 20
5.9713494E+001
 11
1.5248966E+002
 21
5.871354E+001
  0
LINE
  8
99
  6
CONTINUOUS
 62
1
 10
1.5679456E+002
 20
6.4843514E+001
 11
1.590416E+002
 21
6.4843514E+001
  0
LINE
  8
99
  6
CONTINUOUS
 62
1
 10
1.692475E+002
 20
6.4843514E+001
 11
1.7149457E+002
 21
6.4843514E+001
  0
LINE
  8
99
  6
CONTINUOUS
 62
1
 10
1.5679456E+002
 20
6.5343514E+001
 11
1.5999845E+002
 21
6.5343514E+001
  0
LINE
  8
99
  6
CONTINUOUS
 62
1
 10
1.6829065E+002
 20
6.5343514E+001
 11
1.7149457E+002
 21
6.5343514E+001
  0
LINE
  8
99
  6
CONTINUOUS
 62
1
 10
1.5630378E+002
 20
6.5843514E+001
 11
1.5679456E+002
 21
6.5343514E+001
  0
LINE
  8
99
  6
CONTINUOUS
 62
1
 10
1.773346E+002
 20
5.8713524E+001
 11
1.7406458E+002
 21
5.8713524E+001
  0
LINE
  8
99
  6
CONTINUOUS
 62
1
 10
1.541446E+002
 20
5.8713524E+001
 11
1.509546E+002
 21
5.8713524E+001
  0
LINE
  8
99
  6
CONTINUOUS
 62
1
 10
1.6134455E+002
 20
6.5843499E+001
 11
1.514546E+002
 21
6.5843499E+001
  0
ARC
  8
99
  6
CONTINUOUS
 62
1
 10
1.5145456E+002
 20
6.5343506E+001
 40
4.9999233E-001
 50
8.9995683E+001
 51
1.7999913E+002
  0
LINE
  8
99
  6
CONTINUOUS
 62
1
 10
1.5095457E+002
 20
6.5343514E+001
 11
1.5095457E+002
 21
5.8513527E+001
  0
ARC
  8
99
  6
CONTINUOUS
 62
1
 10
1.5115458E+002
 20
5.8513512E+001
 40
2.0001231E-001
 50
1.7999568E+002
 51
2.7000851E+002
  0
LINE
  8
99
  6
CONTINUOUS
 62
1
 10
1.5115461E+002
 20
5.83135E+001
 11
1.541446E+002
 21
5.83135E+001
  0
LINE
  8
99
  6
CONTINUOUS
 62
1
 10
1.7414457E+002
 20
5.83135E+001
 11
1.7713459E+002
 21
5.83135E+001
  0
ARC
  8
99
  6
CONTINUOUS
 62
1
 10
1.7713459E+002
 20
5.8513512E+001
 40
2.000121E-001
 50
2.7E+002
 51
3.6000003E+002
  0
LINE
  8
99
  6
CONTINUOUS
 62
1
 10
1.773346E+002
 20
5.8513512E+001
 11
1.773346E+002
 21
6.5343514E+001
  0
ARC
  8
99
  6
CONTINUOUS
 62
1
 10
1.768346E+002
 20
6.5343496E+001
 40
5.0000222E-001
 50
2.0079934E-003
 51
8.9999745E+001
  0
LINE
  8
99
  6
CONTINUOUS
 62
1
 10
1.768346E+002
 20
6.5843499E+001
 11
1.6694456E+002
 21
6.5843499E+001
  0
LINE
  8
104
  6
CONTINUOUS
 62
40
 10
1.541446E+002
 20
5.7713524E+001
 11
1.5085459E+002
 21
5.7713524E+001
  0
ARC
  8
104
  6
CONTINUOUS
 62
40
 10
1.5085458E+002
 20
5.8213514E+001
 40
4.9998927E-001
 50
1.7999877E+002
 51
2.7000123E+002
  0
LINE
  8
104
  6
CONTINUOUS
 62
40
 10
1.5035459E+002
 20
5.8213524E+001
 11
1.5035459E+002
 21
6.544352E+001
  0
ARC
  8
104
  6
CONTINUOUS
 62
40
 10
1.513546E+002
 20
6.5443512E+001
 40
1.0000076
 50
9.0000438E+001
 51
1.7999956E+002
  0
LINE
  8
104
  6
CONTINUOUS
 62
40
 10
1.5135459E+002
 20
6.644352E+001
 11
1.7693458E+002
 21
6.644352E+001
  0
ARC
  8
104
  6
CONTINUOUS
 62
40
 10
1.769346E+002
 20
6.544351E+001
 40
1.0000101
 50
5.774699E-004
 51
9.0001141E+001
  0
LINE
  8
104
  6
CONTINUOUS
 62
40
 10
1.7793461E+002
 20
6.544352E+001
 11
1.7793461E+002
 21
5.8213524E+001
  0
ARC
  8
104
  6
CONTINUOUS
 62
40
 10
1.7743459E+002
 20
5.8213539E+001
 40
5.0001487E-001
 50
2.6999827E+002
 51
3.599983E+002
  0
LINE
  8
104
  6
CONTINUOUS
 62
40
 10
1.7743458E+002
 20
5.7713524E+001
 11
1.7414457E+002
 21
5.7713524E+001
  0
LINE
  8
104
  6
CONTINUOUS
 62
40
 10
9.4344549E+001
 20
5.0743523E+001
 11
9.4344549E+001
 21
5.1243523E+001
  0
LINE
  8
104
  6
CONTINUOUS
 62
40
 10
9.4344549E+001
 20
5.1243523E+001
 11
1.5280289E+002
 21
5.1243523E+001
  0
LINE
  8
104
  6
CONTINUOUS
 62
40
 10
1.511446E+002
 20
5.0743523E+001
 11
1.7714457E+002
 21
5.0743523E+001
  0
LINE
  8
106
  6
CENTERLINE
 62
1
 10
1.6273762E+002
 20
5.6243523E+001
 11
1.6597699E+002
 21
5.6243523E+001
  0
LINE
  8
104
  6
CONTINUOUS
 62
40
 10
1.7414457E+002
 20
5.8743523E+001
 11
1.5419458E+002
 21
5.8743523E+001
  0
LINE
  8
104
  6
CONTINUOUS
 62
40
 10
9.4344549E+001
 20
5.0743523E+001
 11
9.4344549E+001
 21
4.6243523E+001
  0
LINE
  8
104
  6
CONTINUOUS
 62
40
 10
9.4344549E+001
 20
4.6243523E+001
 11
1.9634455E+002
 21
4.6243523E+001
  0
LINE
  8
104
  6
CONTINUOUS
 62
40
 10
1.9634455E+002
 20
4.6243523E+001
 11
1.9634455E+002
 21
4.9743523E+001
  0
LINE
  8
104
  6
CONTINUOUS
 62
40
 10
1.9634455E+002
 20
4.9743523E+001
 11
1.9534455E+002
 21
5.0743523E+001
  0
LINE
  8
104
  6
CONTINUOUS
 62
40
 10
1.9534455E+002
 20
5.0743523E+001
 11
1.7714457E+002
 21
5.0743523E+001
  0
ARC
  8
104
  6
CONTINUOUS
 62
40
 10
1.7714456E+002
 20
5.374352E+001
 40
2.9999971
 50
1.7999995E+002
 51
2.7000005E+002
  0
LINE
  8
104
  6
CONTINUOUS
 62
40
 10
1.7414457E+002
 20
5.3743523E+001
 11
1.7414457E+002
 21
5.8743523E+001
  0
LINE
  8
104
  6
CONTINUOUS
 62
40
 10
1.7414457E+002
 20
5.8743523E+001
 11
1.7409455E+002
 21
5.8743523E+001
  0
ARC
  8
104
  6
CONTINUOUS
 62
40
 10
1.7409455E+002
 20
6.2343504E+001
 40
3.5999813
 50
1.7999961E+002
 51
2.6999992E+002
  0
LINE
  8
104
  6
CONTINUOUS
 62
40
 10
1.7049457E+002
 20
6.2343529E+001
 11
1.7049457E+002
 21
6.2957497E+001
  0
ARC
  8
104
  6
CONTINUOUS
 62
40
 10
1.6849458E+002
 20
6.2957484E+001
 40
1.9999932
 50
3.599172E-004
 51
5.7061027E+001
  0
ARC
  8
104
  6
CONTINUOUS
 62
40
 10
1.6414455E+002
 20
5.6243523E+001
 40
9.9999952
 50
5.7060585E+001
 51
1.2293877E+002
  0
ARC
  8
104
  6
CONTINUOUS
 62
40
 10
1.5979461E+002
 20
6.2957475E+001
 40
2.0000493
 50
1.2293776E+002
 51
1.7999938E+002
  0
LINE
  8
104
  6
CONTINUOUS
 62
40
 10
1.5779456E+002
 20
6.2957497E+001
 11
1.5779456E+002
 21
6.2343529E+001
  0
ARC
  8
104
  6
CONTINUOUS
 62
40
 10
1.5419456E+002
 20
6.2343539E+001
 40
3.6000005
 50
2.7000039E+002
 51
3.5999985E+002
  0
LINE
  8
104
  6
CONTINUOUS
 62
40
 10
1.5419458E+002
 20
5.8743538E+001
 11
1.541446E+002
 21
5.8743538E+001
  0
LINE
  8
104
  6
CONTINUOUS
 62
40
 10
1.541446E+002
 20
5.8743538E+001
 11
1.541446E+002
 21
5.3743523E+001
  0
ARC
  8
104
  6
CONTINUOUS
 62
40
 10
1.5114461E+002
 20
5.3743513E+001
 40
2.9999895
 50
2.699998E+002
 51
3.600002E+002
  0
LINE
  8
104
  6
CONTINUOUS
 62
40
 10
1.511446E+002
 20
5.0743523E+001
 11
9.4344549E+001
 21
5.0743523E+001
  0
LINE
  8
106
  6
CENTERLINE
 62
1
 10
1.6414457E+002
 20
7.5327004E+001
 11
1.6414457E+002
 21
4.2323845E+001
  0
LINE
  8
106
  6
CENTERLINE
 62
1
 10
1.2294459E+002
 20
5.2797051E+001
 11
1.2294459E+002
 21
3.8002785E+001
  0
LINE
  8
106
  6
CENTERLINE
 62
1
 10
1.8634458E+002
 20
5.3306191E+001
 11
1.8634458E+002
 21
3.7794915E+001
  0
LINE
  8
106
  6
CENTERLINE
 62
1
 10
1.9264457E+002
 20
8.995591E+001
 11
1.9264457E+002
 21
6.1244973E+001
  0
LINE
  8
106
  6
CENTERLINE
 62
1
 10
2.3714457E+002
 20
9.0229348E+001
 11
2.3714457E+002
 21
6.1928566E+001
  0
LINE
  8
99
  6
CONTINUOUS
 62
1
 10
1.5020524E+002
 20
5.7743523E+001
 11
1.5068403E+002
 21
5.7743523E+001
  0
LINE
  8
99
  6
CONTINUOUS
 62
1
 10
1.7808393E+002
 20
5.7743523E+001
 11
1.7760517E+002
 21
5.7743523E+001
  0
LINE
  8
104
  6
CONTINUOUS
 62
40
 10
1.7979456E+002
 20
5.7743523E+001
 11
1.8094062E+002
 21
5.7743523E+001
  0
LINE
  8
104
  6
CONTINUOUS
 62
40
 10
1.8094062E+002
 20
5.7743523E+001
 11
1.8100519E+002
 21
6.5868325E+001
  0
ARC
  8
104
  6
CONTINUOUS
 62
40
 10
1.8350211E+002
 20
6.574347E+001
 40
2.5000375
 50
9.0000684E+001
 51
1.771374E+002
  0
LINE
  8
104
  6
CONTINUOUS
 62
40
 10
1.8254456E+002
 20
6.8243523E+001
 11
2.0274457E+002
 21
6.8243523E+001
  0
LINE
  8
99
  6
CONTINUOUS
 62
1
 10
2.1119458E+002
 20
6.8243523E+001
 11
2.1869458E+002
 21
6.8243523E+001
  0
LINE
  8
104
  6
CONTINUOUS
 62
40
 10
2.2704456E+002
 20
6.8243523E+001
 11
2.4724457E+002
 21
6.8243523E+001
  0
LINE
  8
106
  6
CENTERLINE
 62
1
 10
2.1494458E+002
 20
9.0092629E+001
 11
2.1494458E+002
 21
6.1655129E+001
  0
LINE
  8
104
  6
CONTINUOUS
 62
40
 10
2.4674457E+002
 20
7.3243523E+001
 11
2.4014457E+002
 21
7.3243523E+001
  0
LINE
  8
104
  6
CONTINUOUS
 62
40
 10
2.3414457E+002
 20
7.3243523E+001
 11
2.2754456E+002
 21
7.3243523E+001
  0
LINE
  8
99
  6
CONTINUOUS
 62
1
 10
2.1819458E+002
 20
7.3243523E+001
 11
2.1794458E+002
 21
7.3243523E+001
  0
LINE
  8
99
  6
CONTINUOUS
 62
1
 10
2.1194458E+002
 20
7.3243523E+001
 11
2.1169458E+002
 21
7.3243523E+001
  0
LINE
  8
104
  6
CONTINUOUS
 62
40
 10
2.0224457E+002
 20
7.3243523E+001
 11
1.9564457E+002
 21
7.3243523E+001
  0
LINE
  8
104
  6
CONTINUOUS
 62
40
 10
1.8964457E+002
 20
7.3243523E+001
 11
1.8304456E+002
 21
7.3243523E+001
  0
LINE
  8
104
  6
CONTINUOUS
 62
40
 10
1.7364457E+002
 20
7.3243523E+001
 11
1.546446E+002
 21
7.3243523E+001
  0
LINE
  8
99
  6
CONTINUOUS
 62
1
 10
1.541446E+002
 20
6.644352E+001
 11
1.7414457E+002
 21
6.644352E+001
  0
LINE
  8
104
  6
CONTINUOUS
 62
40
 10
1.546446E+002
 20
7.3243523E+001
 11
1.5452588E+002
 21
6.644352E+001
  0
LINE
  8
104
  6
CONTINUOUS
 62
40
 10
1.5452588E+002
 20
6.644352E+001
 11
1.5035709E+002
 21
6.644352E+001
  0
LINE
  8
104
  6
CONTINUOUS
 62
40
 10
1.5035709E+002
 20
6.644352E+001
 11
1.5020524E+002
 21
5.7743523E+001
  0
LINE
  8
104
  6
CONTINUOUS
 62
40
 10
1.5020524E+002
 20
5.7743523E+001
 11
1.4716511E+002
 21
5.7743523E+001
  0
LINE
  8
104
  6
CONTINUOUS
 62
40
 10
1.4716511E+002
 20
5.7743523E+001
 11
1.4689457E+002
 21
7.3243523E+001
  0
LINE
  8
104
  6
CONTINUOUS
 62
40
 10
1.4689457E+002
 20
7.3243523E+001
 11
1.546446E+002
 21
7.3243523E+001
  0
INSERT
  2
*XH42
  8
108
 10
1.5021551E+002
 20
6.6766324E+001
  0
LINE
  8
104
  6
CONTINUOUS
 62
40
 10
1.8304456E+002
 20
7.3243523E+001
 11
1.8295728E+002
 21
6.8243523E+001
  0
LINE
  8
104
  6
CONTINUOUS
 62
40
 10
1.8295728E+002
 20
6.8243523E+001
 11
1.8029456E+002
 21
6.8243523E+001
  0
LINE
  8
104
  6
CONTINUOUS
 62
40
 10
1.8029456E+002
 20
6.8243523E+001
 11
1.8011127E+002
 21
5.7743523E+001
  0
LINE
  8
104
  6
CONTINUOUS
 62
40
 10
1.8011127E+002
 20
5.7743523E+001
 11
1.7808393E+002
 21
5.7743523E+001
  0
LINE
  8
104
  6
CONTINUOUS
 62
40
 10
1.7808393E+002
 20
5.7743523E+001
 11
1.7793207E+002
 21
6.644352E+001
  0
LINE
  8
104
  6
CONTINUOUS
 62
40
 10
1.7793207E+002
 20
6.644352E+001
 11
1.7376325E+002
 21
6.644352E+001
  0
LINE
  8
104
  6
CONTINUOUS
 62
40
 10
1.7376325E+002
 20
6.644352E+001
 11
1.7364457E+002
 21
7.3243523E+001
  0
LINE
  8
104
  6
CONTINUOUS
 62
40
 10
1.7364457E+002
 20
7.3243523E+001
 11
1.8304456E+002
 21
7.3243523E+001
  0
INSERT
  2
*XH43
  8
108
 10
1.7846481E+002
 20
6.7272699E+001
  0
LINE
  8
104
  6
CONTINUOUS
 62
40
 10
2.1169458E+002
 20
7.3243523E+001
 11
2.1160731E+002
 21
6.8243523E+001
  0
LINE
  8
104
  6
CONTINUOUS
 62
40
 10
2.1160731E+002
 20
6.8243523E+001
 11
2.0233185E+002
 21
6.8243523E+001
  0
LINE
  8
104
  6
CONTINUOUS
 62
40
 10
2.0233185E+002
 20
6.8243523E+001
 11
2.0224457E+002
 21
7.3243523E+001
  0
LINE
  8
104
  6
CONTINUOUS
 62
40
 10
2.0224457E+002
 20
7.3243523E+001
 11
2.1169458E+002
 21
7.3243523E+001
  0
INSERT
  2
*XH44
  8
108
 10
2.0626139E+002
 20
7.0345321E+001
  0
LINE
  8
104
  6
CONTINUOUS
 62
40
 10
2.2754456E+002
 20
7.3243523E+001
 11
2.2745728E+002
 21
6.8243523E+001
  0
LINE
  8
104
  6
CONTINUOUS
 62
40
 10
2.2745728E+002
 20
6.8243523E+001
 11
2.1828184E+002
 21
6.8243523E+001
  0
LINE
  8
104
  6
CONTINUOUS
 62
40
 10
2.1828184E+002
 20
6.8243523E+001
 11
2.1819458E+002
 21
7.3243523E+001
  0
LINE
  8
104
  6
CONTINUOUS
 62
40
 10
2.1819458E+002
 20
7.3243523E+001
 11
2.2754456E+002
 21
7.3243523E+001
  0
INSERT
  2
*XH45
  8
108
 10
2.2284508E+002
 20
7.07322E+001
  0
LINE
  8
104
  6
CONTINUOUS
 62
40
 10
2.498946E+002
 20
7.3243523E+001
 11
2.4980732E+002
 21
6.8243523E+001
  0
LINE
  8
104
  6
CONTINUOUS
 62
40
 10
2.4980732E+002
 20
6.8243523E+001
 11
2.4683185E+002
 21
6.8243523E+001
  0
LINE
  8
104
  6
CONTINUOUS
 62
40
 10
2.4683185E+002
 20
6.8243523E+001
 11
2.4674457E+002
 21
7.3243523E+001
  0
LINE
  8
104
  6
CONTINUOUS
 62
40
 10
2.4674457E+002
 20
7.3243523E+001
 11
2.498946E+002
 21
7.3243523E+001
  0
INSERT
  2
*XH46
  8
108
 10
2.4830871E+002
 20
7.0724422E+001
  0
TEXT
  8
103
  6
CONTINUOUS
 62
40
 10
3.3952146E+002
 20
1.9939854E+002
 40
1.0E+001
  1
RTS 85 Pendeltueren
 41
6.6315789E-001
 72
1
 11
2.7652146E+002
 21
1.9439854E+002
 73
2
  0
TEXT
  8
103
  6
CONTINUOUS
 62
40
 10
3.1670127E+002
 20
1.7833116E+002
 40
1.0E+001
  1
Seitenmontage
 41
6.5769231E-001
 72
1
 11
2.7395127E+002
 21
1.7333116E+002
 73
2
  0
TEXT
  8
103
  6
CONTINUOUS
 62
40
 10
3.3670322E+001
 20
4.0345857E+002
 40
5.0
  1
M 1:1
 41
6.3E-001
 72
1
 11
2.5795322E+001
 21
4.0095857E+002
 73
2
  0
LINE
  8
99
  6
CONTINUOUS
 62
1
 10
1.1781087E+002
 20
3.3706736E+002
 11
1.1781087E+002
 21
3.2006736E+002
  0
LINE
  8
99
  6
CONTINUOUS
 62
1
 10
1.1781087E+002
 20
3.2006736E+002
 11
1.2381087E+002
 21
3.2006736E+002
  0
LINE
  8
99
  6
CONTINUOUS
 62
1
 10
1.2381087E+002
 20
3.2006736E+002
 11
1.2381087E+002
 21
3.3706736E+002
  0
LINE
  8
99
  6
CONTINUOUS
 62
1
 10
1.1881087E+002
 20
3.3706736E+002
 11
1.1881087E+002
 21
3.2006736E+002
  0
LINE
  8
99
  6
CONTINUOUS
 62
1
 10
1.2281087E+002
 20
3.2006736E+002
 11
1.2281087E+002
 21
3.3706736E+002
  0
LINE
  8
106
  6
CENTERLINE
 62
1
 10
1.2081087E+002
 20
3.3910448E+002
 11
1.2081087E+002
 21
3.1859667E+002
  0
LINE
  8
99
  6
CONTINUOUS
 62
1
 10
1.2581087E+002
 20
3.3706736E+002
 11
1.2581087E+002
 21
3.2006736E+002
  0
LINE
  8
99
  6
CONTINUOUS
 62
1
 10
1.2581087E+002
 20
3.2006736E+002
 11
1.3181087E+002
 21
3.2006736E+002
  0
LINE
  8
99
  6
CONTINUOUS
 62
1
 10
1.3181087E+002
 20
3.2006736E+002
 11
1.3181087E+002
 21
3.3706736E+002
  0
LINE
  8
99
  6
CONTINUOUS
 62
1
 10
1.2681087E+002
 20
3.3706736E+002
 11
1.2681087E+002
 21
3.2006736E+002
  0
LINE
  8
99
  6
CONTINUOUS
 62
1
 10
1.3081087E+002
 20
3.2006736E+002
 11
1.3081087E+002
 21
3.3706736E+002
  0
LINE
  8
106
  6
CENTERLINE
 62
1
 10
1.2881087E+002
 20
3.3896776E+002
 11
1.2881087E+002
 21
3.1818651E+002
  0
LINE
  8
104
  6
CONTINUOUS
 62
40
 10
1.1456087E+002
 20
3.4256734E+002
 11
1.1981087E+002
 21
3.4256734E+002
  0
LINE
  8
104
  6
CONTINUOUS
 62
40
 10
1.2981087E+002
 20
3.4256734E+002
 11
1.3506087E+002
 21
3.4256734E+002
  0
LINE
  8
104
  6
CONTINUOUS
 62
40
 10
1.3506087E+002
 20
3.4956734E+002
 11
1.2974737E+002
 21
3.4956734E+002
  0
LINE
  8
104
  6
CONTINUOUS
 62
40
 10
1.1987437E+002
 20
3.4956734E+002
 11
1.1456087E+002
 21
3.4956734E+002
  0
LINE
  8
99
  6
CONTINUOUS
 62
1
 10
1.1456087E+002
 20
3.4856734E+002
 11
1.1981087E+002
 21
3.4856734E+002
  0
LINE
  8
99
  6
CONTINUOUS
 62
1
 10
1.2981087E+002
 20
3.4856734E+002
 11
1.3506087E+002
 21
3.4856734E+002
  0
LINE
  8
99
  6
CONTINUOUS
 62
1
 10
1.3506087E+002
 20
3.4356734E+002
 11
1.2981087E+002
 21
3.4356734E+002
  0
LINE
  8
99
  6
CONTINUOUS
 62
1
 10
1.1981087E+002
 20
3.4356734E+002
 11
1.1456087E+002
 21
3.4356734E+002
  0
ARC
  8
104
  6
CONTINUOUS
 62
40
 10
1.3356087E+002
 20
3.4864233E+002
 40
5.4999956
 50
3.3208375E+002
 51
3.8791641E+002
  0
LINE
  8
104
  6
CONTINUOUS
 62
40
 10
1.3842085E+002
 20
3.4606734E+002
 11
1.3506087E+002
 21
3.4606734E+002
  0
ARC
  8
104
  6
CONTINUOUS
 62
40
 10
1.3356087E+002
 20
3.4349235E+002
 40
5.4999987
 50
3.3208369E+002
 51
3.8791631E+002
  0
ARC
  8
104
  6
CONTINUOUS
 62
40
 10
1.1606087E+002
 20
3.4349235E+002
 40
5.5000031
 50
1.520838E+002
 51
2.0791638E+002
  0
LINE
  8
104
  6
CONTINUOUS
 62
40
 10
1.1120089E+002
 20
3.4606734E+002
 11
1.1456087E+002
 21
3.4606734E+002
  0
ARC
  8
104
  6
CONTINUOUS
 62
40
 10
1.1606087E+002
 20
3.4864233E+002
 40
5.4999961
 50
1.5208359E+002
 51
2.0791624E+002
  0
LINE
  8
106
  6
CENTERLINE
 62
1
 10
1.1456087E+002
 20
3.4606734E+002
 11
1.2217161E+002
 21
3.4606734E+002
  0
LINE
  8
106
  6
CENTERLINE
 62
1
 10
1.2770872E+002
 20
3.4606734E+002
 11
1.3506087E+002
 21
3.4606734E+002
  0
LINE
  8
104
  6
CONTINUOUS
 62
40
 10
1.1456087E+002
 20
3.5121734E+002
 11
1.1456087E+002
 21
3.4106737E+002
  0
LINE
  8
104
  6
CONTINUOUS
 62
40
 10
1.1456087E+002
 20
3.4106737E+002
 11
1.1456087E+002
 21
3.4091735E+002
  0
LINE
  8
104
  6
CONTINUOUS
 62
40
 10
1.1456087E+002
 20
3.4091735E+002
 11
1.1056087E+002
 21
3.4091735E+002
  0
LINE
  8
104
  6
CONTINUOUS
 62
40
 10
1.3506087E+002
 20
3.5121734E+002
 11
1.3506087E+002
 21
3.4106737E+002
  0
LINE
  8
104
  6
CONTINUOUS
 62
40
 10
1.3506087E+002
 20
3.4106737E+002
 11
1.3506087E+002
 21
3.4091735E+002
  0
LINE
  8
104
  6
CONTINUOUS
 62
40
 10
1.3506087E+002
 20
3.4091735E+002
 11
1.3906087E+002
 21
3.4091735E+002
  0
LINE
  8
104
  6
CONTINUOUS
 62
40
 10
1.1056087E+002
 20
3.5121734E+002
 11
1.3906087E+002
 21
3.5121734E+002
  0
LINE
  8
104
  6
CONTINUOUS
 62
40
 10
1.1481087E+002
 20
3.5206737E+002
 11
1.1481087E+002
 21
3.5121734E+002
  0
LINE
  8
104
  6
CONTINUOUS
 62
40
 10
1.1481087E+002
 20
3.5121734E+002
 11
1.1481087E+002
 21
3.5306737E+002
  0
LINE
  8
104
  6
CONTINUOUS
 62
40
 10
1.1481087E+002
 20
3.5306737E+002
 11
1.3481087E+002
 21
3.5306737E+002
  0
LINE
  8
104
  6
CONTINUOUS
 62
40
 10
1.3481087E+002
 20
3.5306737E+002
 11
1.3481087E+002
 21
3.5206737E+002
  0
LINE
  8
104
  6
CONTINUOUS
 62
40
 10
1.3481087E+002
 20
3.5206737E+002
 11
1.3481087E+002
 21
3.5121734E+002
  0
LINE
  8
104
  6
CONTINUOUS
 62
40
 10
1.1981087E+002
 20
3.3971972E+002
 11
1.1981087E+002
 21
3.4906737E+002
  0
ARC
  8
104
  6
CONTINUOUS
 62
40
 10
1.2181087E+002
 20
3.4906736E+002
 40
2.0000027
 50
9.0000078E+001
 51
1.7999949E+002
  0
LINE
  8
104
  6
CONTINUOUS
 62
40
 10
1.2181087E+002
 20
3.5106736E+002
 11
1.2781087E+002
 21
3.5106736E+002
  0
ARC
  8
104
  6
CONTINUOUS
 62
40
 10
1.2781087E+002
 20
3.4906736E+002
 40
2.0000035
 50
5.300099E-004
 51
8.99999E+001
  0
LINE
  8
104
  6
CONTINUOUS
 62
40
 10
1.2981087E+002
 20
3.4906737E+002
 11
1.2981087E+002
 21
3.3971972E+002
  0
LINE
  8
104
  6
CONTINUOUS
 62
40
 10
1.3906087E+002
 20
3.5206737E+002
 11
1.4206087E+002
 21
3.5206737E+002
  0
LINE
  8
104
  6
CONTINUOUS
 62
40
 10
1.4206087E+002
 20
3.5206737E+002
 11
1.4206087E+002
 21
3.3906736E+002
  0
ARC
  8
104
  6
CONTINUOUS
 62
40
 10
1.4006088E+002
 20
3.3906735E+002
 40
1.9999943
 50
2.6999984E+002
 51
3.6000016E+002
  0
LINE
  8
104
  6
CONTINUOUS
 62
40
 10
1.4006087E+002
 20
3.3706736E+002
 11
1.0956087E+002
 21
3.3706736E+002
  0
ARC
  8
104
  6
CONTINUOUS
 62
40
 10
1.0956087E+002
 20
3.3906736E+002
 40
1.9999968
 50
1.7999991E+002
 51
2.7000009E+002
  0
LINE
  8
104
  6
CONTINUOUS
 62
40
 10
1.0756087E+002
 20
3.3906736E+002
 11
1.0756087E+002
 21
3.5206734E+002
  0
LINE
  8
104
  6
CONTINUOUS
 62
40
 10
1.0756087E+002
 20
3.5206734E+002
 11
1.1056087E+002
 21
3.5206734E+002
  0
LINE
  8
104
  6
CONTINUOUS
 62
40
 10
1.1056087E+002
 20
3.5206734E+002
 11
1.1056087E+002
 21
3.3971972E+002
  0
LINE
  8
104
  6
CONTINUOUS
 62
40
 10
1.1056087E+002
 20
3.3971972E+002
 11
1.3906087E+002
 21
3.3971972E+002
  0
LINE
  8
104
  6
CONTINUOUS
 62
40
 10
1.3906087E+002
 20
3.3971972E+002
 11
1.3906087E+002
 21
3.5206737E+002
  0
LINE
  8
MED-31
  6
HIDDEN
 62
40
 10
3.4522815E+002
 20
3.5211948E+002
 11
3.4522815E+002
 21
3.4980949E+002
  0
LINE
  8
MED-31
  6
HIDDEN
 62
40
 10
3.4638288E+002
 20
3.5211948E+002
 11
3.4638288E+002
 21
3.4980949E+002
  0
LINE
  8
MED-31
  6
HIDDEN
 62
40
 10
3.4176407E+002
 20
3.4980949E+002
 11
3.4176407E+002
 21
3.5211948E+002
  0
LINE
  8
MED-31
  6
HIDDEN
 62
40
 10
3.4291877E+002
 20
3.4980949E+002
 11
3.4291877E+002
 21
3.5211948E+002
  0
LINE
  8
MED-31
  6
HIDDEN
 62
40
 10
3.4638288E+002
 20
3.4980949E+002
 11
3.4176407E+002
 21
3.4980949E+002
  0
LINE
  8
MED-31
  6
HIDDEN
 62
40
 10
3.4176407E+002
 20
3.5211948E+002
 11
3.4638288E+002
 21
3.5211948E+002
  0
LINE
  8
MED-31
  6
HIDDEN
 62
40
 10
3.4167347E+002
 20
3.488195E+002
 11
3.4167347E+002
 21
3.376195E+002
  0
LINE
  8
MED-31
  6
HIDDEN
 62
40
 10
3.4647345E+002
 20
3.376195E+002
 11
3.4647345E+002
 21
3.488195E+002
  0
LINE
  8
MED-31
  6
HIDDEN
 62
40
 10
3.4707349E+002
 20
3.488195E+002
 11
3.4107349E+002
 21
3.488195E+002
  0
LINE
  8
MED-31
  6
HIDDEN
 62
40
 10
3.4107349E+002
 20
3.376195E+002
 11
3.4107349E+002
 21
3.488195E+002
  0
LINE
  8
MED-31
  6
HIDDEN
 62
40
 10
3.4707349E+002
 20
3.488195E+002
 11
3.4707349E+002
 21
3.376195E+002
  0
LINE
  8
MED-31
  6
HIDDEN
 62
40
 10
3.4107349E+002
 20
3.488195E+002
 11
3.4707349E+002
 21
3.488195E+002
  0
LINE
  8
MED-31
  6
HIDDEN
 62
40
 10
3.4707349E+002
 20
3.376195E+002
 11
3.4107349E+002
 21
3.376195E+002
  0
LINE
  8
MED-31
  6
HIDDEN
 62
40
 10
3.5007349E+002
 20
3.518195E+002
 11
3.4707349E+002
 21
3.488195E+002
  0
LINE
  8
MED-31
  6
HIDDEN
 62
40
 10
3.4707349E+002
 20
3.488195E+002
 11
3.4107349E+002
 21
3.488195E+002
  0
LINE
  8
MED-31
  6
HIDDEN
 62
40
 10
3.4107349E+002
 20
3.488195E+002
 11
3.3807349E+002
 21
3.518195E+002
  0
LINE
  8
MED-31
  6
HIDDEN
 62
40
 10
3.3807349E+002
 20
3.518195E+002
 11
3.5007349E+002
 21
3.518195E+002
  0
LINE
  8
MED-31
  6
HIDDEN
 62
40
 10
3.5007349E+002
 20
3.5211948E+002
 11
3.5007349E+002
 21
3.518195E+002
  0
LINE
  8
MED-31
  6
HIDDEN
 62
40
 10
3.3807349E+002
 20
3.518195E+002
 11
3.3807349E+002
 21
3.5211948E+002
  0
LINE
  8
MED-31
  6
HIDDEN
 62
40
 10
3.5007349E+002
 20
3.518195E+002
 11
3.3807349E+002
 21
3.518195E+002
  0
LINE
  8
MED-31
  6
HIDDEN
 62
40
 10
3.3807349E+002
 20
3.5211948E+002
 11
3.5007349E+002
 21
3.5211948E+002
  0
LINE
  8
105
  6
HIDDEN
 62
1
 10
2.2857347E+002
 20
3.5061948E+002
 11
2.2557347E+002
 21
3.5061948E+002
  0
ARC
  8
105
  6
HIDDEN
 62
1
 10
2.2557347E+002
 20
3.4961948E+002
 40
1.0000011
 50
9.0000062E+001
 51
1.7999994E+002
  0
LINE
  8
105
  6
HIDDEN
 62
1
 10
2.2457347E+002
 20
3.4961948E+002
 11
2.2457347E+002
 21
3.4161948E+002
  0
ARC
  8
105
  6
HIDDEN
 62
1
 10
2.2557346E+002
 20
3.4161948E+002
 40
9.9999536E-001
 50
1.7999973E+002
 51
2.7000027E+002
  0
LINE
  8
105
  6
HIDDEN
 62
1
 10
2.2557347E+002
 20
3.4061948E+002
 11
2.2857347E+002
 21
3.4061948E+002
  0
LINE
  8
105
  6
HIDDEN
 62
1
 10
2.2857347E+002
 20
3.4061948E+002
 11
2.2857347E+002
 21
3.5061948E+002
  0
LINE
  8
105
  6
HIDDEN
 62
1
 10
2.2857347E+002
 20
3.4861948E+002
 11
2.5357347E+002
 21
3.4861948E+002
  0
LINE
  8
105
  6
HIDDEN
 62
1
 10
2.5357347E+002
 20
3.4761948E+002
 11
2.2857347E+002
 21
3.4761948E+002
  0
LINE
  8
105
  6
HIDDEN
 62
1
 10
2.2857347E+002
 20
3.4361948E+002
 11
2.5357347E+002
 21
3.4361948E+002
  0
LINE
  8
105
  6
HIDDEN
 62
1
 10
2.5357347E+002
 20
3.4261948E+002
 11
2.2857347E+002
 21
3.4261948E+002
  0
LINE
  8
106
  6
CENTERLINE
 62
1
 10
2.2302952E+002
 20
3.4561948E+002
 11
2.5488499E+002
 21
3.4561948E+002
  0
LINE
  8
99
  6
CONTINUOUS
 62
1
 10
2.9157347E+002
 20
3.4811948E+002
 11
2.9357347E+002
 21
3.4811948E+002
  0
LINE
  8
99
  6
CONTINUOUS
 62
1
 10
2.9357347E+002
 20
3.4811948E+002
 11
2.9507347E+002
 21
3.4611948E+002
  0
LINE
  8
99
  6
CONTINUOUS
 62
1
 10
2.9507347E+002
 20
3.4611948E+002
 11
2.9357347E+002
 21
3.4411948E+002
  0
LINE
  8
99
  6
CONTINUOUS
 62
1
 10
2.9357347E+002
 20
3.4411948E+002
 11
2.9157347E+002
 21
3.4411948E+002
  0
LINE
  8
99
  6
CONTINUOUS
 62
1
 10
2.9157347E+002
 20
3.4411948E+002
 11
2.9007347E+002
 21
3.4611948E+002
  0
LINE
  8
99
  6
CONTINUOUS
 62
1
 10
2.9007347E+002
 20
3.4611948E+002
 11
2.9157347E+002
 21
3.4811948E+002
  0
LINE
  8
99
  6
CONTINUOUS
 62
1
 10
2.6457347E+002
 20
3.4811948E+002
 11
2.6657347E+002
 21
3.4811948E+002
  0
LINE
  8
99
  6
CONTINUOUS
 62
1
 10
2.6657347E+002
 20
3.4811948E+002
 11
2.6807347E+002
 21
3.4611948E+002
  0
LINE
  8
99
  6
CONTINUOUS
 62
1
 10
2.6807347E+002
 20
3.4611948E+002
 11
2.6657347E+002
 21
3.4411948E+002
  0
LINE
  8
99
  6
CONTINUOUS
 62
1
 10
2.6657347E+002
 20
3.4411948E+002
 11
2.6457347E+002
 21
3.4411948E+002
  0
LINE
  8
99
  6
CONTINUOUS
 62
1
 10
2.6457347E+002
 20
3.4411948E+002
 11
2.6307347E+002
 21
3.4611948E+002
  0
LINE
  8
99
  6
CONTINUOUS
 62
1
 10
2.6307347E+002
 20
3.4611948E+002
 11
2.6457347E+002
 21
3.4811948E+002
  0
LINE
  8
99
  6
CONTINUOUS
 62
1
 10
2.5909846E+002
 20
3.5211948E+002
 11
2.9904847E+002
 21
3.5211948E+002
  0
LINE
  8
99
  6
CONTINUOUS
 62
1
 10
2.9904847E+002
 20
3.5211948E+002
 11
2.9904847E+002
 21
3.4011948E+002
  0
LINE
  8
99
  6
CONTINUOUS
 62
1
 10
2.9904847E+002
 20
3.4011948E+002
 11
2.5909846E+002
 21
3.4011948E+002
  0
LINE
  8
99
  6
CONTINUOUS
 62
1
 10
2.5909846E+002
 20
3.4011948E+002
 11
2.5909846E+002
 21
3.5211948E+002
  0
CIRCLE
  8
99
  6
CONTINUOUS
 62
1
 10
2.6557347E+002
 20
3.4611948E+002
 40
5.149994
  0
CIRCLE
  8
99
  6
CONTINUOUS
 62
1
 10
2.9257347E+002
 20
3.4611948E+002
 40
5.149994
  0
LINE
  8
105
  6
HIDDEN
 62
1
 10
3.3357349E+002
 20
3.4211948E+002
 11
3.3357349E+002
 21
3.5211948E+002
  0
LINE
  8
105
  6
HIDDEN
 62
1
 10
3.3357349E+002
 20
3.5211948E+002
 11
3.5457349E+002
 21
3.5211948E+002
  0
LINE
  8
105
  6
HIDDEN
 62
1
 10
3.5457349E+002
 20
3.5211948E+002
 11
3.5457349E+002
 21
3.4211948E+002
  0
LINE
  8
105
  6
HIDDEN
 62
1
 10
2.3857347E+002
 20
3.5211948E+002
 11
2.3857347E+002
 21
3.4011948E+002
  0
ARC
  8
105
  6
HIDDEN
 62
1
 10
2.4257347E+002
 20
3.413856E+002
 40
4.1955957
 50
1.9756406E+002
 51
3.4243615E+002
  0
LINE
  8
105
  6
HIDDEN
 62
1
 10
2.4657347E+002
 20
3.401195E+002
 11
2.4657347E+002
 21
3.5211948E+002
  0
LINE
  8
105
  6
HIDDEN
 62
1
 10
2.4357347E+002
 20
3.5211948E+002
 11
2.4357347E+002
 21
3.4011948E+002
  0
ARC
  8
105
  6
HIDDEN
 62
1
 10
2.4257347E+002
 20
3.4011948E+002
 40
1.0
 50
1.8E+002
 51
3.6E+002
  0
LINE
  8
105
  6
HIDDEN
 62
1
 10
2.4157347E+002
 20
3.4011948E+002
 11
2.4157347E+002
 21
3.5211948E+002
  0
LINE
  8
105
  6
HIDDEN
 62
1
 10
2.5357347E+002
 20
3.5211948E+002
 11
2.5357347E+002
 21
3.401195E+002
  0
LINE
  8
106
  6
CENTERLINE
 62
1
 10
2.4257347E+002
 20
3.3325231E+002
 11
2.4257347E+002
 21
3.5877576E+002
  0
LINE
  8
106
  6
CENTERLINE
 62
1
 10
2.6557347E+002
 20
3.5318882E+002
 11
2.6557347E+002
 21
3.3877016E+002
  0
LINE
  8
106
  6
CENTERLINE
 62
1
 10
2.9257347E+002
 20
3.5313612E+002
 11
2.9257347E+002
 21
3.3912244E+002
  0
LINE
  8
106
  6
CENTERLINE
 62
1
 10
2.5907329E+002
 20
3.4611948E+002
 11
2.9907329E+002
 21
3.4611948E+002
  0
LINE
  8
99
  6
CONTINUOUS
 62
1
 10
2.5907329E+002
 20
3.5211948E+002
 11
2.5907329E+002
 21
3.4011948E+002
  0
LINE
  8
99
  6
CONTINUOUS
 62
1
 10
2.9907329E+002
 20
3.5211948E+002
 11
2.9907329E+002
 21
3.4011948E+002
  0
LINE
  8
105
  6
HIDDEN
 62
1
 10
2.9907329E+002
 20
3.5211948E+002
 11
3.2407346E+002
 21
3.5211948E+002
  0
LINE
  8
105
  6
HIDDEN
 62
1
 10
3.2407346E+002
 20
3.5211948E+002
 11
3.2607346E+002
 21
3.5011948E+002
  0
LINE
  8
105
  6
HIDDEN
 62
1
 10
3.2607346E+002
 20
3.5011948E+002
 11
3.6607346E+002
 21
3.5011948E+002
  0
LINE
  8
105
  6
HIDDEN
 62
1
 10
3.6607346E+002
 20
3.5011948E+002
 11
3.6807346E+002
 21
3.5211948E+002
  0
LINE
  8
105
  6
HIDDEN
 62
1
 10
3.6807346E+002
 20
3.5211948E+002
 11
3.7207346E+002
 21
3.5211948E+002
  0
LINE
  8
105
  6
HIDDEN
 62
1
 10
3.7207346E+002
 20
3.5211948E+002
 11
3.7407346E+002
 21
3.5011948E+002
  0
LINE
  8
105
  6
HIDDEN
 62
1
 10
3.7407346E+002
 20
3.5011948E+002
 11
4.3407346E+002
 21
3.5011948E+002
  0
LINE
  8
105
  6
HIDDEN
 62
1
 10
4.3407346E+002
 20
3.5011948E+002
 11
4.5507346E+002
 21
3.5211948E+002
  0
LINE
  8
105
  6
HIDDEN
 62
1
 10
4.5507346E+002
 20
3.5211948E+002
 11
4.6244498E+002
 21
3.5211948E+002
  0
LINE
  8
105
  6
HIDDEN
 62
1
 10
4.6244498E+002
 20
3.5211948E+002
 11
4.6268119E+002
 21
3.5211948E+002
  0
LINE
  8
105
  6
HIDDEN
 62
1
 10
4.620734E+002
 20
3.401195E+002
 11
4.620734E+002
 21
3.4011999E+002
  0
LINE
  8
105
  6
HIDDEN
 62
1
 10
4.620734E+002
 20
3.4011999E+002
 11
4.5507346E+002
 21
3.4011999E+002
  0
LINE
  8
105
  6
HIDDEN
 62
1
 10
4.5507346E+002
 20
3.4011999E+002
 11
4.3407346E+002
 21
3.4211948E+002
  0
LINE
  8
105
  6
HIDDEN
 62
1
 10
4.3407346E+002
 20
3.4211948E+002
 11
3.7407346E+002
 21
3.4211948E+002
  0
LINE
  8
105
  6
HIDDEN
 62
1
 10
3.7407346E+002
 20
3.4211948E+002
 11
3.7207346E+002
 21
3.4011948E+002
  0
LINE
  8
105
  6
HIDDEN
 62
1
 10
3.7207346E+002
 20
3.4011948E+002
 11
3.6807346E+002
 21
3.4011948E+002
  0
LINE
  8
105
  6
HIDDEN
 62
1
 10
3.6807346E+002
 20
3.4011948E+002
 11
3.6607346E+002
 21
3.4211948E+002
  0
LINE
  8
105
  6
HIDDEN
 62
1
 10
3.6607346E+002
 20
3.4211948E+002
 11
3.2607346E+002
 21
3.4211948E+002
  0
LINE
  8
105
  6
HIDDEN
 62
1
 10
3.2607346E+002
 20
3.4211948E+002
 11
3.2407346E+002
 21
3.4011948E+002
  0
LINE
  8
105
  6
HIDDEN
 62
1
 10
3.2407346E+002
 20
3.4011948E+002
 11
2.3846837E+002
 21
3.4011948E+002
  0
ARC
  8
105
  6
HIDDEN
 62
1
 10
2.3846839E+002
 20
3.4211947E+002
 40
1.9999899
 50
1.9199958E+002
 51
2.6999942E+002
  0
LINE
  8
105
  6
HIDDEN
 62
1
 10
2.365121E+002
 20
3.4170367E+002
 11
2.3557347E+002
 21
3.4611948E+002
  0
LINE
  8
105
  6
HIDDEN
 62
1
 10
2.3557347E+002
 20
3.4611948E+002
 11
2.365121E+002
 21
3.5053532E+002
  0
ARC
  8
105
  6
HIDDEN
 62
1
 10
2.384684E+002
 20
3.5011947E+002
 40
2.0000157
 50
9.0000197E+001
 51
1.6799935E+002
  0
LINE
  8
105
  6
HIDDEN
 62
1
 10
2.384684E+002
 20
3.5211948E+002
 11
2.5909846E+002
 21
3.5211948E+002
  0
LINE
  8
105
  6
HIDDEN
 62
1
 10
4.3057355E+002
 20
3.401195E+002
 11
4.2832349E+002
 21
3.3786944E+002
  0
LINE
  8
105
  6
HIDDEN
 62
1
 10
4.2832349E+002
 20
3.3786944E+002
 11
4.2832349E+002
 21
3.371195E+002
  0
LINE
  8
105
  6
HIDDEN
 62
1
 10
4.1957349E+002
 20
3.401195E+002
 11
4.2182343E+002
 21
3.3786948E+002
  0
LINE
  8
105
  6
HIDDEN
 62
1
 10
4.2182343E+002
 20
3.3786948E+002
 11
4.2182343E+002
 21
3.371195E+002
  0
LINE
  8
105
  6
HIDDEN
 62
1
 10
4.2182343E+002
 20
3.3786948E+002
 11
4.2832349E+002
 21
3.3786948E+002
  0
LINE
  8
105
  6
HIDDEN
 62
1
 10
3.5107343E+002
 20
3.401195E+002
 11
3.4957349E+002
 21
3.416195E+002
  0
LINE
  8
105
  6
HIDDEN
 62
1
 10
3.4957349E+002
 20
3.416195E+002
 11
3.3857352E+002
 21
3.416195E+002
  0
LINE
  8
105
  6
HIDDEN
 62
1
 10
3.3857352E+002
 20
3.416195E+002
 11
3.3707349E+002
 21
3.401195E+002
  0
LINE
  8
105
  6
HIDDEN
 62
1
 10
3.4957343E+002
 20
3.371195E+002
 11
3.4807343E+002
 21
3.386195E+002
  0
LINE
  8
105
  6
HIDDEN
 62
1
 10
3.4807343E+002
 20
3.386195E+002
 11
3.4007349E+002
 21
3.386195E+002
  0
LINE
  8
105
  6
HIDDEN
 62
1
 10
3.4007349E+002
 20
3.386195E+002
 11
3.3857349E+002
 21
3.371195E+002
  0
LINE
  8
106
  6
CENTERLINE
 62
1
 10
3.4407349E+002
 20
3.5346812E+002
 11
3.4407349E+002
 21
3.3473765E+002
  0
LINE
  8
106
  6
CENTERLINE
 62
1
 10
4.2507349E+002
 20
3.434902E+002
 11
4.2507349E+002
 21
3.3210735E+002
  0
LINE
  8
105
  6
HIDDEN
 62
1
 10
5.0407343E+002
 20
3.401195E+002
 11
5.0407343E+002
 21
3.5061951E+002
  0
ARC
  8
105
  6
HIDDEN
 62
1
 10
5.0157343E+002
 20
3.506195E+002
 40
2.4999956
 50
2.656481E-004
 51
9.0000101E+001
  0
LINE
  8
105
  6
HIDDEN
 62
1
 10
5.0157343E+002
 20
3.531195E+002
 11
4.6457343E+002
 21
3.531195E+002
  0
ARC
  8
105
  6
HIDDEN
 62
1
 10
4.6457344E+002
 20
3.5061949E+002
 40
2.5000109
 50
9.000025E+001
 51
1.7999938E+002
  0
LINE
  8
105
  6
HIDDEN
 62
1
 10
4.6207343E+002
 20
3.5061951E+002
 11
4.6207343E+002
 21
3.371195E+002
  0
LINE
  8
105
  6
HIDDEN
 62
1
 10
5.0407343E+002
 20
3.401195E+002
 11
4.6207343E+002
 21
3.401195E+002
  0
LINE
  8
105
  6
HIDDEN
 62
1
 10
4.6207343E+002
 20
3.401195E+002
 11
3.5107343E+002
 21
3.401195E+002
  0
LINE
  8
105
  6
HIDDEN
 62
1
 10
3.3707349E+002
 20
3.401195E+002
 11
2.3257344E+002
 21
3.401195E+002
  0
LINE
  8
105
  6
HIDDEN
 62
1
 10
2.3257344E+002
 20
3.401195E+002
 11
2.3257344E+002
 21
3.371195E+002
  0
LINE
  8
105
  6
HIDDEN
 62
1
 10
2.3257344E+002
 20
3.371195E+002
 11
5.0407343E+002
 21
3.371195E+002
  0
LINE
  8
105
  6
HIDDEN
 62
1
 10
5.0407343E+002
 20
3.371195E+002
 11
5.0407343E+002
 21
3.401195E+002
  0
LINE
  8
105
  6
HIDDEN
 62
1
 10
2.3857347E+002
 20
2.6449853E+002
 11
2.4157347E+002
 21
2.6449853E+002
  0
LINE
  8
105
  6
HIDDEN
 62
1
 10
2.4357347E+002
 20
2.6449853E+002
 11
2.4657347E+002
 21
2.6449853E+002
  0
LINE
  8
105
  6
HIDDEN
 62
1
 10
2.4657347E+002
 20
2.6049853E+002
 11
2.4357347E+002
 21
2.6049853E+002
  0
LINE
  8
105
  6
HIDDEN
 62
1
 10
2.4157347E+002
 20
2.6049853E+002
 11
2.3857347E+002
 21
2.6049853E+002
  0
LINE
  8
99
  6
CONTINUOUS
 62
1
 10
2.2857347E+002
 20
2.6449853E+002
 11
2.3857347E+002
 21
2.6449853E+002
  0
LINE
  8
99
  6
CONTINUOUS
 62
1
 10
2.4157347E+002
 20
2.6449853E+002
 11
2.4357347E+002
 21
2.6449853E+002
  0
LINE
  8
99
  6
CONTINUOUS
 62
1
 10
2.4657347E+002
 20
2.6449853E+002
 11
2.5357347E+002
 21
2.6449853E+002
  0
LINE
  8
99
  6
CONTINUOUS
 62
1
 10
2.5357347E+002
 20
2.6049853E+002
 11
2.4657347E+002
 21
2.6049853E+002
  0
LINE
  8
99
  6
CONTINUOUS
 62
1
 10
2.4357347E+002
 20
2.6049853E+002
 11
2.4157347E+002
 21
2.6049853E+002
  0
LINE
  8
99
  6
CONTINUOUS
 62
1
 10
2.3857347E+002
 20
2.6049853E+002
 11
2.2857347E+002
 21
2.6049853E+002
  0
LINE
  8
105
  6
HIDDEN
 62
1
 10
2.3857347E+002
 20
2.5949853E+002
 11
2.4157347E+002
 21
2.5949853E+002
  0
LINE
  8
105
  6
HIDDEN
 62
1
 10
2.4357347E+002
 20
2.5949853E+002
 11
2.4657347E+002
 21
2.5949853E+002
  0
LINE
  8
105
  6
HIDDEN
 62
1
 10
2.4657347E+002
 20
2.6549853E+002
 11
2.4357347E+002
 21
2.6549853E+002
  0
LINE
  8
105
  6
HIDDEN
 62
1
 10
2.4157347E+002
 20
2.6549853E+002
 11
2.3857347E+002
 21
2.6549853E+002
  0
LINE
  8
104
  6
CONTINUOUS
 62
40
 10
2.2857347E+002
 20
2.6749853E+002
 11
2.2557347E+002
 21
2.6749853E+002
  0
ARC
  8
104
  6
CONTINUOUS
 62
40
 10
2.2557346E+002
 20
2.6649854E+002
 40
9.9999238E-001
 50
8.9999563E+001
 51
1.8000044E+002
  0
LINE
  8
104
  6
CONTINUOUS
 62
40
 10
2.2457347E+002
 20
2.6649853E+002
 11
2.2457347E+002
 21
2.5849853E+002
  0
ARC
  8
104
  6
CONTINUOUS
 62
40
 10
2.2557347E+002
 20
2.5849854E+002
 40
1.0000041
 50
1.8000023E+002
 51
2.6999977E+002
  0
LINE
  8
104
  6
CONTINUOUS
 62
40
 10
2.2557347E+002
 20
2.5749853E+002
 11
2.2857347E+002
 21
2.5749853E+002
  0
LINE
  8
104
  6
CONTINUOUS
 62
40
 10
2.2857347E+002
 20
2.5749853E+002
 11
2.2857347E+002
 21
2.6749853E+002
  0
LINE
  8
104
  6
CONTINUOUS
 62
40
 10
2.2857347E+002
 20
2.6549853E+002
 11
2.3857347E+002
 21
2.6549853E+002
  0
LINE
  8
104
  6
CONTINUOUS
 62
40
 10
2.4157347E+002
 20
2.6549853E+002
 11
2.4357347E+002
 21
2.6549853E+002
  0
LINE
  8
104
  6
CONTINUOUS
 62
40
 10
2.4657347E+002
 20
2.6549853E+002
 11
2.5357347E+002
 21
2.6549853E+002
  0
LINE
  8
104
  6
CONTINUOUS
 62
40
 10
2.5357347E+002
 20
2.5949853E+002
 11
2.4657347E+002
 21
2.5949853E+002
  0
LINE
  8
104
  6
CONTINUOUS
 62
40
 10
2.4357347E+002
 20
2.5949853E+002
 11
2.4157347E+002
 21
2.5949853E+002
  0
LINE
  8
104
  6
CONTINUOUS
 62
40
 10
2.3857347E+002
 20
2.5949853E+002
 11
2.2857347E+002
 21
2.5949853E+002
  0
LINE
  8
106
  6
CENTERLINE
 62
1
 10
2.2302952E+002
 20
2.6249853E+002
 11
2.5488499E+002
 21
2.6249853E+002
  0
LINE
  8
105
  6
HIDDEN
 62
1
 10
4.9056666E+002
 20
2.6449853E+002
 11
4.9056666E+002
 21
2.5749853E+002
  0
LINE
  8
105
  6
HIDDEN
 62
1
 10
4.9116669E+002
 20
2.5749853E+002
 11
4.9116669E+002
 21
2.6449853E+002
  0
LINE
  8
105
  6
HIDDEN
 62
1
 10
4.9596662E+002
 20
2.6449853E+002
 11
4.9596662E+002
 21
2.5749853E+002
  0
LINE
  8
105
  6
HIDDEN
 62
1
 10
4.9656666E+002
 20
2.5749853E+002
 11
4.9656666E+002
 21
2.6449853E+002
  0
LINE
  8
MED-31
  6
CONTINUOUS
 62
40
 10
4.9656666E+002
 20
2.5394853E+002
 11
4.9056666E+002
 21
2.5394853E+002
  0
LINE
  8
MED-31
  6
CONTINUOUS
 62
40
 10
4.9596662E+002
 20
2.7274853E+002
 11
4.9596662E+002
 21
2.6449853E+002
  0
LINE
  8
MED-31
  6
CONTINUOUS
 62
40
 10
4.9596662E+002
 20
2.5749853E+002
 11
4.9596662E+002
 21
2.5334854E+002
  0
LINE
  8
MED-31
  6
CONTINUOUS
 62
40
 10
4.9116669E+002
 20
2.5334854E+002
 11
4.9116669E+002
 21
2.5749853E+002
  0
LINE
  8
MED-31
  6
CONTINUOUS
 62
40
 10
4.9116669E+002
 20
2.6449853E+002
 11
4.9116669E+002
 21
2.7274853E+002
  0
LINE
  8
MED-31
  6
CONTINUOUS
 62
40
 10
4.9656666E+002
 20
2.7274853E+002
 11
4.9056666E+002
 21
2.7274853E+002
  0
LINE
  8
MED-31
  6
CONTINUOUS
 62
40
 10
4.9056666E+002
 20
2.7274853E+002
 11
4.9656666E+002
 21
2.7274853E+002
  0
LINE
  8
MED-31
  6
CONTINUOUS
 62
40
 10
4.9176667E+002
 20
2.5274853E+002
 11
4.9056666E+002
 21
2.5394853E+002
  0
LINE
  8
MED-31
  6
CONTINUOUS
 62
40
 10
4.9656666E+002
 20
2.5394853E+002
 11
4.9536664E+002
 21
2.5274853E+002
  0
LINE
  8
MED-31
  6
CONTINUOUS
 62
40
 10
4.9656666E+002
 20
2.5394853E+002
 11
4.9656666E+002
 21
2.5749853E+002
  0
LINE
  8
MED-31
  6
CONTINUOUS
 62
40
 10
4.9656666E+002
 20
2.6449853E+002
 11
4.9656666E+002
 21
2.7274853E+002
  0
LINE
  8
MED-31
  6
CONTINUOUS
 62
40
 10
4.9056666E+002
 20
2.7274853E+002
 11
4.9056666E+002
 21
2.6449853E+002
  0
LINE
  8
MED-31
  6
CONTINUOUS
 62
40
 10
4.9056666E+002
 20
2.5749853E+002
 11
4.9056666E+002
 21
2.5394853E+002
  0
LINE
  8
MED-31
  6
CONTINUOUS
 62
40
 10
4.9536664E+002
 20
2.5274853E+002
 11
4.9176667E+002
 21
2.5274853E+002
  0
ARC
  8
MED-31
  6
CONTINUOUS
 62
40
 10
4.978968E+002
 20
2.7420873E+002
 40
2.5398069
 50
9.0000223E+001
 51
1.2463167E+002
  0
ARC
  8
MED-31
  6
CONTINUOUS
 62
40
 10
4.8923651E+002
 20
2.7420873E+002
 40
2.5398069
 50
5.5368329E+001
 51
8.9999777E+001
  0
LINE
  8
MED-31
  6
CONTINUOUS
 62
40
 10
4.9645344E+002
 20
2.7274853E+002
 11
4.9645344E+002
 21
2.7629854E+002
  0
ARC
  8
MED-31
  6
CONTINUOUS
 62
40
 10
4.9356666E+002
 20
2.6726428E+002
 40
9.4842649
 50
7.227939E+001
 51
1.0772061E+002
  0
LINE
  8
MED-31
  6
CONTINUOUS
 62
40
 10
4.9067987E+002
 20
2.7629854E+002
 11
4.9067987E+002
 21
2.7274853E+002
  0
ARC
  8
MED-31
  6
CONTINUOUS
 62
40
 10
4.9789678E+002
 20
2.7420873E+002
 40
2.5398069
 50
5.5368329E+001
 51
8.9999777E+001
  0
LINE
  8
MED-31
  6
CONTINUOUS
 62
40
 10
4.8779316E+002
 20
2.7274853E+002
 11
4.9934015E+002
 21
2.7274853E+002
  0
ARC
  8
MED-31
  6
CONTINUOUS
 62
40
 10
4.8923652E+002
 20
2.7420873E+002
 40
2.5398072
 50
9.0000202E+001
 51
1.2463167E+002
  0
LINE
  8
MED-31
  6
CONTINUOUS
 62
40
 10
4.9789679E+002
 20
2.7674853E+002
 11
4.8923652E+002
 21
2.7674853E+002
  0
LINE
  8
MED-31
  6
CONTINUOUS
 62
40
 10
4.8779316E+002
 20
2.7629854E+002
 11
4.8779316E+002
 21
2.7274853E+002
  0
LINE
  8
MED-31
  6
CONTINUOUS
 62
40
 10
4.9934015E+002
 20
2.7274853E+002
 11
4.9934015E+002
 21
2.7629854E+002
  0
LINE
  8
104
  6
CONTINUOUS
 62
40
 10
2.5909846E+002
 20
2.5482999E+002
 11
2.9904847E+002
 21
2.5482999E+002
  0
LINE
  8
104
  6
CONTINUOUS
 62
40
 10
2.9904847E+002
 20
2.5482999E+002
 11
2.9904847E+002
 21
2.4282999E+002
  0
LINE
  8
104
  6
CONTINUOUS
 62
40
 10
2.9904847E+002
 20
2.4282999E+002
 11
2.5909846E+002
 21
2.4282999E+002
  0
LINE
  8
104
  6
CONTINUOUS
 62
40
 10
2.5909846E+002
 20
2.4282999E+002
 11
2.5909846E+002
 21
2.5482999E+002
  0
LINE
  8
99
  6
CONTINUOUS
 62
1
 10
2.8897346E+002
 20
2.5482999E+002
 11
2.9617347E+002
 21
2.5482999E+002
  0
LINE
  8
99
  6
CONTINUOUS
 62
1
 10
2.8742347E+002
 20
2.4282999E+002
 11
2.9772346E+002
 21
2.4282999E+002
  0
LINE
  8
99
  6
CONTINUOUS
 62
1
 10
2.6197346E+002
 20
2.5482999E+002
 11
2.6917347E+002
 21
2.5482999E+002
  0
LINE
  8
99
  6
CONTINUOUS
 62
1
 10
2.6042347E+002
 20
2.4282999E+002
 11
2.7072346E+002
 21
2.4282999E+002
  0
LINE
  8
106
  6
CENTERLINE
 62
1
 10
2.6557347E+002
 20
2.5681192E+002
 11
2.6557347E+002
 21
2.4095645E+002
  0
LINE
  8
106
  6
CENTERLINE
 62
1
 10
2.7907347E+002
 20
2.5816544E+002
 11
2.7907347E+002
 21
2.3940957E+002
  0
LINE
  8
106
  6
CENTERLINE
 62
1
 10
2.9257347E+002
 20
2.5748868E+002
 11
2.9257347E+002
 21
2.4066641E+002
  0
LINE
  8
99
  6
CONTINUOUS
 62
1
 10
3.4307349E+002
 20
2.6449853E+002
 11
3.4507349E+002
 21
2.6449853E+002
  0
LINE
  8
99
  6
CONTINUOUS
 62
1
 10
3.4507349E+002
 20
2.6449853E+002
 11
3.4657349E+002
 21
2.6249853E+002
  0
LINE
  8
99
  6
CONTINUOUS
 62
1
 10
3.4657349E+002
 20
2.6249853E+002
 11
3.4507349E+002
 21
2.6049853E+002
  0
LINE
  8
99
  6
CONTINUOUS
 62
1
 10
3.4507349E+002
 20
2.6049853E+002
 11
3.4307349E+002
 21
2.6049853E+002
  0
LINE
  8
99
  6
CONTINUOUS
 62
1
 10
3.4307349E+002
 20
2.6049853E+002
 11
3.4157349E+002
 21
2.6249853E+002
  0
LINE
  8
99
  6
CONTINUOUS
 62
1
 10
3.4157349E+002
 20
2.6249853E+002
 11
3.4307349E+002
 21
2.6449853E+002
  0
LINE
  8
105
  6
HIDDEN
 62
1
 10
2.6207368E+002
 20
2.6431593E+002
 11
2.6907368E+002
 21
2.6431593E+002
  0
LINE
  8
105
  6
HIDDEN
 62
1
 10
2.8907368E+002
 20
2.6431593E+002
 11
2.9612193E+002
 21
2.6431593E+002
  0
LINE
  8
105
  6
HIDDEN
 62
1
 10
2.6207368E+002
 20
2.5574853E+002
 11
2.6207368E+002
 21
2.4682999E+002
  0
LINE
  8
105
  6
HIDDEN
 62
1
 10
2.6307368E+002
 20
2.4682999E+002
 11
2.6307368E+002
 21
2.5574853E+002
  0
LINE
  8
105
  6
HIDDEN
 62
1
 10
2.6807368E+002
 20
2.5574853E+002
 11
2.6807368E+002
 21
2.4682999E+002
  0
LINE
  8
105
  6
HIDDEN
 62
1
 10
2.6907368E+002
 20
2.4682999E+002
 11
2.6907368E+002
 21
2.5574853E+002
  0
LINE
  8
105
  6
HIDDEN
 62
1
 10
2.8907368E+002
 20
2.5574853E+002
 11
2.8907368E+002
 21
2.4682999E+002
  0
LINE
  8
105
  6
HIDDEN
 62
1
 10
2.9007368E+002
 20
2.4682999E+002
 11
2.9007368E+002
 21
2.5574853E+002
  0
LINE
  8
105
  6
HIDDEN
 62
1
 10
2.9507368E+002
 20
2.5574853E+002
 11
2.9507368E+002
 21
2.4682999E+002
  0
LINE
  8
105
  6
HIDDEN
 62
1
 10
2.9607368E+002
 20
2.4682999E+002
 11
2.9607368E+002
 21
2.5574853E+002
  0
LINE
  8
105
  6
HIDDEN
 62
1
 10
2.8757347E+002
 20
2.4282999E+002
 11
2.8757347E+002
 21
2.4682999E+002
  0
LINE
  8
105
  6
HIDDEN
 62
1
 10
2.8757347E+002
 20
2.4682999E+002
 11
2.9757347E+002
 21
2.4682999E+002
  0
LINE
  8
105
  6
HIDDEN
 62
1
 10
2.9757347E+002
 20
2.4682999E+002
 11
2.9757347E+002
 21
2.4282999E+002
  0
LINE
  8
105
  6
HIDDEN
 62
1
 10
2.7057347E+002
 20
2.4282999E+002
 11
2.7057347E+002
 21
2.4682999E+002
  0
LINE
  8
105
  6
HIDDEN
 62
1
 10
2.7057347E+002
 20
2.4682999E+002
 11
2.6057347E+002
 21
2.4682999E+002
  0
LINE
  8
105
  6
HIDDEN
 62
1
 10
2.6057347E+002
 20
2.4682999E+002
 11
2.6057347E+002
 21
2.4282999E+002
  0
ARC
  8
99
  6
CONTINUOUS
 62
1
 10
3.5307367E+002
 20
2.6249853E+002
 40
5.9997968
 50
2.7212211E+002
 51
4.4787789E+002
  0
LINE
  8
105
  6
HIDDEN
 62
1
 10
3.5329303E+002
 20
2.5649853E+002
 11
3.390268E+002
 21
2.5649853E+002
  0
ARC
  8
105
  6
HIDDEN
 62
1
 10
3.3907367E+002
 20
2.6249853E+002
 40
6.0001831
 50
8.9552386E+001
 51
2.6955239E+002
  0
LINE
  8
105
  6
HIDDEN
 62
1
 10
3.3912055E+002
 20
2.6849853E+002
 11
3.5329584E+002
 21
2.6849422E+002
  0
ARC
  8
105
  6
HIDDEN
 62
1
 10
3.3907365E+002
 20
2.6249852E+002
 40
6.8504146
 50
8.9999771E+001
 51
1.357572E+002
  0
LINE
  8
105
  6
HIDDEN
 62
1
 10
3.3907367E+002
 20
2.6934894E+002
 11
3.5268888E+002
 21
2.6933775E+002
  0
ARC
  8
99
  6
CONTINUOUS
 62
1
 10
3.5307367E+002
 20
2.6249853E+002
 40
6.8500344
 50
2.6677975E+002
 51
4.5322025E+002
  0
LINE
  8
105
  6
HIDDEN
 62
1
 10
3.5307367E+002
 20
2.556485E+002
 11
3.3907367E+002
 21
2.556485E+002
  0
ARC
  8
105
  6
HIDDEN
 62
1
 10
3.3907321E+002
 20
2.6249873E+002
 40
6.8502311
 50
2.2424644E+002
 51
2.7000387E+002
  0
ARC
  8
99
  6
CONTINUOUS
 62
1
 10
3.3907367E+002
 20
2.6249854E+002
 40
6.8504227
 50
1.3575745E+002
 51
2.2572514E+002
  0
CIRCLE
  8
104
  6
CONTINUOUS
 62
40
 10
3.4407349E+002
 20
2.6249853E+002
 40
1.1E+001
  0
CIRCLE
  8
104
  6
CONTINUOUS
 62
40
 10
3.4407349E+002
 20
2.6249853E+002
 40
6.0
  0
ARC
  8
99
  6
CONTINUOUS
 62
1
 10
2.910735E+002
 20
2.6649853E+002
 40
5.5000282
 50
1.5186272E+002
 51
2.0813728E+002
  0
LINE
  8
106
  6
CENTERLINE
 62
1
 10
4.6707364E+002
 20
2.7335059E+002
 11
4.6707364E+002
 21
2.4689551E+002
  0
LINE
  8
106
  6
CENTERLINE
 62
1
 10
4.9357367E+002
 20
2.7815283E+002
 11
4.9357367E+002
 21
2.5121924E+002
  0
LINE
  8
105
  6
HIDDEN
 62
1
 10
2.6307368E+002
 20
2.7074853E+002
 11
2.6557368E+002
 21
2.720778E+002
  0
LINE
  8
105
  6
HIDDEN
 62
1
 10
2.6557368E+002
 20
2.720778E+002
 11
2.6807368E+002
 21
2.7074853E+002
  0
LINE
  8
105
  6
HIDDEN
 62
1
 10
2.9007368E+002
 20
2.7074853E+002
 11
2.9257368E+002
 21
2.720778E+002
  0
LINE
  8
105
  6
HIDDEN
 62
1
 10
2.9257368E+002
 20
2.720778E+002
 11
2.9507368E+002
 21
2.7074853E+002
  0
LINE
  8
105
  6
HIDDEN
 62
1
 10
2.6307368E+002
 20
2.5574853E+002
 11
2.6307368E+002
 21
2.7074853E+002
  0
LINE
  8
105
  6
HIDDEN
 62
1
 10
2.6307368E+002
 20
2.7074853E+002
 11
2.6807368E+002
 21
2.7074853E+002
  0
LINE
  8
105
  6
HIDDEN
 62
1
 10
2.6807368E+002
 20
2.7074853E+002
 11
2.6807368E+002
 21
2.5574853E+002
  0
LINE
  8
105
  6
HIDDEN
 62
1
 10
2.6907368E+002
 20
2.5574853E+002
 11
2.6907368E+002
 21
2.6774853E+002
  0
LINE
  8
105
  6
HIDDEN
 62
1
 10
2.6907368E+002
 20
2.6774853E+002
 11
2.6207368E+002
 21
2.6774853E+002
  0
LINE
  8
105
  6
HIDDEN
 62
1
 10
2.6207368E+002
 20
2.6774853E+002
 11
2.6207368E+002
 21
2.5574853E+002
  0
LINE
  8
105
  6
HIDDEN
 62
1
 10
2.9007368E+002
 20
2.5574853E+002
 11
2.9007368E+002
 21
2.7074853E+002
  0
LINE
  8
105
  6
HIDDEN
 62
1
 10
2.9007368E+002
 20
2.7074853E+002
 11
2.9507368E+002
 21
2.7074853E+002
  0
LINE
  8
105
  6
HIDDEN
 62
1
 10
2.9507368E+002
 20
2.7074853E+002
 11
2.9507368E+002
 21
2.5574853E+002
  0
LINE
  8
105
  6
HIDDEN
 62
1
 10
2.9607368E+002
 20
2.5574853E+002
 11
2.9607368E+002
 21
2.6774853E+002
  0
LINE
  8
105
  6
HIDDEN
 62
1
 10
2.9607368E+002
 20
2.6774853E+002
 11
2.8907368E+002
 21
2.6774853E+002
  0
LINE
  8
105
  6
HIDDEN
 62
1
 10
2.8907368E+002
 20
2.6774853E+002
 11
2.8907368E+002
 21
2.5574853E+002
  0
LINE
  8
106
  6
CENTERLINE
 62
1
 10
2.6557368E+002
 20
2.7381345E+002
 11
2.6557368E+002
 21
2.5418747E+002
  0
LINE
  8
106
  6
CENTERLINE
 62
1
 10
2.9257368E+002
 20
2.7391012E+002
 11
2.9257368E+002
 21
2.5370407E+002
  0
LINE
  8
106
  6
CENTERLINE
 62
1
 10
2.7907347E+002
 20
2.8486181E+002
 11
2.7907347E+002
 21
2.4405864E+002
  0
LINE
  8
99
  6
CONTINUOUS
 62
1
 10
3.2407367E+002
 20
2.7565968E+002
 11
3.2407367E+002
 21
2.4959656E+002
  0
LINE
  8
99
  6
CONTINUOUS
 62
1
 10
3.2607367E+002
 20
2.4972711E+002
 11
3.2607367E+002
 21
2.7552545E+002
  0
LINE
  8
99
  6
CONTINUOUS
 62
1
 10
3.6607367E+002
 20
2.7284061E+002
 11
3.6607367E+002
 21
2.5233839E+002
  0
LINE
  8
99
  6
CONTINUOUS
 62
1
 10
3.6807367E+002
 20
2.5246896E+002
 11
3.6807367E+002
 21
2.7270636E+002
  0
LINE
  8
99
  6
CONTINUOUS
 62
1
 10
3.7207367E+002
 20
2.7243788E+002
 11
3.7207367E+002
 21
2.5273009E+002
  0
LINE
  8
99
  6
CONTINUOUS
 62
1
 10
3.7407367E+002
 20
2.5286064E+002
 11
3.7407367E+002
 21
2.7230363E+002
  0
LINE
  8
106
  6
CENTERLINE
 62
1
 10
3.3907367E+002
 20
2.7162041E+002
 11
3.3907367E+002
 21
2.5347476E+002
  0
LINE
  8
106
  6
CENTERLINE
 62
1
 10
3.5307367E+002
 20
2.7152232E+002
 11
3.5307367E+002
 21
2.5367093E+002
  0
LINE
  8
99
  6
CONTINUOUS
 62
1
 10
4.3407364E+002
 20
2.6799127E+002
 11
4.3407364E+002
 21
2.570058E+002
  0
LINE
  8
99
  6
CONTINUOUS
 62
1
 10
4.5507364E+002
 20
2.6681425E+002
 11
4.5507364E+002
 21
2.5857515E+002
  0
LINE
  8
106
  6
CENTERLINE
 62
1
 10
2.2081221E+002
 20
2.6249853E+002
 11
5.0123517E+002
 21
2.6249853E+002
  0
ARC
  8
104
  6
CONTINUOUS
 62
40
 10
2.3757364E+002
 20
2.7094853E+002
 40
1.9999844
 50
1.7999998E+002
 51
2.7000045E+002
  0
LINE
  8
104
  6
CONTINUOUS
 62
40
 10
2.3757365E+002
 20
2.6894855E+002
 11
2.5057365E+002
 21
2.6894855E+002
  0
LINE
  8
104
  6
CONTINUOUS
 62
40
 10
2.5057365E+002
 20
2.6894855E+002
 11
2.5357347E+002
 21
2.6894855E+002
  0
LINE
  8
104
  6
CONTINUOUS
 62
40
 10
2.5357347E+002
 20
2.6894855E+002
 11
2.5357347E+002
 21
2.5604854E+002
  0
LINE
  8
104
  6
CONTINUOUS
 62
40
 10
2.5357347E+002
 20
2.5604854E+002
 11
2.3757365E+002
 21
2.5604854E+002
  0
ARC
  8
104
  6
CONTINUOUS
 62
40
 10
2.3757366E+002
 20
2.5404854E+002
 40
1.9999939
 50
9.0000256E+001
 51
1.8000017E+002
  0
LINE
  8
104
  6
CONTINUOUS
 62
40
 10
2.3557367E+002
 20
2.5404854E+002
 11
2.3557367E+002
 21
2.5221437E+002
  0
ARC
  8
104
  6
CONTINUOUS
 62
40
 10
2.3757366E+002
 20
2.5221436E+002
 40
1.9999919
 50
1.7999969E+002
 51
2.6125379E+002
  0
LINE
  8
104
  6
CONTINUOUS
 62
40
 10
2.3726954E+002
 20
2.5023762E+002
 11
2.5676936E+002
 21
2.4723765E+002
  0
ARC
  8
104
  6
CONTINUOUS
 62
40
 10
2.5707347E+002
 20
2.4921439E+002
 40
1.9999871
 50
2.6125403E+002
 51
3.6000038E+002
  0
LINE
  8
104
  6
CONTINUOUS
 62
40
 10
2.5907345E+002
 20
2.492144E+002
 11
2.5907345E+002
 21
2.5574853E+002
  0
LINE
  8
104
  6
CONTINUOUS
 62
40
 10
2.5907345E+002
 20
2.5574853E+002
 11
2.7192347E+002
 21
2.5574853E+002
  0
LINE
  8
104
  6
CONTINUOUS
 62
40
 10
2.7192347E+002
 20
2.5574853E+002
 11
2.7192347E+002
 21
2.6914853E+002
  0
LINE
  8
104
  6
CONTINUOUS
 62
40
 10
2.7192347E+002
 20
2.6914853E+002
 11
2.7242347E+002
 21
2.6964853E+002
  0
LINE
  8
104
  6
CONTINUOUS
 62
40
 10
2.7242347E+002
 20
2.6964853E+002
 11
2.8572346E+002
 21
2.6964853E+002
  0
LINE
  8
104
  6
CONTINUOUS
 62
40
 10
2.8572346E+002
 20
2.6964853E+002
 11
2.8622346E+002
 21
2.6914853E+002
  0
LINE
  8
104
  6
CONTINUOUS
 62
40
 10
2.8622346E+002
 20
2.6914853E+002
 11
2.8622346E+002
 21
2.5574853E+002
  0
LINE
  8
104
  6
CONTINUOUS
 62
40
 10
2.8622346E+002
 20
2.5574853E+002
 11
2.9907347E+002
 21
2.5574853E+002
  0
LINE
  8
104
  6
CONTINUOUS
 62
40
 10
2.9907347E+002
 20
2.5574853E+002
 11
2.9907347E+002
 21
2.4879655E+002
  0
ARC
  8
104
  6
CONTINUOUS
 62
40
 10
3.0107346E+002
 20
2.4879654E+002
 40
1.9999941
 50
1.7999966E+002
 51
2.7373504E+002
  0
LINE
  8
104
  6
CONTINUOUS
 62
40
 10
3.0120375E+002
 20
2.468008E+002
 11
4.6507364E+002
 21
2.5749853E+002
  0
LINE
  8
104
  6
CONTINUOUS
 62
40
 10
4.6507364E+002
 20
2.5749853E+002
 11
4.9707367E+002
 21
2.5749853E+002
  0
ARC
  8
104
  6
CONTINUOUS
 62
40
 10
4.970737E+002
 20
2.5949853E+002
 40
2.0000008
 50
2.6999916E+002
 51
3.5999998E+002
  0
LINE
  8
104
  6
CONTINUOUS
 62
40
 10
4.990737E+002
 20
2.5949853E+002
 11
4.990737E+002
 21
2.6349853E+002
  0
LINE
  8
104
  6
CONTINUOUS
 62
40
 10
4.990737E+002
 20
2.6349853E+002
 11
4.990737E+002
 21
2.6449853E+002
  0
LINE
  8
104
  6
CONTINUOUS
 62
40
 10
4.990737E+002
 20
2.6449853E+002
 11
4.8707367E+002
 21
2.6449853E+002
  0
LINE
  8
104
  6
CONTINUOUS
 62
40
 10
4.8707367E+002
 20
2.6449853E+002
 11
4.8607367E+002
 21
2.6449853E+002
  0
LINE
  8
104
  6
CONTINUOUS
 62
40
 10
4.8607367E+002
 20
2.6449853E+002
 11
4.8607367E+002
 21
2.6649853E+002
  0
LINE
  8
104
  6
CONTINUOUS
 62
40
 10
4.8607367E+002
 20
2.6649853E+002
 11
4.8607367E+002
 21
2.6749853E+002
  0
LINE
  8
104
  6
CONTINUOUS
 62
40
 10
4.8607367E+002
 20
2.6749853E+002
 11
4.6507364E+002
 21
2.6749853E+002
  0
LINE
  8
104
  6
CONTINUOUS
 62
40
 10
4.6507364E+002
 20
2.6749853E+002
 11
3.1047175E+002
 21
2.7787559E+002
  0
ARC
  8
104
  6
CONTINUOUS
 62
40
 10
2.7907365E+002
 20
1.3119854E+002
 40
1.4999999E+002
 50
7.7917452E+001
 51
1.0628441E+002
  0
ARC
  8
104
  6
CONTINUOUS
 62
40
 10
2.3757366E+002
 20
2.7326102E+002
 40
2.0000043
 50
1.0628483E+002
 51
1.8000016E+002
  0
LINE
  8
104
  6
CONTINUOUS
 62
40
 10
2.3557365E+002
 20
2.7326102E+002
 11
2.3557365E+002
 21
2.7094853E+002
  0
LINE
  8
105
  6
HIDDEN
 62
1
 10
2.8654213E+002
 20
2.6338138E+002
 11
2.9419063E+002
 21
2.7102991E+002
  0
LINE
  8
105
  6
HIDDEN
 62
1
 10
2.9560487E+002
 20
2.6961569E+002
 11
2.8795631E+002
 21
2.6196716E+002
  0
LINE
  8
105
  6
HIDDEN
 62
1
 10
3.6119062E+002
 20
2.6302991E+002
 11
3.5354212E+002
 21
2.5538138E+002
  0
LINE
  8
105
  6
HIDDEN
 62
1
 10
3.549563E+002
 20
2.5396716E+002
 11
3.6260486E+002
 21
2.6161569E+002
  0
LINE
  8
105
  6
HIDDEN
 62
1
 10
4.272013E+002
 20
2.7004057E+002
 11
4.2054209E+002
 21
2.6338138E+002
  0
LINE
  8
105
  6
HIDDEN
 62
1
 10
4.219563E+002
 20
2.6196716E+002
 11
4.2960483E+002
 21
2.6961569E+002
  0
LINE
  8
99
  6
CONTINUOUS
 62
1
 10
4.272013E+002
 20
2.7004057E+002
 11
4.2819062E+002
 21
2.7102991E+002
  0
LINE
  8
105
  6
HIDDEN
 62
1
 10
4.9519062E+002
 20
2.6302991E+002
 11
4.8965925E+002
 21
2.5749853E+002
  0
LINE
  8
105
  6
HIDDEN
 62
1
 10
4.9056666E+002
 20
2.5557751E+002
 11
4.966048E+002
 21
2.6161569E+002
  0
LINE
  8
99
  6
CONTINUOUS
 62
1
 10
4.8965925E+002
 20
2.5749853E+002
 11
4.8754206E+002
 21
2.5538138E+002
  0
LINE
  8
99
  6
CONTINUOUS
 62
1
 10
4.889563E+002
 20
2.5396716E+002
 11
4.9056666E+002
 21
2.5557751E+002
  0
ARC
  8
105
  6
HIDDEN
 62
1
 10
4.6107344E+002
 20
2.4899854E+002
 40
9.9998949E-001
 50
3.599994E+002
 51
4.500006E+002
  0
LINE
  8
105
  6
HIDDEN
 62
1
 10
4.6207343E+002
 20
2.4899853E+002
 11
4.6207343E+002
 21
2.4824853E+002
  0
ARC
  8
99
  6
CONTINUOUS
 62
1
 10
4.9207342E+002
 20
2.5849854E+002
 40
5.4999915
 50
1.9047578E+002
 51
2.6385958E+002
  0
ARC
  8
105
  6
HIDDEN
 62
1
 10
4.9207342E+002
 20
2.5849854E+002
 40
5.4999915
 50
2.6385958E+002
 51
5.5047578E+002
  0
ARC
  8
105
  6
HIDDEN
 62
1
 10
4.2507347E+002
 20
2.6649853E+002
 40
5.4999933
 50
1.3421086E+002
 51
3.9810909E+002
  0
ARC
  8
99
  6
CONTINUOUS
 62
1
 10
4.2507347E+002
 20
2.6649853E+002
 40
5.4999933
 50
3.8109086E+001
 51
1.3421086E+002
  0
LINE
  8
105
  6
HIDDEN
 62
1
 10
2.3658317E+002
 20
2.7499852E+002
 11
3.5333551E+002
 21
2.7499852E+002
  0
LINE
  8
105
  6
HIDDEN
 62
1
 10
2.3882365E+002
 20
2.4999853E+002
 11
3.5018723E+002
 21
2.4999853E+002
  0
ARC
  8
105
  6
HIDDEN
 62
1
 10
2.910735E+002
 20
2.6649853E+002
 40
5.5000282
 50
2.0813728E+002
 51
5.1186272E+002
  0
LINE
  8
106
  6
CENTERLINE
 62
1
 10
2.7907347E+002
 20
2.6649853E+002
 11
2.7907347E+002
 21
2.5849853E+002
  0
LINE
  8
106
  6
CENTERLINE
 62
1
 10
2.910735E+002
 20
2.737139E+002
 11
2.910735E+002
 21
2.5849853E+002
  0
LINE
  8
106
  6
CENTERLINE
 62
1
 10
3.4407349E+002
 20
2.7161671E+002
 11
3.4407349E+002
 21
2.5410059E+002
  0
LINE
  8
106
  6
CENTERLINE
 62
1
 10
3.5807349E+002
 20
2.6649853E+002
 11
3.5807349E+002
 21
2.5181874E+002
  0
LINE
  8
106
  6
CENTERLINE
 62
1
 10
4.2507346E+002
 20
2.7335776E+002
 11
4.2507346E+002
 21
2.5849853E+002
  0
LINE
  8
106
  6
CENTERLINE
 62
1
 10
4.9207343E+002
 20
2.6649853E+002
 11
4.9207343E+002
 21
2.505921E+002
  0
LINE
  8
106
  6
CENTERLINE
 62
1
 10
2.8280189E+002
 20
2.6649853E+002
 11
3.0032774E+002
 21
2.6649853E+002
  0
LINE
  8
106
  6
CENTERLINE
 62
1
 10
3.5118744E+002
 20
2.5849853E+002
 11
3.6535102E+002
 21
2.5849853E+002
  0
LINE
  8
106
  6
CENTERLINE
 62
1
 10
4.1631769E+002
 20
2.6649853E+002
 11
4.3471451E+002
 21
2.6649853E+002
  0
LINE
  8
106
  6
CENTERLINE
 62
1
 10
4.8167005E+002
 20
2.5849853E+002
 11
5.0146583E+002
 21
2.5849853E+002
  0
CIRCLE
  8
105
  6
HIDDEN
 62
1
 10
3.5807349E+002
 20
2.5849853E+002
 40
5.5
  0
CIRCLE
  8
104
  6
CONTINUOUS
 62
40
 10
2.7907347E+002
 20
2.6249853E+002
 40
2.5
  0
LINE
  8
104
  6
CONTINUOUS
 62
40
 10
2.3857347E+002
 20
2.6884854E+002
 11
2.3857347E+002
 21
2.5614853E+002
  0
LINE
  8
104
  6
CONTINUOUS
 62
40
 10
2.4157347E+002
 20
2.6884854E+002
 11
2.4157347E+002
 21
2.5614853E+002
  0
LINE
  8
104
  6
CONTINUOUS
 62
40
 10
2.4357347E+002
 20
2.6884854E+002
 11
2.4357347E+002
 21
2.5614853E+002
  0
LINE
  8
104
  6
CONTINUOUS
 62
40
 10
2.4657347E+002
 20
2.6884854E+002
 11
2.4657347E+002
 21
2.5614853E+002
  0
LINE
  8
106
  6
CENTERLINE
 62
1
 10
2.4257347E+002
 20
2.7193326E+002
 11
2.4257347E+002
 21
2.53573E+002
  0
LINE
  8
104
  6
CONTINUOUS
 62
40
 10
2.3658317E+002
 20
2.7499852E+002
 11
2.3507344E+002
 21
2.7499852E+002
  0
ARC
  8
104
  6
CONTINUOUS
 62
40
 10
2.3507344E+002
 20
2.7249853E+002
 40
2.499987
 50
9.0000069E+001
 51
1.7999995E+002
  0
LINE
  8
104
  6
CONTINUOUS
 62
40
 10
2.3257345E+002
 20
2.7249853E+002
 11
2.3257345E+002
 21
2.6884854E+002
  0
LINE
  8
104
  6
CONTINUOUS
 62
40
 10
2.3257345E+002
 20
2.6884854E+002
 11
2.5257347E+002
 21
2.6884854E+002
  0
LINE
  8
104
  6
CONTINUOUS
 62
40
 10
2.5257347E+002
 20
2.6884854E+002
 11
2.5257347E+002
 21
2.6549853E+002
  0
LINE
  8
104
  6
CONTINUOUS
 62
40
 10
2.5257347E+002
 20
2.5949853E+002
 11
2.5257347E+002
 21
2.5614853E+002
  0
LINE
  8
104
  6
CONTINUOUS
 62
40
 10
2.5257347E+002
 20
2.5614853E+002
 11
2.3257347E+002
 21
2.5614853E+002
  0
LINE
  8
104
  6
CONTINUOUS
 62
40
 10
2.3257347E+002
 20
2.5614853E+002
 11
2.3257347E+002
 21
2.5249853E+002
  0
ARC
  8
104
  6
CONTINUOUS
 62
40
 10
2.3507348E+002
 20
2.5249854E+002
 40
2.5000092
 50
1.8000021E+002
 51
2.6999979E+002
  0
LINE
  8
104
  6
CONTINUOUS
 62
40
 10
2.3507347E+002
 20
2.4999853E+002
 11
2.3882365E+002
 21
2.4999853E+002
  0
LINE
  8
104
  6
CONTINUOUS
 62
40
 10
3.5018723E+002
 20
2.4999853E+002
 11
4.5874118E+002
 21
2.4999853E+002
  0
LINE
  8
104
  6
CONTINUOUS
 62
40
 10
4.5874118E+002
 20
2.4999853E+002
 11
4.6107343E+002
 21
2.4999853E+002
  0
LINE
  8
104
  6
CONTINUOUS
 62
40
 10
4.6107343E+002
 20
2.4999853E+002
 11
4.6129316E+002
 21
2.4997411E+002
  0
LINE
  8
104
  6
CONTINUOUS
 62
40
 10
4.6207343E+002
 20
2.4824853E+002
 11
4.6207343E+002
 21
2.4524853E+002
  0
LINE
  8
104
  6
CONTINUOUS
 62
40
 10
4.6207343E+002
 20
2.4524853E+002
 11
5.0407343E+002
 21
2.4524853E+002
  0
LINE
  8
104
  6
CONTINUOUS
 62
40
 10
5.0407343E+002
 20
2.4524853E+002
 11
5.0407343E+002
 21
2.7974853E+002
  0
LINE
  8
104
  6
CONTINUOUS
 62
40
 10
5.0407343E+002
 20
2.7974853E+002
 11
4.6207343E+002
 21
2.7974853E+002
  0
LINE
  8
104
  6
CONTINUOUS
 62
40
 10
4.6207343E+002
 20
2.7974853E+002
 11
4.6207343E+002
 21
2.7599853E+002
  0
ARC
  8
104
  6
CONTINUOUS
 62
40
 10
4.6107343E+002
 20
2.7599852E+002
 40
9.9999623E-001
 50
2.6999978E+002
 51
3.6000108E+002
  0
LINE
  8
104
  6
CONTINUOUS
 62
40
 10
4.6107343E+002
 20
2.7499852E+002
 11
3.5333551E+002
 21
2.7499852E+002
  0
LINE
  8
104
  6
CONTINUOUS
 62
40
 10
4.6207343E+002
 20
2.7674853E+002
 11
5.0407343E+002
 21
2.7674853E+002
  0
LINE
  8
104
  6
CONTINUOUS
 62
40
 10
4.6207343E+002
 20
2.4824853E+002
 11
5.0407343E+002
 21
2.4824853E+002
  0
LINE
  8
105
  6
HIDDEN
 62
1
 10
4.6406666E+002
 20
2.574328E+002
 11
4.6406666E+002
 21
2.6749853E+002
  0
LINE
  8
105
  6
HIDDEN
 62
1
 10
4.6466666E+002
 20
2.6749853E+002
 11
4.6466666E+002
 21
2.5747197E+002
  0
LINE
  8
105
  6
HIDDEN
 62
1
 10
4.6946665E+002
 20
2.5749853E+002
 11
4.6946665E+002
 21
2.6749853E+002
  0
LINE
  8
105
  6
HIDDEN
 62
1
 10
4.7006666E+002
 20
2.6749853E+002
 11
4.7006666E+002
 21
2.5749853E+002
  0
LINE
  8
MED-31
  6
CONTINUOUS
 62
40
 10
4.7006666E+002
 20
2.7104854E+002
 11
4.6406666E+002
 21
2.7104854E+002
  0
LINE
  8
MED-31
  6
CONTINUOUS
 62
40
 10
4.6946665E+002
 20
2.5224853E+002
 11
4.6946665E+002
 21
2.5749853E+002
  0
LINE
  8
MED-31
  6
CONTINUOUS
 62
40
 10
4.6946665E+002
 20
2.6749853E+002
 11
4.6946665E+002
 21
2.7164853E+002
  0
LINE
  8
MED-31
  6
CONTINUOUS
 62
40
 10
4.6466666E+002
 20
2.7164853E+002
 11
4.6466666E+002
 21
2.6749853E+002
  0
LINE
  8
MED-31
  6
CONTINUOUS
 62
40
 10
4.6466666E+002
 20
2.5749853E+002
 11
4.6466666E+002
 21
2.5224853E+002
  0
LINE
  8
MED-31
  6
CONTINUOUS
 62
40
 10
4.7006666E+002
 20
2.5224853E+002
 11
4.6406666E+002
 21
2.5224853E+002
  0
LINE
  8
MED-31
  6
CONTINUOUS
 62
40
 10
4.6406666E+002
 20
2.5224853E+002
 11
4.7006666E+002
 21
2.5224853E+002
  0
LINE
  8
MED-31
  6
CONTINUOUS
 62
40
 10
4.6526667E+002
 20
2.7224853E+002
 11
4.6406666E+002
 21
2.7104854E+002
  0
LINE
  8
MED-31
  6
CONTINUOUS
 62
40
 10
4.7006666E+002
 20
2.7104854E+002
 11
4.6886664E+002
 21
2.7224853E+002
  0
LINE
  8
MED-31
  6
CONTINUOUS
 62
40
 10
4.7006666E+002
 20
2.7104854E+002
 11
4.7006666E+002
 21
2.6749853E+002
  0
LINE
  8
MED-31
  6
CONTINUOUS
 62
40
 10
4.7006666E+002
 20
2.5749853E+002
 11
4.7006666E+002
 21
2.5224853E+002
  0
LINE
  8
MED-31
  6
CONTINUOUS
 62
40
 10
4.6406666E+002
 20
2.5224853E+002
 11
4.6406666E+002
 21
2.574328E+002
  0
LINE
  8
MED-31
  6
CONTINUOUS
 62
40
 10
4.6406666E+002
 20
2.6749853E+002
 11
4.6406666E+002
 21
2.7104854E+002
  0
LINE
  8
MED-31
  6
CONTINUOUS
 62
40
 10
4.6886664E+002
 20
2.7224853E+002
 11
4.6526667E+002
 21
2.7224853E+002
  0
ARC
  8
MED-31
  6
CONTINUOUS
 62
40
 10
4.7139678E+002
 20
2.5078835E+002
 40
2.5398157
 50
2.3536839E+002
 51
2.7000041E+002
  0
LINE
  8
MED-31
  6
CONTINUOUS
 62
40
 10
4.6417991E+002
 20
2.4869853E+002
 11
4.6273652E+002
 21
2.4824853E+002
  0
LINE
  8
MED-31
  6
CONTINUOUS
 62
40
 10
4.699534E+002
 20
2.5224853E+002
 11
4.699534E+002
 21
2.4869853E+002
  0
ARC
  8
MED-31
  6
CONTINUOUS
 62
40
 10
4.6706666E+002
 20
2.5773279E+002
 40
9.4842554
 50
2.5227957E+002
 51
2.8772043E+002
  0
LINE
  8
MED-31
  6
CONTINUOUS
 62
40
 10
4.6417991E+002
 20
2.4869853E+002
 11
4.6417991E+002
 21
2.5224853E+002
  0
ARC
  8
MED-31
  6
CONTINUOUS
 62
40
 10
4.7139678E+002
 20
2.5078834E+002
 40
2.5398069
 50
2.7000022E+002
 51
3.0463167E+002
  0
LINE
  8
MED-31
  6
CONTINUOUS
 62
40
 10
4.6129316E+002
 20
2.5224853E+002
 11
4.7284015E+002
 21
2.5224853E+002
  0
ARC
  8
MED-31
  6
CONTINUOUS
 62
40
 10
4.6273652E+002
 20
2.5078834E+002
 40
2.5398072
 50
2.3536833E+002
 51
2.699998E+002
  0
LINE
  8
MED-31
  6
CONTINUOUS
 62
40
 10
4.7139679E+002
 20
2.4824853E+002
 11
4.6273652E+002
 21
2.4824853E+002
  0
LINE
  8
MED-31
  6
CONTINUOUS
 62
40
 10
4.6129316E+002
 20
2.4869853E+002
 11
4.6129316E+002
 21
2.5224853E+002
  0
LINE
  8
MED-31
  6
CONTINUOUS
 62
40
 10
4.7284015E+002
 20
2.5224853E+002
 11
4.7284015E+002
 21
2.4869853E+002
  0
TEXT
  8
103
  6
CONTINUOUS
 62
40
 10
4.3645556E+002
 20
3.1482326E+002
 40
7.0
  1
Tuerhebel mit Schiene Art.-Nr.
 41
6.6750002E-001
 72
1
 11
3.6636806E+002
 21
3.1132326E+002
 73
2
  0
TEXT
  8
103
  6
CONTINUOUS
 62
40
 10
4.5955836E+002
 20
3.1482326E+002
 40
6.9999999
  1
8530
 41
6.1875E-001
 72
1
 11
4.5089586E+002
 21
3.1132326E+002
 73
2
  0
LINE
  8
104
  6
CONTINUOUS
 62
40
 10
1.6924605E+002
 20
3.6139306E+002
 11
1.628751E+002
 21
3.6139306E+002
  0
LINE
  8
104
  6
CONTINUOUS
 62
40
 10
1.628751E+002
 20
3.6139306E+002
 11
1.628751E+002
 21
3.5906737E+002
  0
LINE
  8
104
  6
CONTINUOUS
 62
40
 10
8.0375714E+001
 20
3.6139306E+002
 11
8.7480084E+001
 21
3.6139306E+002
  0
LINE
  8
104
  6
CONTINUOUS
 62
40
 10
8.7480084E+001
 20
3.6139306E+002
 11
8.7480084E+001
 21
3.5906737E+002
  0
LINE
  8
104
  6
CONTINUOUS
 62
40
 10
8.0456929E+001
 20
3.5906737E+002
 11
1.0075924E+002
 21
3.5906737E+002
  0
LINE
  8
104
  6
CONTINUOUS
 62
40
 10
1.0686251E+002
 20
3.5906737E+002
 11
1.4275924E+002
 21
3.5906737E+002
  0
LINE
  8
104
  6
CONTINUOUS
 62
40
 10
1.488625E+002
 20
3.5906737E+002
 11
1.6916481E+002
 21
3.5906737E+002
  0
LINE
  8
104
  6
CONTINUOUS
 62
40
 10
8.0474354E+001
 20
3.9656737E+002
 11
7.9810872E+001
 21
3.7756737E+002
  0
LINE
  8
104
  6
CONTINUOUS
 62
40
 10
7.9810872E+001
 20
3.7756737E+002
 11
8.0456929E+001
 21
3.5906737E+002
  0
LINE
  8
104
  6
CONTINUOUS
 62
40
 10
8.3474354E+001
 20
3.9656737E+002
 11
8.2810872E+001
 21
3.7756737E+002
  0
LINE
  8
104
  6
CONTINUOUS
 62
40
 10
8.2810872E+001
 20
3.7756737E+002
 11
8.3375714E+001
 21
3.6139306E+002
  0
LINE
  8
104
  6
CONTINUOUS
 62
40
 10
1.6914738E+002
 20
3.9656737E+002
 11
1.6981086E+002
 21
3.7756737E+002
  0
LINE
  8
104
  6
CONTINUOUS
 62
40
 10
1.6981086E+002
 20
3.7756737E+002
 11
1.6916481E+002
 21
3.5906737E+002
  0
LINE
  8
104
  6
CONTINUOUS
 62
40
 10
1.6914738E+002
 20
3.9656737E+002
 11
1.6481086E+002
 21
3.9656737E+002
  0
LINE
  8
104
  6
CONTINUOUS
 62
40
 10
8.4810872E+001
 20
3.9656737E+002
 11
8.0474354E+001
 21
3.9656737E+002
  0
LINE
  8
104
  6
CONTINUOUS
 62
40
 10
1.6614741E+002
 20
3.9656737E+002
 11
1.6681089E+002
 21
3.7756737E+002
  0
LINE
  8
104
  6
CONTINUOUS
 62
40
 10
1.6681089E+002
 20
3.7756737E+002
 11
1.6624607E+002
 21
3.6139306E+002
  0
LINE
  8
99
  6
CONTINUOUS
 62
1
 10
1.1766088E+002
 20
3.5306737E+002
 11
1.1766088E+002
 21
3.5206737E+002
  0
LINE
  8
99
  6
CONTINUOUS
 62
1
 10
1.3196087E+002
 20
3.5306737E+002
 11
1.3196087E+002
 21
3.5206737E+002
  0
LINE
  8
106
  6
CENTERLINE
 62
1
 10
1.2481087E+002
 20
4.0362987E+002
 11
1.2481087E+002
 21
3.3623534E+002
  0
LINE
  8
104
  6
CONTINUOUS
 62
40
 10
1.0881087E+002
 20
3.5906737E+002
 11
1.0881087E+002
 21
3.5706737E+002
  0
ARC
  8
104
  6
CONTINUOUS
 62
40
 10
1.1081087E+002
 20
3.5706737E+002
 40
1.9999969
 50
1.7999991E+002
 51
2.7000009E+002
  0
LINE
  8
104
  6
CONTINUOUS
 62
40
 10
1.1081087E+002
 20
3.5506737E+002
 11
1.3881087E+002
 21
3.5506737E+002
  0
ARC
  8
104
  6
CONTINUOUS
 62
40
 10
1.3881088E+002
 20
3.5706737E+002
 40
1.9999938
 50
2.6999971E+002
 51
3.6000018E+002
  0
LINE
  8
104
  6
CONTINUOUS
 62
40
 10
1.4081088E+002
 20
3.5706737E+002
 11
1.4081088E+002
 21
3.5906737E+002
  0
LINE
  8
104
  6
CONTINUOUS
 62
40
 10
1.3496087E+002
 20
3.5506737E+002
 11
1.3496087E+002
 21
3.5406737E+002
  0
ARC
  8
104
  6
CONTINUOUS
 62
40
 10
1.3396087E+002
 20
3.5406735E+002
 40
9.9999303E-001
 50
2.699996E+002
 51
3.6000126E+002
  0
LINE
  8
104
  6
CONTINUOUS
 62
40
 10
1.3396087E+002
 20
3.5306736E+002
 11
1.1566088E+002
 21
3.5306736E+002
  0
ARC
  8
104
  6
CONTINUOUS
 62
40
 10
1.1566088E+002
 20
3.5406735E+002
 40
9.9999352E-001
 50
1.7999877E+002
 51
2.7000014E+002
  0
LINE
  8
104
  6
CONTINUOUS
 62
40
 10
1.1466088E+002
 20
3.5406737E+002
 11
1.1466088E+002
 21
3.5506737E+002
  0
LINE
  8
105
  6
HIDDEN
 62
1
 10
1.1766088E+002
 20
3.5306737E+002
 11
1.1766088E+002
 21
3.4106737E+002
  0
LINE
  8
105
  6
HIDDEN
 62
1
 10
1.1766088E+002
 20
3.4106737E+002
 11
1.3196087E+002
 21
3.4106737E+002
  0
LINE
  8
105
  6
HIDDEN
 62
1
 10
1.3196087E+002
 20
3.4106737E+002
 11
1.3196087E+002
 21
3.5306737E+002
  0
LINE
  8
105
  6
HIDDEN
 62
1
 10
9.6810872E+001
 20
3.9756737E+002
 11
9.6810872E+001
 21
3.9456737E+002
  0
LINE
  8
105
  6
HIDDEN
 62
1
 10
1.0081087E+002
 20
3.9456737E+002
 11
1.0081087E+002
 21
3.9756737E+002
  0
LINE
  8
105
  6
HIDDEN
 62
1
 10
1.4881086E+002
 20
3.9756737E+002
 11
1.4881086E+002
 21
3.9456737E+002
  0
LINE
  8
105
  6
HIDDEN
 62
1
 10
1.5281086E+002
 20
3.9456737E+002
 11
1.5281086E+002
 21
3.9756737E+002
  0
LINE
  8
106
  6
CENTERLINE
 62
1
 10
9.3957356E+001
 20
3.7856737E+002
 11
1.1337142E+002
 21
3.7856737E+002
  0
LINE
  8
106
  6
CENTERLINE
 62
1
 10
1.3647689E+002
 20
3.7856737E+002
 11
1.5493391E+002
 21
3.7856737E+002
  0
LINE
  8
99
  6
CONTINUOUS
 62
1
 10
1.5581086E+002
 20
3.9356737E+002
 11
1.5581086E+002
 21
3.8956737E+002
  0
LINE
  8
99
  6
CONTINUOUS
 62
1
 10
1.5581086E+002
 20
3.8956737E+002
 11
1.5181086E+002
 21
3.8956737E+002
  0
LINE
  8
99
  6
CONTINUOUS
 62
1
 10
1.5181086E+002
 20
3.8956737E+002
 11
1.5181086E+002
 21
3.909847E+002
  0
LINE
  8
99
  6
CONTINUOUS
 62
1
 10
1.5181086E+002
 20
3.909847E+002
 11
1.4981086E+002
 21
3.909847E+002
  0
LINE
  8
99
  6
CONTINUOUS
 62
1
 10
1.4981086E+002
 20
3.909847E+002
 11
1.4981086E+002
 21
3.8956737E+002
  0
LINE
  8
99
  6
CONTINUOUS
 62
1
 10
1.4981086E+002
 20
3.8956737E+002
 11
1.4581087E+002
 21
3.8956737E+002
  0
LINE
  8
99
  6
CONTINUOUS
 62
1
 10
1.4581087E+002
 20
3.8956737E+002
 11
1.4581087E+002
 21
3.9356737E+002
  0
LINE
  8
99
  6
CONTINUOUS
 62
1
 10
1.2841655E+002
 20
3.7056737E+002
 11
1.2810936E+002
 21
3.7156737E+002
  0
LINE
  8
99
  6
CONTINUOUS
 62
1
 10
1.6320518E+002
 20
3.7056737E+002
 11
1.6358351E+002
 21
3.7156737E+002
  0
LINE
  8
99
  6
CONTINUOUS
 62
1
 10
1.2120519E+002
 20
3.7056737E+002
 11
1.2147933E+002
 21
3.7156737E+002
  0
LINE
  8
99
  6
CONTINUOUS
 62
1
 10
8.6416546E+001
 20
3.7056737E+002
 11
8.6093083E+001
 21
3.7156737E+002
  0
LINE
  8
105
  6
HIDDEN
 62
1
 10
9.5810872E+001
 20
3.9456737E+002
 11
9.5810872E+001
 21
3.9756737E+002
  0
LINE
  8
105
  6
HIDDEN
 62
1
 10
1.0181087E+002
 20
3.9456737E+002
 11
1.0181087E+002
 21
3.9756737E+002
  0
LINE
  8
105
  6
HIDDEN
 62
1
 10
1.4781087E+002
 20
3.9456737E+002
 11
1.4781087E+002
 21
3.9756737E+002
  0
LINE
  8
105
  6
HIDDEN
 62
1
 10
1.5381086E+002
 20
3.9456737E+002
 11
1.5381086E+002
 21
3.9756737E+002
  0
LINE
  8
104
  6
CONTINUOUS
 62
40
 10
1.0859566E+002
 20
3.7580489E+002
 11
1.0859566E+002
 21
3.8132989E+002
  0
LINE
  8
104
  6
CONTINUOUS
 62
40
 10
1.0859566E+002
 20
3.8132989E+002
 11
1.0381087E+002
 21
3.8409237E+002
  0
LINE
  8
104
  6
CONTINUOUS
 62
40
 10
1.0381087E+002
 20
3.8409237E+002
 11
9.9026082E+001
 21
3.8132989E+002
  0
LINE
  8
104
  6
CONTINUOUS
 62
40
 10
9.9026082E+001
 20
3.8132989E+002
 11
9.9026082E+001
 21
3.7580486E+002
  0
LINE
  8
104
  6
CONTINUOUS
 62
40
 10
9.9026082E+001
 20
3.7580486E+002
 11
1.0381087E+002
 21
3.7304238E+002
  0
LINE
  8
104
  6
CONTINUOUS
 62
40
 10
1.0381087E+002
 20
3.7304238E+002
 11
1.0859566E+002
 21
3.7580489E+002
  0
LINE
  8
104
  6
CONTINUOUS
 62
40
 10
1.5059569E+002
 20
3.7580489E+002
 11
1.5059569E+002
 21
3.8132989E+002
  0
LINE
  8
104
  6
CONTINUOUS
 62
40
 10
1.5059569E+002
 20
3.8132989E+002
 11
1.4581087E+002
 21
3.8409237E+002
  0
LINE
  8
104
  6
CONTINUOUS
 62
40
 10
1.4581087E+002
 20
3.8409237E+002
 11
1.4102608E+002
 21
3.8132989E+002
  0
LINE
  8
104
  6
CONTINUOUS
 62
40
 10
1.4102608E+002
 20
3.8132989E+002
 11
1.4102608E+002
 21
3.7580486E+002
  0
LINE
  8
104
  6
CONTINUOUS
 62
40
 10
1.4102608E+002
 20
3.7580486E+002
 11
1.4581087E+002
 21
3.7304238E+002
  0
LINE
  8
104
  6
CONTINUOUS
 62
40
 10
1.4581087E+002
 20
3.7304238E+002
 11
1.5059569E+002
 21
3.7580489E+002
  0
CIRCLE
  8
99
  6
CONTINUOUS
 62
1
 10
1.4581087E+002
 20
3.7856737E+002
 40
4.499992
  0
CIRCLE
  8
104
  6
CONTINUOUS
 62
40
 10
1.4581089E+002
 20
3.7856737E+002
 40
6.500008
  0
CIRCLE
  8
104
  6
CONTINUOUS
 62
40
 10
1.0381089E+002
 20
3.7856737E+002
 40
6.5
  0
CIRCLE
  8
99
  6
CONTINUOUS
 62
1
 10
1.0381089E+002
 20
3.7856737E+002
 40
4.5
  0
LINE
  8
106
  6
CENTERLINE
 62
1
 10
1.0381087E+002
 20
3.8657775E+002
 11
1.0381087E+002
 21
3.7009585E+002
  0
LINE
  8
106
  6
CENTERLINE
 62
1
 10
1.4581087E+002
 20
3.8657775E+002
 11
1.4581087E+002
 21
3.7009585E+002
  0
LINE
  8
99
  6
CONTINUOUS
 62
1
 10
1.0381087E+002
 20
3.9356737E+002
 11
1.0381087E+002
 21
3.8956737E+002
  0
LINE
  8
99
  6
CONTINUOUS
 62
1
 10
1.0381087E+002
 20
3.8956737E+002
 11
9.9810872E+001
 21
3.8956737E+002
  0
LINE
  8
99
  6
CONTINUOUS
 62
1
 10
9.9810872E+001
 20
3.8956737E+002
 11
9.9810872E+001
 21
3.909847E+002
  0
LINE
  8
99
  6
CONTINUOUS
 62
1
 10
9.9810872E+001
 20
3.909847E+002
 11
9.7810872E+001
 21
3.909847E+002
  0
LINE
  8
99
  6
CONTINUOUS
 62
1
 10
9.7810872E+001
 20
3.909847E+002
 11
9.7810872E+001
 21
3.8956737E+002
  0
LINE
  8
99
  6
CONTINUOUS
 62
1
 10
9.7810872E+001
 20
3.8956737E+002
 11
9.3810872E+001
 21
3.8956737E+002
  0
LINE
  8
99
  6
CONTINUOUS
 62
1
 10
9.3810872E+001
 20
3.8956737E+002
 11
9.3810872E+001
 21
3.9356737E+002
  0
LINE
  8
99
  6
CONTINUOUS
 62
1
 10
9.2810872E+001
 20
3.9456737E+002
 11
9.2810872E+001
 21
3.9356737E+002
  0
LINE
  8
99
  6
CONTINUOUS
 62
1
 10
9.2810872E+001
 20
3.9356737E+002
 11
1.0481087E+002
 21
3.9356737E+002
  0
LINE
  8
99
  6
CONTINUOUS
 62
1
 10
1.0481087E+002
 20
3.9356737E+002
 11
1.0481087E+002
 21
3.9456737E+002
  0
LINE
  8
99
  6
CONTINUOUS
 62
1
 10
1.4481087E+002
 20
3.9456737E+002
 11
1.4481087E+002
 21
3.9356737E+002
  0
LINE
  8
99
  6
CONTINUOUS
 62
1
 10
1.4481087E+002
 20
3.9356737E+002
 11
1.5681086E+002
 21
3.9356737E+002
  0
LINE
  8
99
  6
CONTINUOUS
 62
1
 10
1.5681086E+002
 20
3.9356737E+002
 11
1.5681086E+002
 21
3.9456737E+002
  0
LINE
  8
105
  6
HIDDEN
 62
1
 10
1.6131086E+002
 20
3.9756737E+002
 11
1.6131086E+002
 21
3.9456737E+002
  0
LINE
  8
105
  6
HIDDEN
 62
1
 10
1.4031087E+002
 20
3.9756737E+002
 11
1.4031087E+002
 21
3.9456737E+002
  0
LINE
  8
105
  6
HIDDEN
 62
1
 10
1.0931087E+002
 20
3.9756737E+002
 11
1.0931087E+002
 21
3.9456737E+002
  0
LINE
  8
105
  6
HIDDEN
 62
1
 10
8.8310872E+001
 20
3.9756737E+002
 11
8.8310872E+001
 21
3.9456737E+002
  0
ARC
  8
104
  6
CONTINUOUS
 62
40
 10
1.4581087E+002
 20
3.7756737E+002
 40
2.0999998E+001
 50
2.9824256E+002
 51
3.8520879E+002
  0
ARC
  8
104
  6
CONTINUOUS
 62
40
 10
1.0381087E+002
 20
3.7756737E+002
 40
2.1000004E+001
 50
1.5479122E+002
 51
2.4175742E+002
  0
ARC
  8
104
  6
CONTINUOUS
 62
40
 10
1.0381087E+002
 20
3.7756737E+002
 40
1.8749998E+001
 50
2.0192134E+002
 51
3.3807866E+002
  0
ARC
  8
104
  6
CONTINUOUS
 62
40
 10
1.4581087E+002
 20
3.7756737E+002
 40
1.8749991E+001
 50
2.0192135E+002
 51
3.3807865E+002
  0
LINE
  8
104
  6
CONTINUOUS
 62
40
 10
1.6481086E+002
 20
3.7156737E+002
 11
8.4810872E+001
 21
3.7156737E+002
  0
LINE
  8
104
  6
CONTINUOUS
 62
40
 10
8.4810872E+001
 20
3.7156737E+002
 11
8.4810872E+001
 21
3.9756737E+002
  0
LINE
  8
104
  6
CONTINUOUS
 62
40
 10
8.4810872E+001
 20
3.9756737E+002
 11
1.6481086E+002
 21
3.9756737E+002
  0
LINE
  8
104
  6
CONTINUOUS
 62
40
 10
1.6481086E+002
 20
3.9756737E+002
 11
1.6481086E+002
 21
3.7156737E+002
  0
LINE
  8
104
  6
CONTINUOUS
 62
40
 10
8.4810872E+001
 20
3.9456737E+002
 11
1.6481086E+002
 21
3.9456737E+002
  0
LINE
  8
106
  6
CENTERLINE
 62
1
 10
1.5081086E+002
 20
4.0059667E+002
 11
1.5081086E+002
 21
3.8778451E+002
  0
LINE
  8
106
  6
CENTERLINE
 62
1
 10
9.8810872E+001
 20
4.0045995E+002
 11
9.8810872E+001
 21
3.8860039E+002
  0
LINE
  8
106
  6
CENTERLINE
 62
1
 10
4.8307346E+002
 20
3.6725233E+002
 11
4.8307346E+002
 21
3.481117E+002
  0
LINE
  8
106
  6
CENTERLINE
 62
1
 10
4.9707343E+002
 20
3.4756483E+002
 11
4.9707343E+002
 21
3.6834608E+002
  0
LINE
  8
105
  6
HIDDEN
 62
1
 10
2.8622346E+002
 20
3.5311948E+002
 11
2.7192347E+002
 21
3.411195E+002
  0
LINE
  8
105
  6
HIDDEN
 62
1
 10
2.7192347E+002
 20
3.5311948E+002
 11
2.8622346E+002
 21
3.411195E+002
  0
LINE
  8
105
  6
HIDDEN
 62
1
 10
2.1927345E+002
 20
3.9361945E+002
 11
2.1927345E+002
 21
3.9761948E+002
  0
LINE
  8
105
  6
HIDDEN
 62
1
 10
2.2287346E+002
 20
3.9361945E+002
 11
2.2287346E+002
 21
3.9761948E+002
  0
LINE
  8
99
  6
CONTINUOUS
 62
1
 10
2.7192347E+002
 20
3.5311948E+002
 11
2.7192347E+002
 21
3.5211948E+002
  0
LINE
  8
99
  6
CONTINUOUS
 62
1
 10
2.8622346E+002
 20
3.5311948E+002
 11
2.8622346E+002
 21
3.5211948E+002
  0
LINE
  8
99
  6
CONTINUOUS
 62
1
 10
2.1807347E+002
 20
3.9361945E+002
 11
2.1807347E+002
 21
3.9184702E+002
  0
LINE
  8
99
  6
CONTINUOUS
 62
1
 10
2.1807347E+002
 20
3.9184702E+002
 11
2.2407347E+002
 21
3.9184702E+002
  0
LINE
  8
99
  6
CONTINUOUS
 62
1
 10
2.2407347E+002
 20
3.9184702E+002
 11
2.2407347E+002
 21
3.9361945E+002
  0
LINE
  8
105
  6
HIDDEN
 62
1
 10
2.1807347E+002
 20
3.9361945E+002
 11
2.1807347E+002
 21
3.9762491E+002
  0
LINE
  8
105
  6
HIDDEN
 62
1
 10
2.2407347E+002
 20
3.9361945E+002
 11
2.2407347E+002
 21
3.9761439E+002
  0
LINE
  8
106
  6
CENTERLINE
 62
1
 10
2.2107347E+002
 20
3.9116618E+002
 11
2.2107347E+002
 21
4.0144279E+002
  0
LINE
  8
99
  6
CONTINUOUS
 62
1
 10
2.1927345E+002
 20
3.9361945E+002
 11
2.1927345E+002
 21
3.9184702E+002
  0
LINE
  8
99
  6
CONTINUOUS
 62
1
 10
2.2287346E+002
 20
3.9361945E+002
 11
2.2287346E+002
 21
3.9184702E+002
  0
LINE
  8
104
  6
CONTINUOUS
 62
40
 10
2.1557347E+002
 20
3.9311948E+002
 11
2.180786E+002
 21
3.9311948E+002
  0
LINE
  8
104
  6
CONTINUOUS
 62
40
 10
2.240786E+002
 20
3.9311948E+002
 11
2.2507347E+002
 21
3.9311948E+002
  0
LINE
  8
104
  6
CONTINUOUS
 62
40
 10
2.1557347E+002
 20
3.9311948E+002
 11
2.1457347E+002
 21
3.9163947E+002
  0
LINE
  8
104
  6
CONTINUOUS
 62
40
 10
2.1457347E+002
 20
3.9163947E+002
 11
2.1457347E+002
 21
3.7711948E+002
  0
LINE
  8
106
  6
CENTERLINE
 62
1
 10
2.2107347E+002
 20
3.9011948E+002
 11
2.2107347E+002
 21
3.6824631E+002
  0
LINE
  8
104
  6
CONTINUOUS
 62
40
 10
2.1557347E+002
 20
3.9011948E+002
 11
2.1557347E+002
 21
3.9311948E+002
  0
LINE
  8
104
  6
CONTINUOUS
 62
40
 10
2.1557347E+002
 20
3.9011948E+002
 11
2.1537486E+002
 21
3.8904588E+002
  0
LINE
  8
104
  6
CONTINUOUS
 62
40
 10
2.1537486E+002
 20
3.8904588E+002
 11
2.1507872E+002
 21
3.8823142E+002
  0
LINE
  8
104
  6
CONTINUOUS
 62
40
 10
2.1507872E+002
 20
3.8823142E+002
 11
2.1493061E+002
 21
3.8689869E+002
  0
LINE
  8
104
  6
CONTINUOUS
 62
40
 10
2.1493061E+002
 20
3.8689869E+002
 11
2.1463444E+002
 21
3.8578806E+002
  0
LINE
  8
104
  6
CONTINUOUS
 62
40
 10
2.1463444E+002
 20
3.8578806E+002
 11
2.1457347E+002
 21
3.8490537E+002
  0
LINE
  8
104
  6
CONTINUOUS
 62
40
 10
2.1457347E+002
 20
3.8490537E+002
 11
2.1457347E+002
 21
3.8445188E+002
  0
LINE
  8
104
  6
CONTINUOUS
 62
40
 10
2.1457347E+002
 20
3.8445188E+002
 11
2.1468651E+002
 21
3.8409556E+002
  0
LINE
  8
104
  6
CONTINUOUS
 62
40
 10
2.1468651E+002
 20
3.8409556E+002
 11
2.1486467E+002
 21
3.8373923E+002
  0
LINE
  8
104
  6
CONTINUOUS
 62
40
 10
2.1486467E+002
 20
3.8373923E+002
 11
2.1504283E+002
 21
3.8351249E+002
  0
LINE
  8
104
  6
CONTINUOUS
 62
40
 10
2.1554231E+002
 20
3.6611948E+002
 11
2.1522679E+002
 21
3.6705567E+002
  0
LINE
  8
104
  6
CONTINUOUS
 62
40
 10
2.1522679E+002
 20
3.6705567E+002
 11
2.1493061E+002
 21
3.6824033E+002
  0
LINE
  8
104
  6
CONTINUOUS
 62
40
 10
2.1493061E+002
 20
3.6824033E+002
 11
2.1463444E+002
 21
3.6986924E+002
  0
LINE
  8
104
  6
CONTINUOUS
 62
40
 10
2.1463444E+002
 20
3.6986924E+002
 11
2.1456041E+002
 21
3.7120197E+002
  0
LINE
  8
104
  6
CONTINUOUS
 62
40
 10
2.1456041E+002
 20
3.7120197E+002
 11
2.1478254E+002
 21
3.7238663E+002
  0
LINE
  8
104
  6
CONTINUOUS
 62
40
 10
2.1478254E+002
 20
3.7238663E+002
 11
2.1487413E+002
 21
3.7311948E+002
  0
LINE
  8
104
  6
CONTINUOUS
 62
40
 10
2.1557347E+002
 20
3.6611948E+002
 11
2.1557347E+002
 21
3.6325907E+002
  0
LINE
  8
104
  6
CONTINUOUS
 62
40
 10
2.1457347E+002
 20
3.7311948E+002
 11
2.1457347E+002
 21
3.6425932E+002
  0
LINE
  8
104
  6
CONTINUOUS
 62
40
 10
2.1457347E+002
 20
3.6425932E+002
 11
2.1571299E+002
 21
3.6311948E+002
  0
LINE
  8
104
  6
CONTINUOUS
 62
40
 10
4.9107343E+002
 20
3.9661948E+002
 11
4.9107343E+002
 21
3.9711948E+002
  0
LINE
  8
104
  6
CONTINUOUS
 62
40
 10
4.9107343E+002
 20
3.9711948E+002
 11
4.7514206E+002
 21
3.9711948E+002
  0
LINE
  8
104
  6
CONTINUOUS
 62
40
 10
4.7514206E+002
 20
3.9711948E+002
 11
4.7514206E+002
 21
3.9661948E+002
  0
LINE
  8
104
  6
CONTINUOUS
 62
40
 10
2.2507347E+002
 20
3.9011948E+002
 11
2.1545695E+002
 21
3.9011948E+002
  0
LINE
  8
104
  6
CONTINUOUS
 62
40
 10
2.2507347E+002
 20
3.6611948E+002
 11
2.1554231E+002
 21
3.6611948E+002
  0
LINE
  8
104
  6
CONTINUOUS
 62
40
 10
2.2507347E+002
 20
3.6311948E+002
 11
2.1571299E+002
 21
3.6311948E+002
  0
LINE
  8
104
  6
CONTINUOUS
 62
40
 10
2.2507347E+002
 20
3.6911948E+002
 11
2.2507347E+002
 21
3.6304194E+002
  0
ARC
  8
104
  6
CONTINUOUS
 62
40
 10
2.2707345E+002
 20
3.6304192E+002
 40
1.9999788
 50
1.7999939E+002
 51
2.7000061E+002
  0
LINE
  8
104
  6
CONTINUOUS
 62
40
 10
2.2707347E+002
 20
3.6104194E+002
 11
2.3016237E+002
 21
3.6104194E+002
  0
LINE
  8
104
  6
CONTINUOUS
 62
40
 10
2.2507347E+002
 20
3.8799436E+002
 11
2.2507347E+002
 21
3.9311948E+002
  0
LINE
  8
104
  6
CONTINUOUS
 62
40
 10
2.2507347E+002
 20
3.9311948E+002
 11
2.2513698E+002
 21
3.9361948E+002
  0
LINE
  8
104
  6
CONTINUOUS
 62
40
 10
2.2807347E+002
 20
3.9511948E+002
 11
2.302144E+002
 21
3.9511948E+002
  0
LINE
  8
104
  6
CONTINUOUS
 62
40
 10
2.4254823E+002
 20
3.9661948E+002
 11
2.3215089E+002
 21
3.9661948E+002
  0
ARC
  8
104
  6
CONTINUOUS
 62
40
 10
2.3215091E+002
 20
3.9461946E+002
 40
2.0000215
 50
9.0000676E+001
 51
1.7799955E+002
  0
LINE
  8
104
  6
CONTINUOUS
 62
40
 10
2.3015211E+002
 20
3.9468928E+002
 11
2.2999492E+002
 21
3.901879E+002
  0
ARC
  8
104
  6
CONTINUOUS
 62
40
 10
2.279962E+002
 20
3.9025762E+002
 40
1.9999332
 50
2.7499853E+002
 51
3.5800219E+002
  0
LINE
  8
104
  6
CONTINUOUS
 62
40
 10
2.2817045E+002
 20
3.882653E+002
 11
2.254694E+002
 21
3.88029E+002
  0
LINE
  8
104
  6
CONTINUOUS
 62
40
 10
2.7907347E+002
 20
3.9661948E+002
 11
2.5412486E+002
 21
3.9661948E+002
  0
LINE
  8
104
  6
CONTINUOUS
 62
40
 10
2.5412486E+002
 20
3.9661948E+002
 11
2.5412486E+002
 21
3.9711948E+002
  0
LINE
  8
104
  6
CONTINUOUS
 62
40
 10
2.5412486E+002
 20
3.9711948E+002
 11
2.4387111E+002
 21
3.9711948E+002
  0
ARC
  8
104
  6
CONTINUOUS
 62
40
 10
2.4387113E+002
 20
3.9511947E+002
 40
2.0000123
 50
9.0000598E+001
 51
1.7224934E+002
  0
LINE
  8
104
  6
CONTINUOUS
 62
40
 10
2.4188939E+002
 20
3.953892E+002
 11
2.4128898E+002
 21
3.9097758E+002
  0
ARC
  8
104
  6
CONTINUOUS
 62
40
 10
2.3930725E+002
 20
3.9124732E+002
 40
2.0000063
 50
2.7499962E+002
 51
3.522489E+002
  0
LINE
  8
104
  6
CONTINUOUS
 62
40
 10
2.3948155E+002
 20
3.8925492E+002
 11
2.1689915E+002
 21
3.8727921E+002
  0
ARC
  8
104
  6
CONTINUOUS
 62
40
 10
2.1707349E+002
 20
3.8528679E+002
 40
2.0000321
 50
9.5000571E+001
 51
1.7999861E+002
  0
LINE
  8
104
  6
CONTINUOUS
 62
40
 10
2.1507345E+002
 20
3.8528684E+002
 11
2.1507345E+002
 21
3.7911948E+002
  0
ARC
  8
104
  6
CONTINUOUS
 62
40
 10
2.1707344E+002
 20
3.7911946E+002
 40
1.9999916
 50
1.7999933E+002
 51
2.7000067E+002
  0
LINE
  8
104
  6
CONTINUOUS
 62
40
 10
2.1707347E+002
 20
3.7711947E+002
 11
2.2707347E+002
 21
3.7711947E+002
  0
LINE
  8
104
  6
CONTINUOUS
 62
40
 10
2.7456236E+002
 20
3.7811948E+002
 11
2.2707347E+002
 21
3.7811948E+002
  0
LINE
  8
104
  6
CONTINUOUS
 62
40
 10
2.2707347E+002
 20
3.7811948E+002
 11
2.2707347E+002
 21
3.7711948E+002
  0
LINE
  8
104
  6
CONTINUOUS
 62
40
 10
2.2707347E+002
 20
3.7811948E+002
 11
2.2489244E+002
 21
3.7811948E+002
  0
LINE
  8
104
  6
CONTINUOUS
 62
40
 10
4.7507346E+002
 20
3.9661948E+002
 11
4.7530466E+002
 21
3.9292759E+002
  0
LINE
  8
104
  6
CONTINUOUS
 62
40
 10
4.7530466E+002
 20
3.9292759E+002
 11
4.7559324E+002
 21
3.890795E+002
  0
ARC
  8
104
  6
CONTINUOUS
 62
40
 10
4.9358998E+002
 20
3.9064997E+002
 40
1.8065141E+001
 50
1.8498723E+002
 51
1.884675E+002
  0
ARC
  8
104
  6
CONTINUOUS
 62
40
 10
5.3372062E+002
 20
3.9643473E+002
 40
5.8610434E+001
 50
1.8828423E+002
 51
1.8987223E+002
  0
ARC
  8
104
  6
CONTINUOUS
 62
40
 10
4.892458E+002
 20
3.8854221E+002
 40
1.3441824E+001
 50
1.892313E+002
 51
1.9476252E+002
  0
ARC
  8
104
  6
CONTINUOUS
 62
40
 10
4.8205565E+002
 20
3.8667785E+002
 40
6.0140235
 50
1.950419E+002
 51
1.9973188E+002
  0
ARC
  8
104
  6
CONTINUOUS
 62
40
 10
4.7968898E+002
 20
3.8582345E+002
 40
3.4978642
 50
1.9964663E+002
 51
2.0637673E+002
  0
ARC
  8
104
  6
CONTINUOUS
 62
40
 10
4.8150102E+002
 20
3.8675554E+002
 40
5.5354378
 50
2.066875E+002
 51
2.281224E+002
  0
LINE
  8
104
  6
CONTINUOUS
 62
40
 10
4.9107343E+002
 20
3.9661948E+002
 11
4.9084235E+002
 21
3.9292759E+002
  0
LINE
  8
104
  6
CONTINUOUS
 62
40
 10
4.9084235E+002
 20
3.9292759E+002
 11
4.9055365E+002
 21
3.890795E+002
  0
ARC
  8
104
  6
CONTINUOUS
 62
40
 10
4.7255589E+002
 20
3.9064972E+002
 40
1.8066132E+001
 50
3.5153379E+002
 51
3.5501386E+002
  0
ARC
  8
104
  6
CONTINUOUS
 62
40
 10
4.3242314E+002
 20
3.9643386E+002
 40
5.8613424E+001
 50
3.5012914E+002
 51
3.5171705E+002
  0
ARC
  8
104
  6
CONTINUOUS
 62
40
 10
4.7691702E+002
 20
3.8853828E+002
 40
1.3425528E+001
 50
3.452365E+002
 51
3.507744E+002
  0
ARC
  8
104
  6
CONTINUOUS
 62
40
 10
4.8409791E+002
 20
3.8667623E+002
 40
6.007278
 50
3.4026142E+002
 51
3.4495677E+002
  0
ARC
  8
104
  6
CONTINUOUS
 62
40
 10
4.8646127E+002
 20
3.8582271E+002
 40
3.4945222
 50
3.3360959E+002
 51
3.4034664E+002
  0
ARC
  8
104
  6
CONTINUOUS
 62
40
 10
4.8464668E+002
 20
3.8675493E+002
 40
5.5344359
 50
3.1187563E+002
 51
3.3331446E+002
  0
LINE
  8
104
  6
CONTINUOUS
 62
40
 10
4.7507346E+002
 20
3.7811948E+002
 11
4.7566953E+002
 21
3.6104969E+002
  0
ARC
  8
104
  6
CONTINUOUS
 62
40
 10
4.7766826E+002
 20
3.6111946E+002
 40
1.9999474
 50
1.8199929E+002
 51
2.7000141E+002
  0
LINE
  8
104
  6
CONTINUOUS
 62
40
 10
4.7766831E+002
 20
3.5911951E+002
 11
4.8847858E+002
 21
3.5911951E+002
  0
ARC
  8
104
  6
CONTINUOUS
 62
40
 10
4.8847858E+002
 20
3.6111951E+002
 40
1.9999986
 50
2.7000001E+002
 51
3.5799929E+002
  0
LINE
  8
104
  6
CONTINUOUS
 62
40
 10
4.9047736E+002
 20
3.6104969E+002
 11
4.9107343E+002
 21
3.781196E+002
  0
LINE
  8
104
  6
CONTINUOUS
 62
40
 10
3.3862836E+002
 20
3.9661948E+002
 11
3.4149607E+002
 21
3.9661948E+002
  0
ARC
  8
104
  6
CONTINUOUS
 62
40
 10
3.4149601E+002
 20
3.9461943E+002
 40
2.0000534
 50
2.0013336
 51
8.9998442E+001
  0
LINE
  8
104
  6
CONTINUOUS
 62
40
 10
3.4349485E+002
 20
3.9468928E+002
 11
3.4407346E+002
 21
3.7811948E+002
  0
LINE
  8
104
  6
CONTINUOUS
 62
40
 10
3.4407346E+002
 20
3.7811948E+002
 11
3.4347736E+002
 21
3.6104969E+002
  0
ARC
  8
104
  6
CONTINUOUS
 62
40
 10
3.4147859E+002
 20
3.611195E+002
 40
1.9999875
 50
2.6999971E+002
 51
3.579996E+002
  0
LINE
  8
104
  6
CONTINUOUS
 62
40
 10
3.4147858E+002
 20
3.5911951E+002
 11
3.3586051E+002
 21
3.5911951E+002
  0
LINE
  8
106
  6
CENTERLINE
 62
1
 10
2.7907347E+002
 20
4.0368198E+002
 11
2.7907347E+002
 21
3.368695E+002
  0
LINE
  8
104
  6
CONTINUOUS
 62
40
 10
2.6307347E+002
 20
3.5911948E+002
 11
2.6307347E+002
 21
3.5661948E+002
  0
ARC
  8
104
  6
CONTINUOUS
 62
40
 10
2.6457344E+002
 20
3.5661946E+002
 40
1.4999768
 50
1.7999911E+002
 51
2.7000089E+002
  0
LINE
  8
104
  6
CONTINUOUS
 62
40
 10
2.6457347E+002
 20
3.5511948E+002
 11
2.9357347E+002
 21
3.5511948E+002
  0
ARC
  8
104
  6
CONTINUOUS
 62
40
 10
2.9357348E+002
 20
3.5661948E+002
 40
1.5000018
 50
2.699995E+002
 51
3.5999993E+002
  0
LINE
  8
104
  6
CONTINUOUS
 62
40
 10
2.9507348E+002
 20
3.5661948E+002
 11
2.9507348E+002
 21
3.5911948E+002
  0
LINE
  8
104
  6
CONTINUOUS
 62
40
 10
2.8922346E+002
 20
3.5511948E+002
 11
2.8922346E+002
 21
3.5311948E+002
  0
LINE
  8
104
  6
CONTINUOUS
 62
40
 10
2.8922346E+002
 20
3.5311948E+002
 11
2.6892347E+002
 21
3.5311948E+002
  0
LINE
  8
104
  6
CONTINUOUS
 62
40
 10
2.6892347E+002
 20
3.5311948E+002
 11
2.6892347E+002
 21
3.5511948E+002
  0
LINE
  8
105
  6
HIDDEN
 62
1
 10
2.7192347E+002
 20
3.5211948E+002
 11
2.7192347E+002
 21
3.411195E+002
  0
LINE
  8
105
  6
HIDDEN
 62
1
 10
2.7192347E+002
 20
3.411195E+002
 11
2.8622346E+002
 21
3.411195E+002
  0
LINE
  8
105
  6
HIDDEN
 62
1
 10
2.8622346E+002
 20
3.411195E+002
 11
2.8622346E+002
 21
3.5211948E+002
  0
LINE
  8
104
  6
CONTINUOUS
 62
40
 10
2.9902968E+002
 20
3.5911948E+002
 11
2.9902968E+002
 21
3.6111948E+002
  0
LINE
  8
104
  6
CONTINUOUS
 62
40
 10
2.9902968E+002
 20
3.6111948E+002
 11
2.5068025E+002
 21
3.6111948E+002
  0
LINE
  8
104
  6
CONTINUOUS
 62
40
 10
2.5068025E+002
 20
3.6111948E+002
 11
2.5068025E+002
 21
3.5911948E+002
  0
LINE
  8
104
  6
CONTINUOUS
 62
40
 10
5.0641877E+002
 20
3.5936948E+002
 11
5.1157354E+002
 21
3.5936948E+002
  0
LINE
  8
104
  6
CONTINUOUS
 62
40
 10
5.1157354E+002
 20
3.5936948E+002
 11
5.1257354E+002
 21
3.6036948E+002
  0
LINE
  8
104
  6
CONTINUOUS
 62
40
 10
5.1257354E+002
 20
3.6036948E+002
 11
5.1257354E+002
 21
3.9586948E+002
  0
LINE
  8
104
  6
CONTINUOUS
 62
40
 10
5.1257354E+002
 20
3.9586948E+002
 11
5.1157354E+002
 21
3.9686948E+002
  0
LINE
  8
104
  6
CONTINUOUS
 62
40
 10
5.1157354E+002
 20
3.9686948E+002
 11
5.0641877E+002
 21
3.9686948E+002
  0
LINE
  8
104
  6
CONTINUOUS
 62
40
 10
5.0641877E+002
 20
3.9686948E+002
 11
5.0641877E+002
 21
3.9661948E+002
  0
LINE
  8
104
  6
CONTINUOUS
 62
40
 10
5.0640998E+002
 20
3.5911948E+002
 11
5.0707354E+002
 21
3.7811948E+002
  0
LINE
  8
104
  6
CONTINUOUS
 62
40
 10
5.0707354E+002
 20
3.7811948E+002
 11
5.0642743E+002
 21
3.9661948E+002
  0
LINE
  8
104
  6
CONTINUOUS
 62
40
 10
5.0642743E+002
 20
3.9661948E+002
 11
4.9006452E+002
 21
3.9661948E+002
  0
LINE
  8
104
  6
CONTINUOUS
 62
40
 10
4.7658493E+002
 20
3.9661948E+002
 11
2.7907347E+002
 21
3.9661948E+002
  0
LINE
  8
104
  6
CONTINUOUS
 62
40
 10
2.5412486E+002
 20
3.9661948E+002
 11
2.5163069E+002
 21
3.9661948E+002
  0
LINE
  8
104
  6
CONTINUOUS
 62
40
 10
2.4004118E+002
 20
3.5911948E+002
 11
5.0640998E+002
 21
3.5911948E+002
  0
LINE
  8
104
  6
CONTINUOUS
 62
40
 10
2.4004118E+002
 20
3.5911948E+002
 11
2.3216087E+002
 21
3.5911948E+002
  0
ARC
  8
104
  6
CONTINUOUS
 62
40
 10
2.3216088E+002
 20
3.611195E+002
 40
2.0000137
 50
1.8222244E+002
 51
2.6999985E+002
  0
LINE
  8
104
  6
CONTINUOUS
 62
40
 10
2.3016237E+002
 20
3.6104194E+002
 11
2.2953856E+002
 21
3.7711948E+002
  0
LINE
  8
104
  6
CONTINUOUS
 62
40
 10
2.2953856E+002
 20
3.7711948E+002
 11
2.2957347E+002
 21
3.7811948E+002
  0
LINE
  8
105
  6
HIDDEN
 62
1
 10
5.2707354E+002
 20
3.9761951E+002
 11
5.2707354E+002
 21
3.9461948E+002
  0
LINE
  8
105
  6
HIDDEN
 62
1
 10
5.3107354E+002
 20
3.9461948E+002
 11
5.3107354E+002
 21
3.9761951E+002
  0
LINE
  8
104
  6
CONTINUOUS
 62
40
 10
2.2607347E+002
 20
3.7311948E+002
 11
2.2607347E+002
 21
3.6911948E+002
  0
LINE
  8
104
  6
CONTINUOUS
 62
40
 10
2.2607347E+002
 20
3.6911948E+002
 11
2.2207347E+002
 21
3.6911948E+002
  0
LINE
  8
104
  6
CONTINUOUS
 62
40
 10
2.2207347E+002
 20
3.6911948E+002
 11
2.2207347E+002
 21
3.7053681E+002
  0
LINE
  8
104
  6
CONTINUOUS
 62
40
 10
2.2207347E+002
 20
3.7053681E+002
 11
2.2007347E+002
 21
3.7053681E+002
  0
LINE
  8
104
  6
CONTINUOUS
 62
40
 10
2.2007347E+002
 20
3.7053681E+002
 11
2.2007347E+002
 21
3.6911948E+002
  0
LINE
  8
104
  6
CONTINUOUS
 62
40
 10
2.2007347E+002
 20
3.6911948E+002
 11
2.1607347E+002
 21
3.6911948E+002
  0
LINE
  8
104
  6
CONTINUOUS
 62
40
 10
2.1607347E+002
 20
3.6911948E+002
 11
2.1607347E+002
 21
3.7311948E+002
  0
LINE
  8
99
  6
CONTINUOUS
 62
1
 10
5.3407354E+002
 20
3.9301948E+002
 11
5.3407354E+002
 21
3.8901948E+002
  0
LINE
  8
99
  6
CONTINUOUS
 62
1
 10
5.3407354E+002
 20
3.8901948E+002
 11
5.3007354E+002
 21
3.8901948E+002
  0
LINE
  8
99
  6
CONTINUOUS
 62
1
 10
5.3007354E+002
 20
3.8901948E+002
 11
5.3007354E+002
 21
3.904368E+002
  0
LINE
  8
99
  6
CONTINUOUS
 62
1
 10
5.3007354E+002
 20
3.904368E+002
 11
5.2807354E+002
 21
3.904368E+002
  0
LINE
  8
99
  6
CONTINUOUS
 62
1
 10
5.2807354E+002
 20
3.904368E+002
 11
5.2807354E+002
 21
3.8901948E+002
  0
LINE
  8
99
  6
CONTINUOUS
 62
1
 10
5.2807354E+002
 20
3.8901948E+002
 11
5.2407354E+002
 21
3.8901948E+002
  0
LINE
  8
99
  6
CONTINUOUS
 62
1
 10
5.2407354E+002
 20
3.8901948E+002
 11
5.2407354E+002
 21
3.9301948E+002
  0
LINE
  8
105
  6
HIDDEN
 62
1
 10
2.1807347E+002
 20
3.7311948E+002
 11
2.1807347E+002
 21
3.8738196E+002
  0
LINE
  8
105
  6
HIDDEN
 62
1
 10
2.1887346E+002
 20
3.7311948E+002
 11
2.1887346E+002
 21
3.8745194E+002
  0
LINE
  8
105
  6
HIDDEN
 62
1
 10
2.2327345E+002
 20
3.7311948E+002
 11
2.2327345E+002
 21
3.8783689E+002
  0
LINE
  8
105
  6
HIDDEN
 62
1
 10
2.2407347E+002
 20
3.879069E+002
 11
2.2407347E+002
 21
3.7311948E+002
  0
LINE
  8
99
  6
CONTINUOUS
 62
1
 10
2.1807347E+002
 20
3.8738196E+002
 11
2.1807347E+002
 21
3.8894352E+002
  0
LINE
  8
99
  6
CONTINUOUS
 62
1
 10
2.1807347E+002
 20
3.8894352E+002
 11
2.2407347E+002
 21
3.8894352E+002
  0
LINE
  8
99
  6
CONTINUOUS
 62
1
 10
2.2407347E+002
 20
3.8894352E+002
 11
2.2407347E+002
 21
3.879069E+002
  0
LINE
  8
99
  6
CONTINUOUS
 62
1
 10
2.1887346E+002
 20
3.8745194E+002
 11
2.1887346E+002
 21
3.8894352E+002
  0
LINE
  8
99
  6
CONTINUOUS
 62
1
 10
2.2327345E+002
 20
3.8783689E+002
 11
2.2327345E+002
 21
3.8894352E+002
  0
LINE
  8
105
  6
HIDDEN
 62
1
 10
5.2607354E+002
 20
3.9761951E+002
 11
5.2607354E+002
 21
3.9461948E+002
  0
LINE
  8
105
  6
HIDDEN
 62
1
 10
5.3207354E+002
 20
3.9761951E+002
 11
5.3207354E+002
 21
3.9461948E+002
  0
LINE
  8
99
  6
CONTINUOUS
 62
1
 10
5.2282354E+002
 20
3.9461948E+002
 11
5.2282354E+002
 21
3.9301948E+002
  0
LINE
  8
99
  6
CONTINUOUS
 62
1
 10
5.2282354E+002
 20
3.9301948E+002
 11
5.3532354E+002
 21
3.9301948E+002
  0
LINE
  8
99
  6
CONTINUOUS
 62
1
 10
5.3532354E+002
 20
3.9301948E+002
 11
5.3532354E+002
 21
3.9461948E+002
  0
LINE
  8
106
  6
CENTERLINE
 62
1
 10
5.2907354E+002
 20
3.8841126E+002
 11
5.2907354E+002
 21
3.9996519E+002
  0
LINE
  8
104
  6
CONTINUOUS
 62
40
 10
5.1717351E+002
 20
3.8361948E+002
 11
5.2217351E+002
 21
3.8361948E+002
  0
LINE
  8
104
  6
CONTINUOUS
 62
40
 10
5.2217351E+002
 20
3.8361948E+002
 11
5.2217351E+002
 21
3.7361948E+002
  0
LINE
  8
99
  6
CONTINUOUS
 62
1
 10
5.1717351E+002
 20
3.7861948E+002
 11
5.2158025E+002
 21
3.7861948E+002
  0
LINE
  8
99
  6
CONTINUOUS
 62
1
 10
5.2158025E+002
 20
3.7861948E+002
 11
5.2217351E+002
 21
3.7861948E+002
  0
LINE
  8
104
  6
CONTINUOUS
 62
40
 10
5.1717351E+002
 20
3.7361948E+002
 11
5.2217351E+002
 21
3.7361948E+002
  0
LINE
  8
104
  6
CONTINUOUS
 62
40
 10
5.1557354E+002
 20
3.7236948E+002
 11
5.1717351E+002
 21
3.7236948E+002
  0
LINE
  8
104
  6
CONTINUOUS
 62
40
 10
5.1717351E+002
 20
3.7236948E+002
 11
5.1717351E+002
 21
3.8486948E+002
  0
LINE
  8
104
  6
CONTINUOUS
 62
40
 10
5.1717351E+002
 20
3.8486948E+002
 11
5.1557354E+002
 21
3.8486948E+002
  0
LINE
  8
99
  6
CONTINUOUS
 62
1
 10
5.2358745E+002
 20
3.7861948E+002
 11
5.0795598E+002
 21
3.7861948E+002
  0
LINE
  8
104
  6
CONTINUOUS
 62
40
 10
5.3757354E+002
 20
3.9761948E+002
 11
5.3757354E+002
 21
3.9461948E+002
  0
LINE
  8
104
  6
CONTINUOUS
 62
40
 10
5.3757354E+002
 20
3.9461948E+002
 11
5.1657354E+002
 21
3.9461948E+002
  0
ARC
  8
104
  6
CONTINUOUS
 62
40
 10
5.1657347E+002
 20
3.9361943E+002
 40
1.0000511
 50
8.9995881E+001
 51
1.7999707E+002
  0
LINE
  8
104
  6
CONTINUOUS
 62
40
 10
5.1557341E+002
 20
3.9361948E+002
 11
5.1557341E+002
 21
3.7161948E+002
  0
LINE
  8
104
  6
CONTINUOUS
 62
40
 10
5.1557341E+002
 20
3.7161948E+002
 11
5.1257354E+002
 21
3.7161948E+002
  0
LINE
  8
104
  6
CONTINUOUS
 62
40
 10
5.1257354E+002
 20
3.7161948E+002
 11
5.1257354E+002
 21
3.9361948E+002
  0
ARC
  8
104
  6
CONTINUOUS
 62
40
 10
5.1657359E+002
 20
3.9361944E+002
 40
4.0000541
 50
9.0000775E+001
 51
1.7999944E+002
  0
LINE
  8
104
  6
CONTINUOUS
 62
40
 10
5.1657354E+002
 20
3.976195E+002
 11
5.3757354E+002
 21
3.976195E+002
  0
LINE
  8
105
  6
HIDDEN
 62
1
 10
2.1256895E+002
 20
3.733512E+002
 11
2.1030742E+002
 21
3.7111948E+002
  0
LINE
  8
105
  6
HIDDEN
 62
1
 10
2.1030742E+002
 20
3.7111948E+002
 11
2.0907347E+002
 21
3.7111948E+002
  0
LINE
  8
105
  6
HIDDEN
 62
1
 10
2.0907347E+002
 20
3.6511948E+002
 11
2.1030742E+002
 21
3.6511948E+002
  0
LINE
  8
105
  6
HIDDEN
 62
1
 10
2.1030742E+002
 20
3.6511948E+002
 11
2.1030742E+002
 21
3.7111948E+002
  0
LINE
  8
105
  6
HIDDEN
 62
1
 10
2.1030742E+002
 20
3.6511948E+002
 11
2.1307347E+002
 21
3.6238993E+002
  0
LINE
  8
106
  6
CENTERLINE
 62
1
 10
2.1367643E+002
 20
3.6811948E+002
 11
2.012209E+002
 21
3.6811948E+002
  0
LINE
  8
105
  6
HIDDEN
 62
1
 10
2.1030742E+002
 20
3.8861948E+002
 11
2.0907348E+002
 21
3.8861948E+002
  0
LINE
  8
105
  6
HIDDEN
 62
1
 10
2.0907348E+002
 20
3.8261948E+002
 11
2.1030742E+002
 21
3.8261948E+002
  0
LINE
  8
106
  6
CENTERLINE
 62
1
 10
2.1367643E+002
 20
3.8561948E+002
 11
2.0149434E+002
 21
3.8561948E+002
  0
LINE
  8
105
  6
HIDDEN
 62
1
 10
2.1307347E+002
 20
3.9134904E+002
 11
2.1034392E+002
 21
3.8865549E+002
  0
LINE
  8
105
  6
HIDDEN
 62
1
 10
2.1034392E+002
 20
3.8865549E+002
 11
2.1030742E+002
 21
3.8261948E+002
  0
LINE
  8
105
  6
HIDDEN
 62
1
 10
2.1030742E+002
 20
3.8261948E+002
 11
2.1307347E+002
 21
3.7988993E+002
  0
LINE
  8
104
  6
CONTINUOUS
 62
40
 10
2.0907347E+002
 20
3.833707E+002
 11
2.0907347E+002
 21
3.5966166E+002
  0
LINE
  8
104
  6
CONTINUOUS
 62
40
 10
2.0907347E+002
 20
3.5966166E+002
 11
2.1307347E+002
 21
3.5961948E+002
  0
LINE
  8
104
  6
CONTINUOUS
 62
40
 10
2.1307347E+002
 20
3.5961948E+002
 11
2.1307347E+002
 21
3.732205E+002
  0
LINE
  8
104
  6
CONTINUOUS
 62
40
 10
2.2807347E+002
 20
3.9761948E+002
 11
2.1407347E+002
 21
3.9761948E+002
  0
ARC
  8
104
  6
CONTINUOUS
 62
40
 10
2.1407347E+002
 20
3.926195E+002
 40
4.9999868
 50
9.000002E+001
 51
1.8000015E+002
  0
LINE
  8
104
  6
CONTINUOUS
 62
40
 10
2.0907348E+002
 20
3.9261948E+002
 11
2.0907348E+002
 21
3.7811948E+002
  0
ARC
  8
104
  6
CONTINUOUS
 62
40
 10
2.1407348E+002
 20
3.7811946E+002
 40
4.9999967
 50
1.7999979E+002
 51
2.6999987E+002
  0
LINE
  8
104
  6
CONTINUOUS
 62
40
 10
2.1407347E+002
 20
3.7311947E+002
 11
2.2807347E+002
 21
3.7311947E+002
  0
LINE
  8
104
  6
CONTINUOUS
 62
40
 10
2.2807347E+002
 20
3.7311947E+002
 11
2.2807347E+002
 21
3.7711948E+002
  0
LINE
  8
104
  6
CONTINUOUS
 62
40
 10
2.2807347E+002
 20
3.7711948E+002
 11
2.1407347E+002
 21
3.7711948E+002
  0
ARC
  8
104
  6
CONTINUOUS
 62
40
 10
2.1407348E+002
 20
3.7811948E+002
 40
9.999927E-001
 50
1.7999958E+002
 51
2.6999956E+002
  0
LINE
  8
104
  6
CONTINUOUS
 62
40
 10
2.1307348E+002
 20
3.7811948E+002
 11
2.1307348E+002
 21
3.9261948E+002
  0
ARC
  8
104
  6
CONTINUOUS
 62
40
 10
2.1407347E+002
 20
3.9261947E+002
 40
9.9998276E-001
 50
8.9999871E+001
 51
1.7999921E+002
  0
LINE
  8
104
  6
CONTINUOUS
 62
40
 10
2.1407347E+002
 20
3.9361945E+002
 11
2.2807347E+002
 21
3.9361945E+002
  0
LINE
  8
104
  6
CONTINUOUS
 62
40
 10
2.2807347E+002
 20
3.9361945E+002
 11
2.2807347E+002
 21
3.9761948E+002
  0
LINE
  8
99
  6
CONTINUOUS
 62
1
 10
2.0907348E+002
 20
3.8861948E+002
 11
2.0230742E+002
 21
3.8861948E+002
  0
LINE
  8
99
  6
CONTINUOUS
 62
1
 10
2.0230742E+002
 20
3.8861948E+002
 11
2.0230742E+002
 21
3.8261948E+002
  0
LINE
  8
99
  6
CONTINUOUS
 62
1
 10
2.0230742E+002
 20
3.8261948E+002
 11
2.0907347E+002
 21
3.8261948E+002
  0
LINE
  8
99
  6
CONTINUOUS
 62
1
 10
2.0907348E+002
 20
3.8761948E+002
 11
2.0230742E+002
 21
3.8761948E+002
  0
LINE
  8
99
  6
CONTINUOUS
 62
1
 10
2.0230742E+002
 20
3.8361948E+002
 11
2.0907348E+002
 21
3.8361948E+002
  0
LINE
  8
105
  6
HIDDEN
 62
1
 10
2.0907348E+002
 20
3.8761948E+002
 11
2.1033764E+002
 21
3.8761948E+002
  0
LINE
  8
105
  6
HIDDEN
 62
1
 10
2.1031346E+002
 20
3.8361948E+002
 11
2.0907347E+002
 21
3.8361948E+002
  0
LINE
  8
99
  6
CONTINUOUS
 62
1
 10
2.0907347E+002
 20
3.7111948E+002
 11
2.0230742E+002
 21
3.7111948E+002
  0
LINE
  8
99
  6
CONTINUOUS
 62
1
 10
2.0230742E+002
 20
3.7111948E+002
 11
2.0230742E+002
 21
3.6511948E+002
  0
LINE
  8
99
  6
CONTINUOUS
 62
1
 10
2.0230742E+002
 20
3.6511948E+002
 11
2.0907347E+002
 21
3.6511948E+002
  0
LINE
  8
99
  6
CONTINUOUS
 62
1
 10
2.0230742E+002
 20
3.6611948E+002
 11
2.0907347E+002
 21
3.6611948E+002
  0
LINE
  8
99
  6
CONTINUOUS
 62
1
 10
2.0907347E+002
 20
3.7011948E+002
 11
2.0230742E+002
 21
3.7011948E+002
  0
LINE
  8
105
  6
HIDDEN
 62
1
 10
2.0907347E+002
 20
3.7011948E+002
 11
2.1030742E+002
 21
3.7011948E+002
  0
LINE
  8
105
  6
HIDDEN
 62
1
 10
2.1030742E+002
 20
3.6611948E+002
 11
2.0907347E+002
 21
3.6611948E+002
  0
LINE
  8
98
  6
CONTINUOUS
 62
1
 10
5.0
 20
5.0
 11
5.89E+002
 21
5.0
  0
LINE
  8
98
  6
CONTINUOUS
 62
1
 10
5.89E+002
 20
5.0
 11
5.89E+002
 21
4.15E+002
  0
LINE
  8
98
  6
CONTINUOUS
 62
1
 10
5.89E+002
 20
4.15E+002
 11
5.0
 21
4.15E+002
  0
LINE
  8
98
  6
CONTINUOUS
 62
1
 10
5.0
 20
4.15E+002
 11
5.0
 21
5.0
  0
LINE
  8
104
  6
CONTINUOUS
 62
40
 10
1.8813853E+002
 20
1.5323233E+002
 11
3.6444445E+002
 21
1.5323233E+002
  0
LINE
  8
104
  6
CONTINUOUS
 62
40
 10
3.6444445E+002
 20
1.5323233E+002
 11
3.6444445E+002
 21
2.1121212E+002
  0
LINE
  8
104
  6
CONTINUOUS
 62
40
 10
3.6444445E+002
 20
2.1121212E+002
 11
1.8813853E+002
 21
2.1121212E+002
  0
LINE
  8
104
  6
CONTINUOUS
 62
40
 10
1.8813853E+002
 20
2.1121212E+002
 11
1.8813853E+002
 21
1.5323233E+002
  0
ENDSEC
  0
EOF
