  0
SECTION
  2
HEADER
  9
$ACADVER
  1
AC1009
999
I-DEAS 8 Not Encoded
  9
$EXTMIN
 10
0.0
 20
0.0
  9
$EXTMAX
 10
4.2E+002
 20
2.97E+002
  9
$TEXTSIZE
 40
1.25E-001
  9
$LTSCALE
 40
1.0
  9
$CLAYER
  8
104
  9
$CECOLOR
 62
40
  9
$DIMASZ
 40
1.25E-001
  9
$DIMEXO
 40
6.25E-002
  9
$DIMDLI
 40
2.5E-001
  9
$DIMEXE
 40
1.25E-001
  9
$DIMTP
 40
5.0E-003
  9
$DIMTM
 40
-5.0E-003
  9
$DIMTXT
 40
3.0
  9
$DIMLIM
 70
0
  9
$DIMTIH
 70
1
  9
$DIMTOH
 70
1
  9
$DIMSE1
 70
0
  9
$DIMSE2
 70
0
  9
$DIMTAD
 70
0
  9
$DIMASO
 70
1
  9
$DIMALT
 70
0
  9
$DIMALTD
 70
0
  9
$DIMTOFL
 70
1
  9
$DIMTIX
 70
0
  9
$DIMSAH
 70
0
  9
$DIMTFAC
 40
1.0
  9
$DIMGAP
 40
6.25E-002
  9
$LUNITS
 70
2
  9
$LUPREC
 70
3
  9
$FILLETRAD
 40
2.0
  9
$AUNITS
 70
0
  9
$AUPREC
 70
1
  9
$CHAMFERA
 40
1.0E+001
  9
$CHAMFERB
 40
1.0E+001
  9
$ANGBASE
 50
0.0
  9
$ANGDIR
 70
0
  9
$PDMODE
 70
2
  9
$PDSIZE
 40
-1.0E-002
  9
$SPLINETYPE
 70
6
  0
ENDSEC
  0
SECTION
  2
TABLES
  0
TABLE
  2
LTYPE
 70
7
  0
LTYPE
  2
HIDDENNEW00
  3
_ 
 70
64
 72
65
 73
3
 40
4.5
 49
1.5
 49
-1.5
 49
1.5
  0
LTYPE
  2
HIDDENNEW01
  3
_ 
 70
64
 72
65
 73
3
 40
4.5
 49
1.5
 49
-1.5
 49
1.5
  0
LTYPE
  2
HIDDEN
  3
_ 
 70
64
 72
65
 73
3
 40
4.5
 49
1.5
 49
-1.5
 49
1.5
  0
LTYPE
  2
CENTERLINE
  3
_ 
 70
64
 72
65
 73
5
 40
3.0E+001
 49
1.2E+001
 49
-1.5
 49
3.0
 49
-1.5
 49
1.2E+001
  0
LTYPE
  2
PHANTOM
  3
_ 
 70
64
 72
65
 73
7
 40
2.95E+001
 49
9.5
 49
-1.5
 49
3.0
 49
-1.5
 49
3.0
 49
-1.5
 49
9.5
  0
LTYPE
  2
SHORT_DASH
  3
_ 
 70
64
 72
65
 73
3
 40
3.0
 49
7.5E-001
 49
-1.5
 49
7.5E-001
  0
LTYPE
  2
LONG_DASH
  3
_ 
 70
64
 72
65
 73
3
 40
9.0
 49
2.25
 49
-4.5
 49
2.25
  0
ENDTAB
  0
TABLE
  2
LAYER
 70
258
  0
LAYER
  2
MED-1
 70
0
 62
3
  6
HIDDENNEW00
  0
LAYER
  2
2
 70
0
 62
7
  6
CONTINUOUS
  0
LAYER
  2
3
 70
0
 62
7
  6
CONTINUOUS
  0
LAYER
  2
4
 70
0
 62
7
  6
CONTINUOUS
  0
LAYER
  2
MED-5
 70
0
 62
5
  6
HIDDENNEW00
  0
LAYER
  2
MED-6
 70
0
 62
6
  6
HIDDENNEW00
  0
LAYER
  2
7
 70
0
 62
7
  6
CONTINUOUS
  0
LAYER
  2
8
 70
0
 62
7
  6
CONTINUOUS
  0
LAYER
  2
9
 70
0
 62
7
  6
CONTINUOUS
  0
LAYER
  2
10
 70
0
 62
7
  6
CONTINUOUS
  0
LAYER
  2
MED-11
 70
0
 62
70
  6
HIDDENNEW00
  0
LAYER
  2
12
 70
0
 62
7
  6
CONTINUOUS
  0
LAYER
  2
13
 70
0
 62
7
  6
CONTINUOUS
  0
LAYER
  2
14
 70
0
 62
7
  6
CONTINUOUS
  0
LAYER
  2
15
 70
0
 62
7
  6
CONTINUOUS
  0
LAYER
  2
16
 70
0
 62
7
  6
CONTINUOUS
  0
LAYER
  2
17
 70
0
 62
7
  6
CONTINUOUS
  0
LAYER
  2
18
 70
0
 62
7
  6
CONTINUOUS
  0
LAYER
  2
19
 70
0
 62
7
  6
CONTINUOUS
  0
LAYER
  2
20
 70
0
 62
7
  6
CONTINUOUS
  0
LAYER
  2
21
 70
0
 62
7
  6
CONTINUOUS
  0
LAYER
  2
22
 70
0
 62
7
  6
CONTINUOUS
  0
LAYER
  2
23
 70
0
 62
7
  6
CONTINUOUS
  0
LAYER
  2
24
 70
0
 62
7
  6
CONTINUOUS
  0
LAYER
  2
25
 70
0
 62
7
  6
CONTINUOUS
  0
LAYER
  2
26
 70
0
 62
7
  6
CONTINUOUS
  0
LAYER
  2
27
 70
0
 62
7
  6
CONTINUOUS
  0
LAYER
  2
28
 70
0
 62
7
  6
CONTINUOUS
  0
LAYER
  2
29
 70
0
 62
7
  6
CONTINUOUS
  0
LAYER
  2
30
 70
0
 62
7
  6
CONTINUOUS
  0
LAYER
  2
31
 70
0
 62
7
  6
CONTINUOUS
  0
LAYER
  2
32
 70
0
 62
7
  6
CONTINUOUS
  0
LAYER
  2
33
 70
0
 62
7
  6
CONTINUOUS
  0
LAYER
  2
34
 70
0
 62
7
  6
CONTINUOUS
  0
LAYER
  2
35
 70
0
 62
7
  6
CONTINUOUS
  0
LAYER
  2
36
 70
0
 62
7
  6
CONTINUOUS
  0
LAYER
  2
37
 70
0
 62
7
  6
CONTINUOUS
  0
LAYER
  2
38
 70
0
 62
7
  6
CONTINUOUS
  0
LAYER
  2
39
 70
0
 62
7
  6
CONTINUOUS
  0
LAYER
  2
40
 70
0
 62
7
  6
CONTINUOUS
  0
LAYER
  2
41
 70
0
 62
7
  6
CONTINUOUS
  0
LAYER
  2
42
 70
0
 62
7
  6
CONTINUOUS
  0
LAYER
  2
43
 70
0
 62
7
  6
CONTINUOUS
  0
LAYER
  2
44
 70
0
 62
7
  6
CONTINUOUS
  0
LAYER
  2
45
 70
0
 62
7
  6
CONTINUOUS
  0
LAYER
  2
46
 70
0
 62
7
  6
CONTINUOUS
  0
LAYER
  2
47
 70
0
 62
7
  6
CONTINUOUS
  0
LAYER
  2
48
 70
0
 62
7
  6
CONTINUOUS
  0
LAYER
  2
49
 70
0
 62
7
  6
CONTINUOUS
  0
LAYER
  2
50
 70
0
 62
7
  6
CONTINUOUS
  0
LAYER
  2
51
 70
0
 62
7
  6
CONTINUOUS
  0
LAYER
  2
52
 70
0
 62
7
  6
CONTINUOUS
  0
LAYER
  2
53
 70
0
 62
7
  6
CONTINUOUS
  0
LAYER
  2
54
 70
0
 62
7
  6
CONTINUOUS
  0
LAYER
  2
55
 70
0
 62
7
  6
CONTINUOUS
  0
LAYER
  2
56
 70
0
 62
7
  6
CONTINUOUS
  0
LAYER
  2
57
 70
0
 62
7
  6
CONTINUOUS
  0
LAYER
  2
58
 70
0
 62
7
  6
CONTINUOUS
  0
LAYER
  2
59
 70
0
 62
7
  6
CONTINUOUS
  0
LAYER
  2
60
 70
0
 62
7
  6
CONTINUOUS
  0
LAYER
  2
61
 70
0
 62
7
  6
CONTINUOUS
  0
LAYER
  2
62
 70
0
 62
7
  6
CONTINUOUS
  0
LAYER
  2
63
 70
0
 62
7
  6
CONTINUOUS
  0
LAYER
  2
64
 70
0
 62
7
  6
CONTINUOUS
  0
LAYER
  2
65
 70
0
 62
7
  6
CONTINUOUS
  0
LAYER
  2
66
 70
0
 62
7
  6
CONTINUOUS
  0
LAYER
  2
67
 70
0
 62
7
  6
CONTINUOUS
  0
LAYER
  2
68
 70
0
 62
7
  6
CONTINUOUS
  0
LAYER
  2
69
 70
0
 62
7
  6
CONTINUOUS
  0
LAYER
  2
70
 70
0
 62
7
  6
CONTINUOUS
  0
LAYER
  2
71
 70
0
 62
7
  6
CONTINUOUS
  0
LAYER
  2
72
 70
0
 62
7
  6
CONTINUOUS
  0
LAYER
  2
73
 70
0
 62
7
  6
CONTINUOUS
  0
LAYER
  2
74
 70
0
 62
7
  6
CONTINUOUS
  0
LAYER
  2
75
 70
0
 62
7
  6
CONTINUOUS
  0
LAYER
  2
76
 70
0
 62
7
  6
CONTINUOUS
  0
LAYER
  2
77
 70
0
 62
7
  6
CONTINUOUS
  0
LAYER
  2
78
 70
0
 62
7
  6
CONTINUOUS
  0
LAYER
  2
79
 70
0
 62
7
  6
CONTINUOUS
  0
LAYER
  2
80
 70
0
 62
7
  6
CONTINUOUS
  0
LAYER
  2
81
 70
0
 62
7
  6
CONTINUOUS
  0
LAYER
  2
82
 70
0
 62
7
  6
CONTINUOUS
  0
LAYER
  2
83
 70
0
 62
7
  6
CONTINUOUS
  0
LAYER
  2
84
 70
0
 62
7
  6
CONTINUOUS
  0
LAYER
  2
85
 70
0
 62
7
  6
CONTINUOUS
  0
LAYER
  2
86
 70
0
 62
7
  6
CONTINUOUS
  0
LAYER
  2
87
 70
0
 62
7
  6
CONTINUOUS
  0
LAYER
  2
88
 70
0
 62
7
  6
CONTINUOUS
  0
LAYER
  2
89
 70
0
 62
7
  6
CONTINUOUS
  0
LAYER
  2
90
 70
0
 62
7
  6
CONTINUOUS
  0
LAYER
  2
91
 70
0
 62
7
  6
CONTINUOUS
  0
LAYER
  2
92
 70
0
 62
7
  6
CONTINUOUS
  0
LAYER
  2
93
 70
0
 62
7
  6
CONTINUOUS
  0
LAYER
  2
94
 70
0
 62
7
  6
CONTINUOUS
  0
LAYER
  2
95
 70
0
 62
7
  6
CONTINUOUS
  0
LAYER
  2
96
 70
0
 62
7
  6
CONTINUOUS
  0
LAYER
  2
97
 70
0
 62
7
  6
CONTINUOUS
  0
LAYER
  2
98
 70
0
 62
7
  6
CONTINUOUS
  0
LAYER
  2
99
 70
0
 62
7
  6
CONTINUOUS
  0
LAYER
  2
MED-0
 70
0
 62
230
  6
HIDDENNEW00
  0
LAYER
  2
101
 70
0
 62
7
  6
CONTINUOUS
  0
LAYER
  2
102
 70
0
 62
7
  6
CONTINUOUS
  0
LAYER
  2
103
 70
0
 62
7
  6
CONTINUOUS
  0
LAYER
  2
104
 70
0
 62
7
  6
CONTINUOUS
  0
LAYER
  2
105
 70
0
 62
7
  6
CONTINUOUS
  0
LAYER
  2
106
 70
0
 62
7
  6
CONTINUOUS
  0
LAYER
  2
107
 70
0
 62
7
  6
CONTINUOUS
  0
LAYER
  2
108
 70
0
 62
7
  6
CONTINUOUS
  0
LAYER
  2
109
 70
0
 62
7
  6
CONTINUOUS
  0
LAYER
  2
110
 70
0
 62
7
  6
CONTINUOUS
  0
LAYER
  2
111
 70
0
 62
7
  6
CONTINUOUS
  0
LAYER
  2
112
 70
0
 62
7
  6
CONTINUOUS
  0
LAYER
  2
113
 70
0
 62
7
  6
CONTINUOUS
  0
LAYER
  2
114
 70
0
 62
7
  6
CONTINUOUS
  0
LAYER
  2
115
 70
0
 62
7
  6
CONTINUOUS
  0
LAYER
  2
116
 70
0
 62
7
  6
CONTINUOUS
  0
LAYER
  2
117
 70
0
 62
7
  6
CONTINUOUS
  0
LAYER
  2
118
 70
0
 62
7
  6
CONTINUOUS
  0
LAYER
  2
119
 70
0
 62
7
  6
CONTINUOUS
  0
LAYER
  2
120
 70
0
 62
7
  6
CONTINUOUS
  0
LAYER
  2
121
 70
0
 62
7
  6
CONTINUOUS
  0
LAYER
  2
122
 70
0
 62
7
  6
CONTINUOUS
  0
LAYER
  2
123
 70
0
 62
7
  6
CONTINUOUS
  0
LAYER
  2
124
 70
0
 62
7
  6
CONTINUOUS
  0
LAYER
  2
125
 70
0
 62
7
  6
CONTINUOUS
  0
LAYER
  2
126
 70
0
 62
7
  6
CONTINUOUS
  0
LAYER
  2
127
 70
0
 62
7
  6
CONTINUOUS
  0
LAYER
  2
128
 70
0
 62
7
  6
CONTINUOUS
  0
LAYER
  2
129
 70
0
 62
7
  6
CONTINUOUS
  0
LAYER
  2
130
 70
0
 62
7
  6
CONTINUOUS
  0
LAYER
  2
131
 70
0
 62
7
  6
CONTINUOUS
  0
LAYER
  2
132
 70
0
 62
7
  6
CONTINUOUS
  0
LAYER
  2
133
 70
0
 62
7
  6
CONTINUOUS
  0
LAYER
  2
134
 70
0
 62
7
  6
CONTINUOUS
  0
LAYER
  2
135
 70
0
 62
7
  6
CONTINUOUS
  0
LAYER
  2
136
 70
0
 62
7
  6
CONTINUOUS
  0
LAYER
  2
137
 70
0
 62
7
  6
CONTINUOUS
  0
LAYER
  2
138
 70
0
 62
7
  6
CONTINUOUS
  0
LAYER
  2
139
 70
0
 62
7
  6
CONTINUOUS
  0
LAYER
  2
140
 70
0
 62
7
  6
CONTINUOUS
  0
LAYER
  2
141
 70
0
 62
7
  6
CONTINUOUS
  0
LAYER
  2
142
 70
0
 62
7
  6
CONTINUOUS
  0
LAYER
  2
143
 70
0
 62
7
  6
CONTINUOUS
  0
LAYER
  2
144
 70
0
 62
7
  6
CONTINUOUS
  0
LAYER
  2
145
 70
0
 62
7
  6
CONTINUOUS
  0
LAYER
  2
146
 70
0
 62
7
  6
CONTINUOUS
  0
LAYER
  2
147
 70
0
 62
7
  6
CONTINUOUS
  0
LAYER
  2
148
 70
0
 62
7
  6
CONTINUOUS
  0
LAYER
  2
149
 70
0
 62
7
  6
CONTINUOUS
  0
LAYER
  2
150
 70
0
 62
7
  6
CONTINUOUS
  0
LAYER
  2
151
 70
0
 62
7
  6
CONTINUOUS
  0
LAYER
  2
152
 70
0
 62
7
  6
CONTINUOUS
  0
LAYER
  2
153
 70
0
 62
7
  6
CONTINUOUS
  0
LAYER
  2
154
 70
0
 62
7
  6
CONTINUOUS
  0
LAYER
  2
155
 70
0
 62
7
  6
CONTINUOUS
  0
LAYER
  2
156
 70
0
 62
7
  6
CONTINUOUS
  0
LAYER
  2
157
 70
0
 62
7
  6
CONTINUOUS
  0
LAYER
  2
158
 70
0
 62
7
  6
CONTINUOUS
  0
LAYER
  2
159
 70
0
 62
7
  6
CONTINUOUS
  0
LAYER
  2
160
 70
0
 62
7
  6
CONTINUOUS
  0
LAYER
  2
161
 70
0
 62
7
  6
CONTINUOUS
  0
LAYER
  2
162
 70
0
 62
7
  6
CONTINUOUS
  0
LAYER
  2
163
 70
0
 62
7
  6
CONTINUOUS
  0
LAYER
  2
164
 70
0
 62
7
  6
CONTINUOUS
  0
LAYER
  2
165
 70
0
 62
7
  6
CONTINUOUS
  0
LAYER
  2
166
 70
0
 62
7
  6
CONTINUOUS
  0
LAYER
  2
167
 70
0
 62
7
  6
CONTINUOUS
  0
LAYER
  2
168
 70
0
 62
7
  6
CONTINUOUS
  0
LAYER
  2
169
 70
0
 62
7
  6
CONTINUOUS
  0
LAYER
  2
170
 70
0
 62
7
  6
CONTINUOUS
  0
LAYER
  2
171
 70
0
 62
7
  6
CONTINUOUS
  0
LAYER
  2
172
 70
0
 62
7
  6
CONTINUOUS
  0
LAYER
  2
173
 70
0
 62
7
  6
CONTINUOUS
  0
LAYER
  2
174
 70
0
 62
7
  6
CONTINUOUS
  0
LAYER
  2
175
 70
0
 62
7
  6
CONTINUOUS
  0
LAYER
  2
176
 70
0
 62
7
  6
CONTINUOUS
  0
LAYER
  2
177
 70
0
 62
7
  6
CONTINUOUS
  0
LAYER
  2
178
 70
0
 62
7
  6
CONTINUOUS
  0
LAYER
  2
179
 70
0
 62
7
  6
CONTINUOUS
  0
LAYER
  2
180
 70
0
 62
7
  6
CONTINUOUS
  0
LAYER
  2
181
 70
0
 62
7
  6
CONTINUOUS
  0
LAYER
  2
182
 70
0
 62
7
  6
CONTINUOUS
  0
LAYER
  2
183
 70
0
 62
7
  6
CONTINUOUS
  0
LAYER
  2
184
 70
0
 62
7
  6
CONTINUOUS
  0
LAYER
  2
185
 70
0
 62
7
  6
CONTINUOUS
  0
LAYER
  2
186
 70
0
 62
7
  6
CONTINUOUS
  0
LAYER
  2
187
 70
0
 62
7
  6
CONTINUOUS
  0
LAYER
  2
188
 70
0
 62
7
  6
CONTINUOUS
  0
LAYER
  2
189
 70
0
 62
7
  6
CONTINUOUS
  0
LAYER
  2
190
 70
0
 62
7
  6
CONTINUOUS
  0
LAYER
  2
191
 70
0
 62
7
  6
CONTINUOUS
  0
LAYER
  2
192
 70
0
 62
7
  6
CONTINUOUS
  0
LAYER
  2
193
 70
0
 62
7
  6
CONTINUOUS
  0
LAYER
  2
194
 70
0
 62
7
  6
CONTINUOUS
  0
LAYER
  2
195
 70
0
 62
7
  6
CONTINUOUS
  0
LAYER
  2
196
 70
0
 62
7
  6
CONTINUOUS
  0
LAYER
  2
197
 70
0
 62
7
  6
CONTINUOUS
  0
LAYER
  2
198
 70
0
 62
7
  6
CONTINUOUS
  0
LAYER
  2
199
 70
0
 62
7
  6
CONTINUOUS
  0
LAYER
  2
200
 70
0
 62
7
  6
CONTINUOUS
  0
LAYER
  2
201
 70
0
 62
7
  6
CONTINUOUS
  0
LAYER
  2
202
 70
0
 62
7
  6
CONTINUOUS
  0
LAYER
  2
203
 70
0
 62
7
  6
CONTINUOUS
  0
LAYER
  2
204
 70
0
 62
7
  6
CONTINUOUS
  0
LAYER
  2
Drafting_Hidden_Entities
 70
1
 62
7
  6
CONTINUOUS
  0
ENDTAB
  0
TABLE
  2
STYLE
 70
1
  0
STYLE
  2
STANDARD
 70
64
 40
0.0
 41
1.0
 50
0.0
 71
0
 42
1.0
  3
monotxt.shx
  4

  0
ENDTAB
  0
TABLE
  2
VIEW
 70
0
  0
ENDTAB
  0
TABLE
  2
DIMSTYLE
 70
0
  0
ENDTAB
  0
ENDSEC
  0
SECTION
  2
BLOCKS
  0
BLOCK
  2
1
 10
0.0
 20
0.0
 70
0
  0
LINE
  8
MED-1
  6
CONTINUOUS
 62
40
 10
0.0
 20
-7.5
 11
0.0
 21
0.0
  0
LINE
  8
104
  6
CONTINUOUS
 62
1
 10
0.0
 20
0.0
 11
1.2425E+001
 21
0.0
  0
LINE
  8
106
  6
CENTERLINE
 62
1
 10
-2.04999E+001
 20
7.551
 11
-2.04999E+001
 21
-1.0988E+001
  0
CIRCLE
  8
104
  6
CONTINUOUS
 62
40
 10
-2.04999E+001
 20
-3.75E+001
 40
6.0
  0
LINE
  8
104
  6
CONTINUOUS
 62
40
 10
-1.90565E+001
 20
-3.5E+001
 11
-2.19433E+001
 21
-3.5E+001
  0
LINE
  8
104
  6
CONTINUOUS
 62
40
 10
-2.19433E+001
 20
-3.5E+001
 11
-2.33867E+001
 21
-3.75E+001
  0
LINE
  8
104
  6
CONTINUOUS
 62
40
 10
-2.33867E+001
 20
-3.75E+001
 11
-2.19433E+001
 21
-4.0E+001
  0
LINE
  8
104
  6
CONTINUOUS
 62
40
 10
-2.19433E+001
 20
-4.0E+001
 11
-1.90565E+001
 21
-4.0E+001
  0
LINE
  8
104
  6
CONTINUOUS
 62
40
 10
-1.90565E+001
 20
-4.0E+001
 11
-1.76132E+001
 21
-3.75E+001
  0
LINE
  8
104
  6
CONTINUOUS
 62
40
 10
-1.76132E+001
 20
-3.75E+001
 11
-1.90565E+001
 21
-3.5E+001
  0
LINE
  8
106
  6
CENTERLINE
 62
1
 10
-2.92344E+001
 20
-3.75E+001
 11
-1.13139E+001
 21
-3.75E+001
  0
LINE
  8
106
  6
CENTERLINE
 62
1
 10
-2.04999E+001
 20
-4.6483E+001
 11
-2.04999E+001
 21
-2.8948E+001
  0
LINE
  8
106
  6
CENTERLINE
 62
1
 10
-1.684
 20
-6.0E+001
 11
-3.50339E+001
 21
-6.0E+001
  0
LINE
  8
106
  6
CENTERLINE
 62
1
 10
-1.684
 20
-1.5E+001
 11
-3.50339E+001
 21
-1.5E+001
  0
LINE
  8
104
  6
CONTINUOUS
 62
40
 10
-5.5592
 20
-6.75E+001
 11
-1.21037E+001
 21
-7.175E+001
  0
LINE
  8
104
  6
CONTINUOUS
 62
40
 10
-1.21037E+001
 20
-7.175E+001
 11
-2.88962E+001
 21
-7.175E+001
  0
LINE
  8
104
  6
CONTINUOUS
 62
40
 10
-2.88962E+001
 20
-7.175E+001
 11
-3.54406E+001
 21
-6.75E+001
  0
LINE
  8
104
  6
CONTINUOUS
 62
40
 10
-4.24999E+001
 20
-7.5
 11
-4.24999E+001
 21
-9.8
  0
LINE
  8
104
  6
CONTINUOUS
 62
40
 10
-4.24999E+001
 20
-9.8
 11
-4.23863E+001
 21
-9.8
  0
LINE
  8
104
  6
CONTINUOUS
 62
40
 10
-4.23863E+001
 20
-9.8
 11
-4.09999E+001
 21
-9.063
  0
LINE
  8
104
  6
CONTINUOUS
 62
40
 10
-4.09999E+001
 20
-9.063
 11
-4.09999E+001
 21
-6.5937E+001
  0
LINE
  8
104
  6
CONTINUOUS
 62
40
 10
-4.09999E+001
 20
-6.5937E+001
 11
-4.23862E+001
 21
-6.52E+001
  0
LINE
  8
104
  6
CONTINUOUS
 62
40
 10
-4.23862E+001
 20
-6.52E+001
 11
-4.24999E+001
 21
-6.52E+001
  0
LINE
  8
104
  6
CONTINUOUS
 62
40
 10
-4.24999E+001
 20
-6.52E+001
 11
-4.24999E+001
 21
-6.75E+001
  0
LINE
  8
104
  6
CONTINUOUS
 62
40
 10
-4.24999E+001
 20
-6.75E+001
 11
0.0
 21
-6.75E+001
  0
LINE
  8
104
  6
CONTINUOUS
 62
40
 10
0.0
 20
-6.75E+001
 11
0.0
 21
-7.5
  0
LINE
  8
104
  6
CONTINUOUS
 62
40
 10
0.0
 20
-7.5
 11
-4.24999E+001
 21
-7.5
  0
LINE
  8
104
  6
CONTINUOUS
 62
40
 10
-4.09999E+001
 20
-9.4
 11
-4.14999E+001
 21
-9.4
  0
LINE
  8
104
  6
CONTINUOUS
 62
40
 10
-4.14999E+001
 20
-9.4
 11
-4.14999E+001
 21
-6.56E+001
  0
LINE
  8
104
  6
CONTINUOUS
 62
40
 10
-4.14999E+001
 20
-6.56E+001
 11
-4.09999E+001
 21
-6.56E+001
  0
LINE
  8
104
  6
CONTINUOUS
 62
40
 10
-4.09999E+001
 20
-6.56E+001
 11
-4.09999E+001
 21
-9.4
  0
LINE
  8
MED-0
  6
CENTERLINE
 62
150
 10
7.0
 20
-1.75E+001
 11
0.0
 21
-1.75E+001
  0
LINE
  8
MED-0
  6
CENTERLINE
 62
150
 10
0.0
 20
-1.75E+001
 11
0.0
 21
-1.25E+001
  0
LINE
  8
MED-0
  6
CENTERLINE
 62
150
 10
0.0
 20
-1.25E+001
 11
7.0
 21
-1.25E+001
  0
LINE
  8
MED-0
  6
CENTERLINE
 62
150
 10
7.0
 20
-1.25E+001
 11
7.0
 21
-1.75E+001
  0
LINE
  8
99
  6
CONTINUOUS
 62
1
 10
0.0
 20
-1.675E+001
 11
7.0
 21
-1.675E+001
  0
LINE
  8
99
  6
CONTINUOUS
 62
1
 10
0.0
 20
-1.325E+001
 11
7.0
 21
-1.325E+001
  0
LINE
  8
106
  6
CENTERLINE
 62
1
 10
-1.684
 20
-1.5E+001
 11
9.851
 21
-1.5E+001
  0
LINE
  8
104
  6
CONTINUOUS
 62
40
 10
7.0
 20
-1.75E+001
 11
0.0
 21
-1.75E+001
  0
LINE
  8
104
  6
CONTINUOUS
 62
40
 10
0.0
 20
-1.75E+001
 11
0.0
 21
-1.25E+001
  0
LINE
  8
104
  6
CONTINUOUS
 62
40
 10
0.0
 20
-1.25E+001
 11
7.0
 21
-1.25E+001
  0
LINE
  8
104
  6
CONTINUOUS
 62
40
 10
7.0
 20
-1.25E+001
 11
7.0
 21
-1.75E+001
  0
LINE
  8
MED-0
  6
CENTERLINE
 62
150
 10
7.0
 20
-6.25E+001
 11
0.0
 21
-6.25E+001
  0
LINE
  8
MED-0
  6
CENTERLINE
 62
150
 10
0.0
 20
-6.25E+001
 11
0.0
 21
-5.75E+001
  0
LINE
  8
MED-0
  6
CENTERLINE
 62
150
 10
0.0
 20
-5.75E+001
 11
7.0
 21
-5.75E+001
  0
LINE
  8
MED-0
  6
CENTERLINE
 62
150
 10
7.0
 20
-5.75E+001
 11
7.0
 21
-6.25E+001
  0
LINE
  8
99
  6
CONTINUOUS
 62
1
 10
0.0
 20
-6.175E+001
 11
7.0
 21
-6.175E+001
  0
LINE
  8
99
  6
CONTINUOUS
 62
1
 10
0.0
 20
-5.825E+001
 11
7.0
 21
-5.825E+001
  0
LINE
  8
106
  6
CENTERLINE
 62
1
 10
-1.684
 20
-6.0E+001
 11
9.851
 21
-6.0E+001
  0
LINE
  8
104
  6
CONTINUOUS
 62
40
 10
7.0
 20
-6.25E+001
 11
0.0
 21
-6.25E+001
  0
LINE
  8
104
  6
CONTINUOUS
 62
40
 10
0.0
 20
-6.25E+001
 11
0.0
 21
-5.75E+001
  0
LINE
  8
104
  6
CONTINUOUS
 62
40
 10
0.0
 20
-5.75E+001
 11
7.0
 21
-5.75E+001
  0
LINE
  8
104
  6
CONTINUOUS
 62
40
 10
7.0
 20
-5.75E+001
 11
7.0
 21
-6.25E+001
  0
LINE
  8
MED-1
  6
CONTINUOUS
 62
40
 10
-2.2391884E+001
 20
7.0
 11
-9.4999042
 21
7.0
  0
LINE
  8
MED-1
  6
CONTINUOUS
 62
40
 10
-2.3787794E+001
 20
6.99998
 11
-2.2391884E+001
 21
7.0
  0
LINE
  8
MED-1
  6
CONTINUOUS
 62
40
 10
-5.7393861E+001
 20
6.9999855
 11
-2.3787794E+001
 21
6.99998
  0
LINE
  8
MED-1
  6
CONTINUOUS
 62
40
 10
-2.3787774E+001
 20
1.3E+001
 11
-2.3787794E+001
 21
6.99998
  0
LINE
  8
MED-1
  6
CONTINUOUS
 62
40
 10
-2.3787774E+001
 20
1.3E+001
 11
-5.7393859E+001
 21
1.3E+001
  0
LINE
  8
MED-1
  6
CONTINUOUS
 62
40
 10
-3.1499903E+001
 20
-7.5
 11
-3.1499914E+001
 21
6.99998
  0
LINE
  8
MED-1
  6
CONTINUOUS
 62
40
 10
-9.4999042
 20
1.3E+001
 11
-9.4999042
 21
-7.5
  0
LINE
  8
MED-1
  6
CONTINUOUS
 62
40
 10
-9.5073642
 20
1.3E+001
 11
-2.3787774E+001
 21
1.3E+001
  0
POLYLINE
  8
106
  6
CENTERLINE
 62
1
 66
1
 40
0.0
 41
0.0
 70
2
  0
VERTEX
  8
106
 42
0.0
 10
-5.7393859E+001
 20
1.3E+001
 70
0
  0
VERTEX
  8
106
 42
9.2324079E-003
 10
-5.7552973E+001
 20
1.2773192E+001
 70
1
  0
VERTEX
  8
106
 42
8.8411803E-003
 10
-5.7699722E+001
 20
1.2547298E+001
 70
0
  0
VERTEX
  8
106
 42
1.0296252E-002
 10
-5.783401E+001
 20
1.2322353E+001
 70
1
  0
VERTEX
  8
106
 42
1.4267972E-002
 10
-5.7953502E+001
 20
1.2098332E+001
 70
0
  0
VERTEX
  8
106
 42
1.8048001E-002
 10
-5.8054066E+001
 20
1.1875293E+001
 70
1
  0
VERTEX
  8
106
 42
2.2083838E-002
 10
-5.8133801E+001
 20
1.1653209E+001
 70
0
  0
VERTEX
  8
106
 42
2.6064686E-002
 10
-5.8189285E+001
 20
1.1432132E+001
 70
1
  0
VERTEX
  8
106
 42
3.0114061E-002
 10
-5.8219221E+001
 20
1.1212032E+001
 70
0
  0
VERTEX
  8
106
 42
3.4583056E-002
 10
-5.8219888E+001
 20
1.0992962E+001
 70
1
  0
VERTEX
  8
106
 42
3.9550655E-002
 10
-5.8188366E+001
 20
1.0774905E+001
 70
0
  0
VERTEX
  8
106
 42
3.6229736E-002
 10
-5.8120403E+001
 20
1.0557921E+001
 70
1
  0
VERTEX
  8
106
 42
2.6791222E-002
 10
-5.802206E+001
 20
1.0341924E+001
 70
0
  0
VERTEX
  8
106
 42
1.3968395E-002
 10
-5.7900637E+001
 20
1.0126909E+001
 70
1
  0
VERTEX
  8
106
 42
-4.2625463E-003
 10
-5.7774372E+001
 20
9.9128236
 70
0
  0
VERTEX
  8
106
 42
-2.2308062E-002
 10
-5.7663388E+001
 20
9.6996291
 70
1
  0
VERTEX
  8
106
 42
-4.8714177E-002
 10
-5.7587532E+001
 20
9.4869071
 70
0
  0
VERTEX
  8
106
 42
-6.8097367E-002
 10
-5.7567103E+001
 20
9.274495
 70
1
  0
VERTEX
  8
106
 42
-7.2067293E-002
 10
-5.7606241E+001
 20
9.0634664
 70
0
  0
VERTEX
  8
106
 42
-4.4895101E-002
 10
-5.7704572E+001
 20
8.8542473
 70
1
  0
VERTEX
  8
106
 42
-5.698894E-004
 10
-5.7827267E+001
 20
8.6425173
 70
0
  0
VERTEX
  8
106
 42
1.6372564E-002
 10
-5.7939477E+001
 20
8.4269477
 70
1
  0
VERTEX
  8
106
 42
1.8487067E-002
 10
-5.8027971E+001
 20
8.2251494
 70
0
  0
VERTEX
  8
106
 42
8.9583672E-002
 10
-5.8072235E+001
 20
8.0433145
 70
1
  0
VERTEX
  8
106
 42
1.243969E-001
 10
-5.80112E+001
 20
7.8123275
 70
0
  0
VERTEX
  8
106
 42
4.4765343E-002
 10
-5.7780095E+001
 20
7.4597643
 70
1
  0
VERTEX
  8
106
 42
2.1079969E-002
 10
-5.7393861E+001
 20
6.9999855
 70
0
  0
SEQEND
  0
LINE
  8
104
  6
CONTINUOUS
 62
40
 10
-1.684
 20
2.3E+001
 11
9.851
 21
2.3E+001
  0
LINE
  8
MED-1
  6
CONTINUOUS
 62
40
 10
-2.0
 20
3.1E+001
 11
-5.23621
 21
3.1E+001
  0
LINE
  8
MED-1
  6
CONTINUOUS
 62
40
 10
-5.23621
 20
3.1E+001
 11
-6.44927
 21
3.1E+001
  0
LINE
  8
MED-1
  6
CONTINUOUS
 62
40
 10
-6.44927
 20
3.1E+001
 11
-1.806535E+001
 21
3.1E+001
  0
LINE
  8
MED-1
  6
CONTINUOUS
 62
40
 10
-1.806535E+001
 20
3.1E+001
 11
-1.95E+001
 21
3.1E+001
  0
LINE
  8
MED-1
  6
CONTINUOUS
 62
40
 10
-1.95E+001
 20
1.5E+001
 11
-1.806535E+001
 21
1.5E+001
  0
LINE
  8
MED-1
  6
CONTINUOUS
 62
40
 10
-1.806535E+001
 20
1.5E+001
 11
-6.44927
 21
1.5E+001
  0
LINE
  8
MED-1
  6
CONTINUOUS
 62
40
 10
-6.44927
 20
1.5E+001
 11
-5.23621
 21
1.5E+001
  0
LINE
  8
MED-1
  6
CONTINUOUS
 62
40
 10
-2.0
 20
1.5E+001
 11
-5.23621
 21
1.5E+001
  0
LINE
  8
MED-1
  6
CONTINUOUS
 62
40
 10
-5.23621
 20
1.7E+001
 11
-2.0
 21
1.7E+001
  0
LINE
  8
MED-1
  6
CONTINUOUS
 62
40
 10
-5.23621
 20
1.7E+001
 11
-6.44927
 21
1.7E+001
  0
LINE
  8
MED-1
  6
CONTINUOUS
 62
40
 10
-6.44927
 20
1.7E+001
 11
-1.806535E+001
 21
1.7E+001
  0
LINE
  8
MED-1
  6
CONTINUOUS
 62
40
 10
-1.806535E+001
 20
1.7E+001
 11
-1.95E+001
 21
1.7E+001
  0
LINE
  8
MED-1
  6
CONTINUOUS
 62
40
 10
-1.95E+001
 20
2.9E+001
 11
-1.806535E+001
 21
2.9E+001
  0
LINE
  8
MED-1
  6
CONTINUOUS
 62
40
 10
-1.806535E+001
 20
2.9E+001
 11
-6.44927
 21
2.9E+001
  0
LINE
  8
MED-1
  6
CONTINUOUS
 62
40
 10
-6.44927
 20
2.9E+001
 11
-5.23621
 21
2.9E+001
  0
LINE
  8
MED-1
  6
CONTINUOUS
 62
40
 10
-2.0
 20
2.9E+001
 11
-5.23621
 21
2.9E+001
  0
ARC
  8
MED-1
  6
CONTINUOUS
 62
40
 10
-2.0
 20
2.9E+001
 40
2.0000001
 50
0.0
 51
9.0E+001
  0
ARC
  8
MED-1
  6
CONTINUOUS
 62
40
 10
-2.0
 20
1.7E+001
 40
1.9999999
 50
2.7E+002
 51
3.6E+002
  0
LINE
  8
MED-1
  6
CONTINUOUS
 62
40
 10
-2.0
 20
1.7E+001
 11
-2.0
 21
2.9E+001
  0
LINE
  8
MED-1
  6
CONTINUOUS
 62
40
 10
0.0
 20
2.9E+001
 11
0.0
 21
1.7E+001
  0
LINE
  8
MED-1
  6
CONTINUOUS
 62
40
 10
-1.95E+001
 20
2.9E+001
 11
-1.95E+001
 21
3.1E+001
  0
LINE
  8
MED-1
  6
CONTINUOUS
 62
40
 10
-1.95E+001
 20
1.5E+001
 11
-1.95E+001
 21
1.7E+001
  0
CIRCLE
  8
MED-1
  6
CONTINUOUS
 62
40
 10
-2.9E+001
 20
2.3E+001
 40
3.5
  0
ARC
  8
MED-1
  6
CONTINUOUS
 62
40
 10
-1.2E+001
 20
2.641667E+001
 40
6.0833332
 50
4.888791E+001
 51
9.0E+001
  0
ARC
  8
MED-1
  6
CONTINUOUS
 62
40
 10
-1.2E+001
 20
2.641667E+001
 40
6.0833333
 50
9.0E+001
 51
1.3111209E+002
  0
LINE
  8
MED-1
  6
CONTINUOUS
 62
40
 10
-7.0
 20
1.725E+001
 11
-1.7E+001
 21
1.725E+001
  0
LINE
  8
MED-1
  6
CONTINUOUS
 62
40
 10
-1.7E+001
 20
2.875E+001
 11
-7.0
 21
2.875E+001
  0
LINE
  8
MED-1
  6
CONTINUOUS
 62
40
 10
-7.0
 20
2.875E+001
 11
-6.99999
 21
2.850001E+001
  0
LINE
  8
MED-1
  6
CONTINUOUS
 62
40
 10
-6.99999
 20
1.749998E+001
 11
-7.0
 21
1.725E+001
  0
LINE
  8
MED-1
  6
CONTINUOUS
 62
40
 10
-1.7E+001
 20
1.725E+001
 11
-1.699999E+001
 21
1.749998E+001
  0
LINE
  8
MED-1
  6
CONTINUOUS
 62
40
 10
-1.699999E+001
 20
2.850001E+001
 11
-1.7E+001
 21
2.875E+001
  0
ARC
  8
MED-1
  6
CONTINUOUS
 62
40
 10
-2.9E+001
 20
2.3E+001
 40
5.5
 50
9.0E+001
 51
1.8E+002
  0
ARC
  8
MED-1
  6
CONTINUOUS
 62
40
 10
-2.9E+001
 20
2.3E+001
 40
5.5
 50
1.8E+002
 51
2.7E+002
  0
LINE
  8
MED-1
  6
CONTINUOUS
 62
40
 10
-1.720481E+001
 20
2.85E+001
 11
-4.5
 21
2.85E+001
  0
LINE
  8
MED-1
  6
CONTINUOUS
 62
40
 10
-1.720481E+001
 20
2.85E+001
 11
-1.893975E+001
 21
2.85E+001
  0
LINE
  8
MED-1
  6
CONTINUOUS
 62
40
 10
-1.893975E+001
 20
2.85E+001
 11
-2.9E+001
 21
2.85E+001
  0
LINE
  8
MED-1
  6
CONTINUOUS
 62
40
 10
-2.9E+001
 20
1.75E+001
 11
-1.893975E+001
 21
1.75E+001
  0
LINE
  8
MED-1
  6
CONTINUOUS
 62
40
 10
-1.893975E+001
 20
1.75E+001
 11
-1.720481E+001
 21
1.75E+001
  0
LINE
  8
MED-1
  6
CONTINUOUS
 62
40
 10
-4.5
 20
1.75E+001
 11
-1.720481E+001
 21
1.75E+001
  0
LINE
  8
MED-1
  6
CONTINUOUS
 62
40
 10
-1.720481E+001
 20
1.75E+001
 11
-1.720481E+001
 21
2.85E+001
  0
LINE
  8
MED-1
  6
CONTINUOUS
 62
40
 10
-4.5
 20
2.85E+001
 11
-4.49999
 21
2.725001E+001
  0
LINE
  8
MED-1
  6
CONTINUOUS
 62
40
 10
-4.5
 20
1.875E+001
 11
-4.5
 21
1.75E+001
  0
LINE
  8
MED-1
  6
CONTINUOUS
 62
40
 10
-3.95E+001
 20
2.022236E+001
 11
-3.949975E+001
 21
1.946704E+001
  0
LINE
  8
MED-1
  6
CONTINUOUS
 62
40
 10
-3.95E+001
 20
2.022236E+001
 11
-3.95E+001
 21
2.023821E+001
  0
LINE
  8
MED-1
  6
CONTINUOUS
 62
40
 10
-3.95E+001
 20
2.57618E+001
 11
-3.95E+001
 21
2.023821E+001
  0
LINE
  8
MED-1
  6
CONTINUOUS
 62
40
 10
-3.95E+001
 20
2.650026E+001
 11
-3.95E+001
 21
2.582649E+001
  0
LINE
  8
MED-1
  6
CONTINUOUS
 62
40
 10
-3.95E+001
 20
2.57618E+001
 11
-3.95E+001
 21
2.582649E+001
  0
LINE
  8
MED-1
  6
CONTINUOUS
 62
40
 10
-3.95E+001
 20
2.66753E+001
 11
-3.95E+001
 21
2.650026E+001
  0
LINE
  8
MED-1
  6
CONTINUOUS
 62
40
 10
-3.630001E+001
 20
1.824997E+001
 11
-3.630001E+001
 21
1.898822E+001
  0
LINE
  8
MED-1
  6
CONTINUOUS
 62
40
 10
-3.177264E+001
 20
1.825E+001
 11
-3.205563E+001
 21
1.825E+001
  0
LINE
  8
MED-1
  6
CONTINUOUS
 62
40
 10
-3.205563E+001
 20
1.825E+001
 11
-3.233856E+001
 21
1.825E+001
  0
LINE
  8
MED-1
  6
CONTINUOUS
 62
40
 10
-3.233856E+001
 20
1.825E+001
 11
-3.262138E+001
 21
1.825E+001
  0
LINE
  8
MED-1
  6
CONTINUOUS
 62
40
 10
-3.262138E+001
 20
1.825E+001
 11
-3.290448E+001
 21
1.825E+001
  0
LINE
  8
MED-1
  6
CONTINUOUS
 62
40
 10
-3.290448E+001
 20
1.825E+001
 11
-3.318801E+001
 21
1.825E+001
  0
LINE
  8
MED-1
  6
CONTINUOUS
 62
40
 10
-3.318801E+001
 20
1.825E+001
 11
-3.34704E+001
 21
1.825E+001
  0
LINE
  8
MED-1
  6
CONTINUOUS
 62
40
 10
-3.34704E+001
 20
1.825E+001
 11
-3.37511E+001
 21
1.825E+001
  0
LINE
  8
MED-1
  6
CONTINUOUS
 62
40
 10
-3.37511E+001
 20
1.825E+001
 11
-3.403632E+001
 21
1.825E+001
  0
LINE
  8
MED-1
  6
CONTINUOUS
 62
40
 10
-3.403632E+001
 20
1.825E+001
 11
-3.432821E+001
 21
1.825E+001
  0
LINE
  8
MED-1
  6
CONTINUOUS
 62
40
 10
-3.432821E+001
 20
1.825E+001
 11
-3.460224E+001
 21
1.824999E+001
  0
LINE
  8
MED-1
  6
CONTINUOUS
 62
40
 10
-3.460224E+001
 20
1.824999E+001
 11
-3.484999E+001
 21
1.824999E+001
  0
LINE
  8
MED-1
  6
CONTINUOUS
 62
40
 10
-3.484999E+001
 20
1.824999E+001
 11
-3.516817E+001
 21
1.824999E+001
  0
LINE
  8
MED-1
  6
CONTINUOUS
 62
40
 10
-3.516817E+001
 20
1.824999E+001
 11
-3.565823E+001
 21
1.824998E+001
  0
LINE
  8
MED-1
  6
CONTINUOUS
 62
40
 10
-3.565823E+001
 20
1.824998E+001
 11
-3.630001E+001
 21
1.824997E+001
  0
LINE
  8
MED-1
  6
CONTINUOUS
 62
40
 10
-3.276239E+001
 20
1.898821E+001
 11
-3.630001E+001
 21
1.898822E+001
  0
LINE
  8
MED-1
  6
CONTINUOUS
 62
40
 10
-3.937653E+001
 20
1.938092E+001
 11
-3.93726E+001
 21
1.938556E+001
  0
ARC
  8
MED-1
  6
CONTINUOUS
 62
40
 10
-2.8385165E+001
 20
1.0051235E+001
 40
1.441712E+001
 50
1.3958391E+002
 51
1.3965059E+002
  0
LINE
  8
MED-1
  6
CONTINUOUS
 62
40
 10
-3.936173E+001
 20
1.939834E+001
 11
-3.934383E+001
 21
1.94194E+001
  0
LINE
  8
MED-1
  6
CONTINUOUS
 62
40
 10
-3.934383E+001
 20
1.94194E+001
 11
-3.931791E+001
 21
1.94499E+001
  0
LINE
  8
MED-1
  6
CONTINUOUS
 62
40
 10
-3.931791E+001
 20
1.94499E+001
 11
-3.92834E+001
 21
1.949049E+001
  0
LINE
  8
MED-1
  6
CONTINUOUS
 62
40
 10
-3.92834E+001
 20
1.949049E+001
 11
-3.924672E+001
 21
1.953364E+001
  0
LINE
  8
MED-1
  6
CONTINUOUS
 62
40
 10
-3.924672E+001
 20
1.953364E+001
 11
-3.920995E+001
 21
1.95769E+001
  0
LINE
  8
MED-1
  6
CONTINUOUS
 62
40
 10
-3.920995E+001
 20
1.95769E+001
 11
-3.915079E+001
 21
1.96465E+001
  0
LINE
  8
MED-1
  6
CONTINUOUS
 62
40
 10
-3.915079E+001
 20
1.96465E+001
 11
-3.904528E+001
 21
1.977062E+001
  0
LINE
  8
MED-1
  6
CONTINUOUS
 62
40
 10
-3.904528E+001
 20
1.977062E+001
 11
-3.889837E+001
 21
1.994343E+001
  0
LINE
  8
MED-1
  6
CONTINUOUS
 62
40
 10
-3.630001E+001
 20
1.824997E+001
 11
-3.647295E+001
 21
1.825306E+001
  0
ARC
  8
MED-1
  6
CONTINUOUS
 62
40
 10
-3.6297491E+001
 20
2.3292887E+001
 40
5.0428806
 50
2.6606087E+002
 51
2.6800608E+002
  0
ARC
  8
MED-1
  6
CONTINUOUS
 62
40
 10
-3.6301575E+001
 20
2.3120683E+001
 40
4.8708089
 50
2.6397496E+002
 51
2.6596964E+002
  0
ARC
  8
MED-1
  6
CONTINUOUS
 62
40
 10
-3.6313787E+001
 20
2.3013242E+001
 40
4.7626796
 50
2.6196142E+002
 51
2.639854E+002
  0
ARC
  8
MED-1
  6
CONTINUOUS
 62
40
 10
-3.6314903E+001
 20
2.2975249E+001
 40
4.7249057
 50
2.5988441E+002
 51
2.6191039E+002
  0
ARC
  8
MED-1
  6
CONTINUOUS
 62
40
 10
-3.6322487E+001
 20
2.2951077E+001
 40
4.6997785
 50
2.5789897E+002
 51
2.5992367E+002
  0
ARC
  8
MED-1
  6
CONTINUOUS
 62
40
 10
-3.6317237E+001
 20
2.2954942E+001
 40
4.7046604
 50
2.5583385E+002
 51
2.5784633E+002
  0
ARC
  8
MED-1
  6
CONTINUOUS
 62
40
 10
-3.6329182E+001
 20
2.2911913E+001
 40
4.6600159
 50
2.5381979E+002
 51
2.5584678E+002
  0
ARC
  8
MED-1
  6
CONTINUOUS
 62
40
 10
-3.6344775E+001
 20
2.2843603E+001
 40
4.5900692
 50
2.5171292E+002
 51
2.5376911E+002
  0
ARC
  8
MED-1
  6
CONTINUOUS
 62
40
 10
-3.6311492E+001
 20
2.2983475E+001
 40
4.7333367
 50
2.4987768E+002
 51
2.5186164E+002
  0
ARC
  8
MED-1
  6
CONTINUOUS
 62
40
 10
-3.6181201E+001
 20
2.33347E+001
 40
5.1079465
 50
2.480334E+002
 51
2.4986077E+002
  0
ARC
  8
MED-1
  6
CONTINUOUS
 62
40
 10
-3.6315887E+001
 20
2.2934926E+001
 40
4.6868783
 50
2.4570623E+002
 51
2.4773225E+002
  0
ARC
  8
MED-1
  6
CONTINUOUS
 62
40
 10
-3.6606349E+001
 20
2.2273988E+001
 40
3.9649732
 50
2.4314489E+002
 51
2.456025E+002
  0
ARC
  8
MED-1
  6
CONTINUOUS
 62
40
 10
-3.624115E+001
 20
2.3179089E+001
 40
4.9381325
 50
2.4225205E+002
 51
2.4410858E+002
  0
ARC
  8
MED-1
  6
CONTINUOUS
 62
40
 10
-3.2065266E+001
 20
3.1177506E+001
 40
1.3961015E+001
 50
2.4177296E+002
 51
2.4236799E+002
  0
ARC
  8
MED-1
  6
CONTINUOUS
 62
40
 10
-3.660438E+001
 20
2.2346754E+001
 40
4.0374599
 50
2.3658323E+002
 51
2.392557E+002
  0
ARC
  8
MED-1
  6
CONTINUOUS
 62
40
 10
-3.6823677E+001
 20
2.2038926E+001
 40
3.6597724
 50
2.3219282E+002
 51
2.3679483E+002
  0
ARC
  8
MED-1
  6
CONTINUOUS
 62
40
 10
-3.3133903E+001
 20
2.7330744E+001
 40
1.0107922E+001
 50
2.3185911E+002
 51
2.3405639E+002
  0
LINE
  8
MED-1
  6
CONTINUOUS
 62
40
 10
-3.630001E+001
 20
1.898822E+001
 11
-3.644607E+001
 21
1.899082E+001
  0
ARC
  8
MED-1
  6
CONTINUOUS
 62
40
 10
-3.6298338E+001
 20
2.3245989E+001
 40
4.2577323
 50
2.6606572E+002
 51
2.6801159E+002
  0
ARC
  8
MED-1
  6
CONTINUOUS
 62
40
 10
-3.6301475E+001
 20
2.3100503E+001
 40
4.1123802
 50
2.6397486E+002
 51
2.6597025E+002
  0
ARC
  8
MED-1
  6
CONTINUOUS
 62
40
 10
-3.631214E+001
 20
2.3009815E+001
 40
4.0210735
 50
2.6196568E+002
 51
2.6399035E+002
  0
ARC
  8
MED-1
  6
CONTINUOUS
 62
40
 10
-3.6312831E+001
 20
2.2977899E+001
 40
3.9893757
 50
2.598849E+002
 51
2.6191145E+002
  0
ARC
  8
MED-1
  6
CONTINUOUS
 62
40
 10
-3.6319063E+001
 20
2.2957974E+001
 40
3.9686668
 50
2.5789778E+002
 51
2.5992295E+002
  0
ARC
  8
MED-1
  6
CONTINUOUS
 62
40
 10
-3.6314832E+001
 20
2.2961074E+001
 40
3.9725872
 50
2.5583462E+002
 51
2.5784749E+002
  0
ARC
  8
MED-1
  6
CONTINUOUS
 62
40
 10
-3.6324723E+001
 20
2.2924947E+001
 40
3.9351377
 50
2.5381821E+002
 51
2.5584552E+002
  0
ARC
  8
MED-1
  6
CONTINUOUS
 62
40
 10
-3.6338085E+001
 20
2.2867673E+001
 40
3.8764107
 50
2.5171554E+002
 51
2.5377197E+002
  0
ARC
  8
MED-1
  6
CONTINUOUS
 62
40
 10
-3.6309584E+001
 20
2.2985627E+001
 40
3.9973634
 50
2.49874E+002
 51
2.5185808E+002
  0
ARC
  8
MED-1
  6
CONTINUOUS
 62
40
 10
-3.6199823E+001
 20
2.3282935E+001
 40
4.3142848
 50
2.4803655E+002
 51
2.4986391E+002
  0
ARC
  8
MED-1
  6
CONTINUOUS
 62
40
 10
-3.6313506E+001
 20
2.294483E+001
 40
3.958255
 50
2.4570611E+002
 51
2.4773223E+002
  0
ARC
  8
MED-1
  6
CONTINUOUS
 62
40
 10
-3.6558987E+001
 20
2.2386264E+001
 40
3.3481617
 50
2.4314436E+002
 51
2.456024E+002
  0
ARC
  8
MED-1
  6
CONTINUOUS
 62
40
 10
-3.6250662E+001
 20
2.3150308E+001
 40
4.1696748
 50
2.4225052E+002
 51
2.4410739E+002
  0
ARC
  8
MED-1
  6
CONTINUOUS
 62
40
 10
-3.2721591E+001
 20
2.9910087E+001
 40
1.1795207E+001
 50
2.4177318E+002
 51
2.4236806E+002
  0
ARC
  8
MED-1
  6
CONTINUOUS
 62
40
 10
-3.6557684E+001
 20
2.244713E+001
 40
3.4086908
 50
2.3658113E+002
 51
2.3925458E+002
  0
ARC
  8
MED-1
  6
CONTINUOUS
 62
40
 10
-3.6742858E+001
 20
2.2186921E+001
 40
3.0895375
 50
2.3218539E+002
 51
2.367897E+002
  0
ARC
  8
MED-1
  6
CONTINUOUS
 62
40
 10
-3.3627746E+001
 20
2.6653901E+001
 40
8.532872
 50
2.3185275E+002
 51
2.3405113E+002
  0
LINE
  8
MED-1
  6
CONTINUOUS
 62
40
 10
-3.937653E+001
 20
1.938092E+001
 11
-3.938783E+001
 21
1.939044E+001
  0
ARC
  8
MED-1
  6
CONTINUOUS
 62
40
 10
-4.0371214E+001
 20
1.8211041E+001
 40
1.5355867
 50
5.0178631E+001
 51
5.0696498E+001
  0
ARC
  8
MED-1
  6
CONTINUOUS
 62
40
 10
-4.0188881E+001
 20
1.8429918E+001
 40
1.2507263
 50
5.0808572E+001
 51
5.140246E+001
  0
ARC
  8
MED-1
  6
CONTINUOUS
 62
40
 10
-4.0052596E+001
 20
1.8598946E+001
 40
1.0336027
 50
5.1461535E+001
 51
5.2133791E+001
  0
ARC
  8
MED-1
  6
CONTINUOUS
 62
40
 10
-3.9963443E+001
 20
1.8712737E+001
 40
8.8904782E-001
 50
5.2168206E+001
 51
5.2898169E+001
  0
ARC
  8
MED-1
  6
CONTINUOUS
 62
40
 10
-3.9895248E+001
 20
1.8801573E+001
 40
7.7705764E-001
 50
5.2957234E+001
 51
5.3736617E+001
  0
ARC
  8
MED-1
  6
CONTINUOUS
 62
40
 10
-3.9849207E+001
 20
1.8862258E+001
 40
7.008952E-001
 50
5.3837084E+001
 51
5.4639992E+001
  0
ARC
  8
MED-1
  6
CONTINUOUS
 62
40
 10
-3.9769768E+001
 20
1.8972148E+001
 40
5.6530546E-001
 50
5.4760529E+001
 51
5.5700719E+001
  0
ARC
  8
MED-1
  6
CONTINUOUS
 62
40
 10
-3.9693815E+001
 20
1.9081203E+001
 40
4.3241601E-001
 50
5.5871809E+001
 51
5.7037154E+001
  0
ARC
  8
MED-1
  6
CONTINUOUS
 62
40
 10
-3.9700372E+001
 20
1.9075801E+001
 40
4.405232E-001
 50
5.6703906E+001
 51
5.7729603E+001
  0
ARC
  8
MED-1
  6
CONTINUOUS
 62
40
 10
-3.9863959E+001
 20
1.8817963E+001
 40
7.4587689E-001
 50
5.7679239E+001
 51
5.8203133E+001
  0
ARC
  8
MED-1
  6
CONTINUOUS
 62
40
 10
-3.9628724E+001
 20
1.9184377E+001
 40
3.1058211E-001
 50
5.9469723E+001
 51
6.0913372E+001
  0
ARC
  8
MED-1
  6
CONTINUOUS
 62
40
 10
-3.959502E+001
 20
1.924387E+001
 40
2.4220825E-001
 50
6.1039162E+001
 51
6.3638087E+001
  0
ARC
  8
MED-1
  6
CONTINUOUS
 62
40
 10
-3.9728574E+001
 20
1.8994802E+001
 40
5.2475653E-001
 50
6.2647841E+001
 51
6.4147429E+001
  0
LINE
  8
MED-1
  6
CONTINUOUS
 62
40
 10
-3.889837E+001
 20
1.994343E+001
 11
-3.892528E+001
 21
1.996566E+001
  0
ARC
  8
MED-1
  6
CONTINUOUS
 62
40
 10
-3.9750718E+001
 20
1.8939806E+001
 40
1.3167097
 50
5.1178618E+001
 51
5.2685371E+001
  0
ARC
  8
MED-1
  6
CONTINUOUS
 62
40
 10
-3.9727716E+001
 20
1.89674E+001
 40
1.2808214
 50
5.2755471E+001
 51
5.4292063E+001
  0
ARC
  8
MED-1
  6
CONTINUOUS
 62
40
 10
-3.971418E+001
 20
1.8987058E+001
 40
1.2569586
 50
5.4270085E+001
 51
5.5825653E+001
  0
ARC
  8
MED-1
  6
CONTINUOUS
 62
40
 10
-3.9707109E+001
 20
1.8995486E+001
 40
1.2460141
 50
5.5876972E+001
 51
5.7436414E+001
  0
ARC
  8
MED-1
  6
CONTINUOUS
 62
40
 10
-3.970309E+001
 20
1.9002815E+001
 40
1.2376739
 50
5.7410602E+001
 51
5.897135E+001
  0
ARC
  8
MED-1
  6
CONTINUOUS
 62
40
 10
-3.9701541E+001
 20
1.9003706E+001
 40
1.236113
 50
5.9011565E+001
 51
6.0566537E+001
  0
ARC
  8
MED-1
  6
CONTINUOUS
 62
40
 10
-3.9693561E+001
 20
1.9017575E+001
 40
1.2201121
 50
6.0572852E+001
 51
6.214333E+001
  0
ARC
  8
MED-1
  6
CONTINUOUS
 62
40
 10
-3.9681578E+001
 20
1.9038497E+001
 40
1.1960163
 50
6.2182556E+001
 51
6.3781316E+001
  0
ARC
  8
MED-1
  6
CONTINUOUS
 62
40
 10
-3.9695982E+001
 20
1.901456E+001
 40
1.2238562
 50
6.3671434E+001
 51
6.5223549E+001
  0
ARC
  8
MED-1
  6
CONTINUOUS
 62
40
 10
-3.9729645E+001
 20
1.8940485E+001
 40
1.30522
 50
6.5244604E+001
 51
6.6688969E+001
  0
ARC
  8
MED-1
  6
CONTINUOUS
 62
40
 10
-3.9686622E+001
 20
1.902948E+001
 40
1.2064724
 50
6.6892865E+001
 51
6.8477617E+001
  0
ARC
  8
MED-1
  6
CONTINUOUS
 62
40
 10
-3.9625285E+001
 20
1.9182182E+001
 40
1.0419151
 50
6.8534757E+001
 51
7.0412085E+001
  0
ARC
  8
MED-1
  6
CONTINUOUS
 62
40
 10
-3.9726645E+001
 20
1.8947074E+001
 40
1.297506
 50
6.9675794E+001
 51
7.1091114E+001
  0
ARC
  8
MED-1
  6
CONTINUOUS
 62
40
 10
-4.047828E+001
 20
1.6767453E+001
 40
3.6030852
 50
7.1015803E+001
 51
7.1476784E+001
  0
ARC
  8
MED-1
  6
CONTINUOUS
 62
40
 10
-3.9637501E+001
 20
1.916672E+001
 40
1.0615833
 50
7.3366259E+001
 51
7.5380008E+001
  0
ARC
  8
MED-1
  6
CONTINUOUS
 62
40
 10
-3.9609144E+001
 20
1.928343E+001
 40
9.4149625E-001
 50
7.5257102E+001
 51
7.8770034E+001
  0
ARC
  8
MED-1
  6
CONTINUOUS
 62
40
 10
-3.9982033E+001
 20
1.7725251E+001
 40
2.5432237
 50
7.7366389E+001
 51
7.9073593E+001
  0
LINE
  8
MED-1
  6
CONTINUOUS
 62
40
 10
-3.949997E+001
 20
1.949997E+001
 11
-5.8325081E+001
 21
1.949997E+001
  0
LINE
  8
MED-1
  6
CONTINUOUS
 62
40
 10
-5.9171194E+001
 20
2.6499957E+001
 11
-3.95E+001
 21
2.650026E+001
  0
LINE
  8
MED-1
  6
CONTINUOUS
 62
40
 10
-3.949997E+001
 20
2.582647E+001
 11
-3.948022E+001
 21
2.583333E+001
  0
ARC
  8
MED-1
  6
CONTINUOUS
 62
40
 10
-3.9903388E+001
 20
2.7019663E+001
 40
1.2595459
 50
2.8963145E+002
 51
2.9058286E+002
  0
ARC
  8
MED-1
  6
CONTINUOUS
 62
40
 10
-3.9909348E+001
 20
2.7033549E+001
 40
1.2746414
 50
2.9061423E+002
 51
2.9155512E+002
  0
ARC
  8
MED-1
  6
CONTINUOUS
 62
40
 10
-3.9905194E+001
 20
2.7024235E+001
 40
1.2644526
 50
2.9153509E+002
 51
2.9248424E+002
  0
ARC
  8
MED-1
  6
CONTINUOUS
 62
40
 10
-3.9891854E+001
 20
2.698946E+001
 40
1.22722
 50
2.9252969E+002
 51
2.9350872E+002
  0
ARC
  8
MED-1
  6
CONTINUOUS
 62
40
 10
-3.9887867E+001
 20
2.6980377E+001
 40
1.2173006
 50
2.9350717E+002
 51
2.9449539E+002
  0
ARC
  8
MED-1
  6
CONTINUOUS
 62
40
 10
-3.9892536E+001
 20
2.698969E+001
 40
1.2277111
 50
2.9451348E+002
 51
2.9549395E+002
  0
ARC
  8
MED-1
  6
CONTINUOUS
 62
40
 10
-3.9889207E+001
 20
2.6981887E+001
 40
1.2192352
 50
2.9551056E+002
 51
2.965009E+002
  0
ARC
  8
MED-1
  6
CONTINUOUS
 62
40
 10
-3.9877647E+001
 20
2.6957932E+001
 40
1.1926387
 50
2.9651741E+002
 51
2.9753347E+002
  0
ARC
  8
MED-1
  6
CONTINUOUS
 62
40
 10
-3.9890838E+001
 20
2.6986329E+001
 40
1.223919
 50
2.9746652E+002
 51
2.9845499E+002
  0
ARC
  8
MED-1
  6
CONTINUOUS
 62
40
 10
-3.9930594E+001
 20
2.7058514E+001
 40
1.3063256
 50
2.984795E+002
 51
2.9940221E+002
  0
ARC
  8
MED-1
  6
CONTINUOUS
 62
40
 10
-3.9881987E+001
 20
2.6966142E+001
 40
1.2019925
 50
2.9954533E+002
 51
3.005675E+002
  0
ARC
  8
MED-1
  6
CONTINUOUS
 62
40
 10
-3.9795855E+001
 20
2.6818792E+001
 40
1.0313174
 50
3.0061046E+002
 51
3.0183443E+002
  0
ARC
  8
MED-1
  6
CONTINUOUS
 62
40
 10
-3.9921851E+001
 20
2.704171E+001
 40
1.2872044
 50
3.0136535E+002
 51
3.0228792E+002
  0
ARC
  8
MED-1
  6
CONTINUOUS
 62
40
 10
-4.1115315E+001
 20
2.8937703E+001
 40
3.5275486
 50
3.0222512E+002
 51
3.0252995E+002
  0
ARC
  8
MED-1
  6
CONTINUOUS
 62
40
 10
-3.9808446E+001
 20
2.6847172E+001
 40
1.0624782
 50
3.037341E+002
 51
3.0504502E+002
  0
ARC
  8
MED-1
  6
CONTINUOUS
 62
40
 10
-3.9749358E+001
 20
2.6765436E+001
 40
9.6163213E-001
 50
3.0495919E+002
 51
3.0720721E+002
  0
ARC
  8
MED-1
  6
CONTINUOUS
 62
40
 10
-4.0720019E+001
 20
2.8112353E+001
 40
2.6216747
 50
3.0630252E+002
 51
3.0738644E+002
  0
LINE
  8
MED-1
  6
CONTINUOUS
 62
40
 10
-3.912817E+001
 20
2.602928E+001
 11
-3.901113E+001
 21
2.611919E+001
  0
ARC
  8
MED-1
  6
CONTINUOUS
 62
40
 10
-3.6314213E+001
 20
2.2489696E+001
 40
4.52179
 50
1.2476158E+002
 51
1.2661441E+002
  0
ARC
  8
MED-1
  6
CONTINUOUS
 62
40
 10
-3.6399416E+001
 20
2.260085E+001
 40
4.3818995
 50
1.2277968E+002
 51
1.2467501E+002
  0
ARC
  8
MED-1
  6
CONTINUOUS
 62
40
 10
-3.6447488E+001
 20
2.2677637E+001
 40
4.2913134
 50
1.2087379E+002
 51
1.2279511E+002
  0
ARC
  8
MED-1
  6
CONTINUOUS
 62
40
 10
-3.646888E+001
 20
2.270557E+001
 40
4.2563626
 50
1.1889484E+002
 51
1.2081958E+002
  0
ARC
  8
MED-1
  6
CONTINUOUS
 62
40
 10
-3.6477238E+001
 20
2.2726249E+001
 40
4.2342209
 50
1.1700678E+002
 51
1.1893104E+002
  0
ARC
  8
MED-1
  6
CONTINUOUS
 62
40
 10
-3.6478651E+001
 20
2.2721207E+001
 40
4.2380728
 50
1.1504523E+002
 51
1.169588E+002
  0
ARC
  8
MED-1
  6
CONTINUOUS
 62
40
 10
-3.6496069E+001
 20
2.2759083E+001
 40
4.196385
 50
1.131201E+002
 51
1.1504871E+002
  0
ARC
  8
MED-1
  6
CONTINUOUS
 62
40
 10
-3.6524944E+001
 20
2.2819345E+001
 40
4.1296255
 50
1.1112132E+002
 51
1.1307995E+002
  0
ARC
  8
MED-1
  6
CONTINUOUS
 62
40
 10
-3.647077E+001
 20
2.2706469E+001
 40
4.254451
 50
1.093624E+002
 51
1.1125412E+002
  0
ARC
  8
MED-1
  6
CONTINUOUS
 62
40
 10
-3.6362625E+001
 20
2.2394864E+001
 40
4.5842867
 50
1.0760138E+002
 51
1.0934639E+002
  0
ARC
  8
MED-1
  6
CONTINUOUS
 62
40
 10
-3.649762E+001
 20
2.27506E+001
 40
4.2044368
 50
1.0537832E+002
 51
1.0731379E+002
  0
ARC
  8
MED-1
  6
CONTINUOUS
 62
40
 10
-3.667529E+001
 20
2.3372473E+001
 40
3.5577185
 50
1.0292874E+002
 51
1.0527537E+002
  0
ARC
  8
MED-1
  6
CONTINUOUS
 62
40
 10
-3.6410827E+001
 20
2.2540806E+001
 40
4.4280525
 50
1.0208281E+002
 51
1.0385629E+002
  0
ARC
  8
MED-1
  6
CONTINUOUS
 62
40
 10
-3.4702433E+001
 20
1.4668314E+001
 40
1.2483768E+001
 50
1.0161676E+002
 51
1.021867E+002
  0
ARC
  8
MED-1
  6
CONTINUOUS
 62
40
 10
-3.663702E+001
 20
2.3325844E+001
 40
3.6171989
 50
9.6661872E+001
 51
9.9214096E+001
  0
ARC
  8
MED-1
  6
CONTINUOUS
 62
40
 10
-3.6665964E+001
 20
2.3670595E+001
 40
3.2714371
 50
9.2458936E+001
 51
9.6858818E+001
  0
ARC
  8
MED-1
  6
CONTINUOUS
 62
40
 10
-3.6140364E+001
 20
1.7953463E+001
 40
9.0102017
 50
9.2133274E+001
 51
9.4238674E+001
  0
LINE
  8
MED-1
  6
CONTINUOUS
 62
40
 10
-3.647576E+001
 20
2.695742E+001
 11
-3.624685E+001
 21
2.695745E+001
  0
LINE
  8
MED-1
  6
CONTINUOUS
 62
40
 10
-3.624685E+001
 20
2.695745E+001
 11
-3.601798E+001
 21
2.695753E+001
  0
LINE
  8
MED-1
  6
CONTINUOUS
 62
40
 10
-3.601798E+001
 20
2.695753E+001
 11
-3.578921E+001
 21
2.695766E+001
  0
LINE
  8
MED-1
  6
CONTINUOUS
 62
40
 10
-3.578921E+001
 20
2.695766E+001
 11
-3.55602E+001
 21
2.695783E+001
  0
LINE
  8
MED-1
  6
CONTINUOUS
 62
40
 10
-3.55602E+001
 20
2.695783E+001
 11
-3.533085E+001
 21
2.695805E+001
  0
LINE
  8
MED-1
  6
CONTINUOUS
 62
40
 10
-3.533085E+001
 20
2.695805E+001
 11
-3.510243E+001
 21
2.695832E+001
  0
LINE
  8
MED-1
  6
CONTINUOUS
 62
40
 10
-3.510243E+001
 20
2.695832E+001
 11
-3.487537E+001
 21
2.695862E+001
  0
LINE
  8
MED-1
  6
CONTINUOUS
 62
40
 10
-3.487537E+001
 20
2.695862E+001
 11
-3.464466E+001
 21
2.695897E+001
  0
LINE
  8
MED-1
  6
CONTINUOUS
 62
40
 10
-3.464466E+001
 20
2.695897E+001
 11
-3.440856E+001
 21
2.695938E+001
  0
LINE
  8
MED-1
  6
CONTINUOUS
 62
40
 10
-3.440856E+001
 20
2.695938E+001
 11
-3.418689E+001
 21
2.695979E+001
  0
LINE
  8
MED-1
  6
CONTINUOUS
 62
40
 10
-3.418689E+001
 20
2.695979E+001
 11
-3.398649E+001
 21
2.696019E+001
  0
LINE
  8
MED-1
  6
CONTINUOUS
 62
40
 10
-3.398649E+001
 20
2.696019E+001
 11
-3.372912E+001
 21
2.696077E+001
  0
LINE
  8
MED-1
  6
CONTINUOUS
 62
40
 10
-3.372912E+001
 20
2.696077E+001
 11
-3.333272E+001
 21
2.696178E+001
  0
LINE
  8
MED-1
  6
CONTINUOUS
 62
40
 10
-3.333272E+001
 20
2.696178E+001
 11
-3.281359E+001
 21
2.696316E+001
  0
LINE
  8
MED-1
  6
CONTINUOUS
 62
40
 10
-3.949997E+001
 20
2.650024E+001
 11
-3.94796E+001
 21
2.647443E+001
  0
LINE
  8
MED-1
  6
CONTINUOUS
 62
40
 10
-3.94796E+001
 20
2.647443E+001
 11
-3.945731E+001
 21
2.644619E+001
  0
LINE
  8
MED-1
  6
CONTINUOUS
 62
40
 10
-3.945731E+001
 20
2.644619E+001
 11
-3.943315E+001
 21
2.641559E+001
  0
LINE
  8
MED-1
  6
CONTINUOUS
 62
40
 10
-3.943315E+001
 20
2.641559E+001
 11
-3.940637E+001
 21
2.638167E+001
  0
LINE
  8
MED-1
  6
CONTINUOUS
 62
40
 10
-3.940637E+001
 20
2.638167E+001
 11
-3.937663E+001
 21
2.6344E+001
  0
LINE
  8
MED-1
  6
CONTINUOUS
 62
40
 10
-3.937663E+001
 20
2.6344E+001
 11
-3.934751E+001
 21
2.630711E+001
  0
LINE
  8
MED-1
  6
CONTINUOUS
 62
40
 10
-3.934751E+001
 20
2.630711E+001
 11
-3.932017E+001
 21
2.627248E+001
  0
LINE
  8
MED-1
  6
CONTINUOUS
 62
40
 10
-3.932017E+001
 20
2.627248E+001
 11
-3.928116E+001
 21
2.622307E+001
  0
LINE
  8
MED-1
  6
CONTINUOUS
 62
40
 10
-3.928116E+001
 20
2.622307E+001
 11
-3.92162E+001
 21
2.614078E+001
  0
LINE
  8
MED-1
  6
CONTINUOUS
 62
40
 10
-3.92162E+001
 20
2.614078E+001
 11
-3.912817E+001
 21
2.602928E+001
  0
LINE
  8
MED-1
  6
CONTINUOUS
 62
40
 10
-3.647304E+001
 20
2.769567E+001
 11
-3.647576E+001
 21
2.695742E+001
  0
ARC
  8
MED-1
  6
CONTINUOUS
 62
40
 10
-3.647305E+001
 20
2.269565E+001
 40
5.0
 50
8.999989E+001
 51
1.2725694E+002
  0
LINE
  8
MED-1
  6
CONTINUOUS
 62
40
 10
-3.647304E+001
 20
2.769567E+001
 11
-3.183593E+001
 21
2.771249E+001
  0
LINE
  8
MED-1
  6
CONTINUOUS
 62
40
 10
1.4E+001
 20
2.3E+001
 11
1.4E+001
 21
2.52E+001
  0
LINE
  8
MED-1
  6
CONTINUOUS
 62
40
 10
1.4E+001
 20
2.08E+001
 11
1.4E+001
 21
2.3E+001
  0
LINE
  8
MED-1
  6
CONTINUOUS
 62
40
 10
-5.3
 20
2.3E+001
 11
-5.3
 21
1.905E+001
  0
LINE
  8
MED-1
  6
CONTINUOUS
 62
40
 10
-5.3
 20
2.695E+001
 11
-5.3
 21
2.3E+001
  0
LINE
  8
MED-1
  6
CONTINUOUS
 62
40
 10
1.400003E+001
 20
2.079999E+001
 11
1.369996E+001
 21
2.05E+001
  0
LINE
  8
MED-1
  6
CONTINUOUS
 62
40
 10
1.369996E+001
 20
2.3E+001
 11
1.369996E+001
 21
2.05E+001
  0
LINE
  8
MED-1
  6
CONTINUOUS
 62
40
 10
1.369996E+001
 20
2.549999E+001
 11
1.369996E+001
 21
2.3E+001
  0
LINE
  8
MED-1
  6
CONTINUOUS
 62
40
 10
1.369996E+001
 20
2.549999E+001
 11
1.400003E+001
 21
2.52E+001
  0
LINE
  8
MED-1
  6
CONTINUOUS
 62
40
 10
-5.00001
 20
2.3E+001
 11
-5.00001
 21
2.725001E+001
  0
LINE
  8
MED-1
  6
CONTINUOUS
 62
40
 10
-5.00001
 20
1.874998E+001
 11
-5.00001
 21
2.3E+001
  0
LINE
  8
MED-1
  6
CONTINUOUS
 62
40
 10
-5.00001
 20
2.725001E+001
 11
-1.99999
 21
2.725001E+001
  0
LINE
  8
MED-1
  6
CONTINUOUS
 62
40
 10
-1.99999
 20
1.874998E+001
 11
-5.00001
 21
1.874998E+001
  0
LINE
  8
MED-1
  6
CONTINUOUS
 62
40
 10
1.369996E+001
 20
2.05E+001
 11
-1.0E-005
 21
2.05E+001
  0
LINE
  8
MED-1
  6
CONTINUOUS
 62
40
 10
-1.0E-005
 20
2.549999E+001
 11
1.369996E+001
 21
2.549999E+001
  0
LINE
  8
MED-1
  6
CONTINUOUS
 62
40
 10
-5.00001
 20
1.874998E+001
 11
-5.01793
 21
1.87505E+001
  0
ARC
  8
MED-1
  6
CONTINUOUS
 62
40
 10
-5.0013833
 20
1.9030422E+001
 40
2.8041036E-001
 50
2.6288609E+002
 51
2.6661708E+002
  0
ARC
  8
MED-1
  6
CONTINUOUS
 62
40
 10
-4.9988784
 20
1.9054927E+001
 40
3.0503748E-001
 50
2.5947651E+002
 51
2.6298923E+002
  0
ARC
  8
MED-1
  6
CONTINUOUS
 62
40
 10
-4.9967401
 20
1.9066763E+001
 40
3.1706532E-001
 50
2.5604193E+002
 51
2.5948726E+002
  0
ARC
  8
MED-1
  6
CONTINUOUS
 62
40
 10
-4.9978191
 20
1.9056717E+001
 40
3.0705904E-001
 50
2.5216189E+002
 51
2.5578516E+002
  0
ARC
  8
MED-1
  6
CONTINUOUS
 62
40
 10
-4.9984952
 20
1.9054538E+001
 40
3.047772E-001
 50
2.4845281E+002
 51
2.5215739E+002
  0
ARC
  8
MED-1
  6
CONTINUOUS
 62
40
 10
-4.9976155
 20
1.905489E+001
 40
3.0542888E-001
 50
2.4457189E+002
 51
2.4832358E+002
  0
ARC
  8
MED-1
  6
CONTINUOUS
 62
40
 10
-4.997383
 20
1.9055617E+001
 40
3.061851E-001
 50
2.4080823E+002
 51
2.44591E+002
  0
ARC
  8
MED-1
  6
CONTINUOUS
 62
40
 10
-4.9977528
 20
1.905306E+001
 40
3.0377374E-001
 50
2.3678381E+002
 51
2.4063388E+002
  0
ARC
  8
MED-1
  6
CONTINUOUS
 62
40
 10
-4.9978795
 20
1.9053467E+001
 40
3.0404515E-001
 50
2.3297367E+002
 51
2.368458E+002
  0
ARC
  8
MED-1
  6
CONTINUOUS
 62
40
 10
-4.9971452
 20
1.9053276E+001
 40
3.0433578E-001
 50
2.2895445E+002
 51
2.3284168E+002
  0
ARC
  8
MED-1
  6
CONTINUOUS
 62
40
 10
-4.9985282
 20
1.9051876E+001
 40
3.0237185E-001
 50
2.2505287E+002
 51
2.289779E+002
  0
ARC
  8
MED-1
  6
CONTINUOUS
 62
40
 10
-5.0017395
 20
1.9047588E+001
 40
2.9706876E-001
 50
2.2090882E+002
 51
2.2490687E+002
  0
ARC
  8
MED-1
  6
CONTINUOUS
 62
40
 10
-4.998844
 20
1.9051627E+001
 40
3.0190478E-001
 50
2.1721574E+002
 51
2.2112838E+002
  0
ARC
  8
MED-1
  6
CONTINUOUS
 62
40
 10
-4.9871059
 20
1.9060196E+001
 40
3.1643519E-001
 50
2.1346611E+002
 51
2.1716585E+002
  0
ARC
  8
MED-1
  6
CONTINUOUS
 62
40
 10
-5.0030283
 20
1.9047169E+001
 40
2.9597588E-001
 50
2.090856E+002
 51
2.13062E+002
  0
ARC
  8
MED-1
  6
CONTINUOUS
 62
40
 10
-5.0337748
 20
1.9029458E+001
 40
2.604978E-001
 50
2.0440849E+002
 51
2.0896885E+002
  0
ARC
  8
MED-1
  6
CONTINUOUS
 62
40
 10
-4.9937925
 20
1.9056553E+001
 40
3.0821103E-001
 50
2.0230605E+002
 51
2.0592388E+002
  0
ARC
  8
MED-1
  6
CONTINUOUS
 62
40
 10
-4.711885
 20
1.9174874E+001
 40
6.1393744E-001
 50
2.0089688E+002
 51
2.0253636E+002
  0
ARC
  8
MED-1
  6
CONTINUOUS
 62
40
 10
-5.0327975
 20
1.9033479E+001
 40
2.6428833E-001
 50
1.9239051E+002
 51
1.970723E+002
  0
ARC
  8
MED-1
  6
CONTINUOUS
 62
40
 10
-5.060162
 20
1.902839E+001
 40
2.3647093E-001
 50
1.8481037E+002
 51
1.9260881E+002
  0
ARC
  8
MED-1
  6
CONTINUOUS
 62
40
 10
-4.7102045
 20
1.9088862E+001
 40
5.9107578E-001
 50
1.8377179E+002
 51
1.8780825E+002
  0
LINE
  8
MED-1
  6
CONTINUOUS
 62
40
 10
-5.3
 20
2.695001E+001
 11
-5.29948
 21
2.696794E+001
  0
ARC
  8
MED-1
  6
CONTINUOUS
 62
40
 10
-5.0196396
 20
2.6951554E+001
 40
2.8031978E-001
 50
1.7291684E+002
 51
1.7664884E+002
  0
ARC
  8
MED-1
  6
CONTINUOUS
 62
40
 10
-4.9953109
 20
2.6948896E+001
 40
3.0479065E-001
 50
1.6947134E+002
 51
1.7298505E+002
  0
ARC
  8
MED-1
  6
CONTINUOUS
 62
40
 10
-4.9833148
 20
2.6946759E+001
 40
3.1697531E-001
 50
1.6604144E+002
 51
1.6948775E+002
  0
ARC
  8
MED-1
  6
CONTINUOUS
 62
40
 10
-4.993361
 20
2.6948001E+001
 40
3.0692865E-001
 50
1.6218975E+002
 51
1.6581405E+002
  0
ARC
  8
MED-1
  6
CONTINUOUS
 62
40
 10
-4.9955416
 20
2.6948524E+001
 40
3.0469277E-001
 50
1.5845229E+002
 51
1.621579E+002
  0
ARC
  8
MED-1
  6
CONTINUOUS
 62
40
 10
-4.9953421
 20
2.6947796E+001
 40
3.0514626E-001
 50
1.5458622E+002
 51
1.5833891E+002
  0
ARC
  8
MED-1
  6
CONTINUOUS
 62
40
 10
-4.9943048
 20
2.6947262E+001
 40
3.0631231E-001
 50
1.5079557E+002
 51
1.545793E+002
  0
ARC
  8
MED-1
  6
CONTINUOUS
 62
40
 10
-4.9970047
 20
2.6947938E+001
 40
3.0362669E-001
 50
1.4680736E+002
 51
1.5065832E+002
  0
ARC
  8
MED-1
  6
CONTINUOUS
 62
40
 10
-4.9965895
 20
2.6947768E+001
 40
3.0406722E-001
 50
1.4295045E+002
 51
1.4682339E+002
  0
ARC
  8
MED-1
  6
CONTINUOUS
 62
40
 10
-4.9967723
 20
2.6947328E+001
 40
3.0418661E-001
 50
1.3897564E+002
 51
1.4286358E+002
  0
ARC
  8
MED-1
  6
CONTINUOUS
 62
40
 10
-4.9983114
 20
2.6948553E+001
 40
3.0222153E-001
 50
1.3503372E+002
 51
1.3895931E+002
  0
ARC
  8
MED-1
  6
CONTINUOUS
 62
40
 10
-5.0022983
 20
2.6951755E+001
 40
2.9713827E-001
 50
1.3092888E+002
 51
1.349273E+002
  0
ARC
  8
MED-1
  6
CONTINUOUS
 62
40
 10
-4.9983897
 20
2.6948712E+001
 40
3.0199921E-001
 50
1.2719806E+002
 51
1.3111096E+002
  0
ARC
  8
MED-1
  6
CONTINUOUS
 62
40
 10
-4.9898117
 20
2.6937117E+001
 40
3.164215E-001
 50
1.2346603E+002
 51
1.2716593E+002
  0
ARC
  8
MED-1
  6
CONTINUOUS
 62
40
 10
-5.0028376
 20
2.6953174E+001
 40
2.9585019E-001
 50
1.1909999E+002
 51
1.2307642E+002
  0
ARC
  8
MED-1
  6
CONTINUOUS
 62
40
 10
-5.0205428
 20
2.6983641E+001
 40
2.6061959E-001
 50
1.1439616E+002
 51
1.1895635E+002
  0
ARC
  8
MED-1
  6
CONTINUOUS
 62
40
 10
-4.9934373
 20
2.694377E+001
 40
3.0823548E-001
 50
1.1230619E+002
 51
1.1592374E+002
  0
ARC
  8
MED-1
  6
CONTINUOUS
 62
40
 10
-4.875103
 20
2.6661826E+001
 40
6.1400079E-001
 50
1.1089696E+002
 51
1.1253627E+002
  0
ARC
  8
MED-1
  6
CONTINUOUS
 62
40
 10
-5.0165073
 20
2.6982643E+001
 40
2.6443979E-001
 50
1.0238406E+002
 51
1.0706526E+002
  0
ARC
  8
MED-1
  6
CONTINUOUS
 62
40
 10
-5.0215935
 20
2.701012E+001
 40
2.3651374E-001
 50
9.4811077E+001
 51
1.0260811E+002
  0
ARC
  8
MED-1
  6
CONTINUOUS
 62
40
 10
-4.9609722
 20
2.6660078E+001
 40
5.9122232E-001
 50
9.3785931E+001
 51
9.7821489E+001
  0
LINE
  8
104
  6
CONTINUOUS
 62
1
 10
1.4E+001
 20
2.520003E+001
 11
0.0
 21
2.520003E+001
  0
LINE
  8
104
  6
CONTINUOUS
 62
1
 10
1.4E+001
 20
2.079996E+001
 11
0.0
 21
2.079996E+001
  0
ARC
  8
MED-1
  6
CONTINUOUS
 62
40
 10
-1.2E+001
 20
1.958334E+001
 40
6.0833333
 50
2.7E+002
 51
3.1111209E+002
  0
ARC
  8
MED-1
  6
CONTINUOUS
 62
40
 10
-1.2E+001
 20
1.958334E+001
 40
6.0833332
 50
2.2888791E+002
 51
2.7E+002
  0
LINE
  8
106
  6
CENTERLINE
 62
1
 10
1.845441E+001
 20
2.3E+001
 11
-5.8959662E+001
 21
2.3E+001
  0
POINT
  8
Drafting_Hidden_Entities
  6
CONTINUOUS
 62
1
 10
0.0
 20
0.0
  0
ENDBLK
  0
BLOCK
  2
*XH45
  3
*XH
 10
0.0
 20
0.0
 70
65
  0
LINE
  8
108
  6
CONTINUOUS
 62
1
 10
-1.158181
 20
-1.158181
 11
1.158181
 21
1.158181
  0
LINE
  8
108
  6
CONTINUOUS
 62
1
 10
-2.6642136
 20
1.6421356E-001
 11
1.158181
 21
3.9866081
  0
LINE
  8
108
  6
CONTINUOUS
 62
1
 10
-3.841819
 20
1.8150353
 11
-8.1503527E-001
 21
4.841819
  0
LINE
  8
108
  6
CONTINUOUS
 62
1
 10
-3.841819
 20
4.6434624
 11
-3.6434624
 21
4.841819
  0
ENDBLK
  0
BLOCK
  2
*XH46
  3
*XH
 10
0.0
 20
0.0
 70
65
  0
LINE
  8
108
  6
CONTINUOUS
 62
1
 10
-6.7289965E-001
 20
-6.7289965E-001
 11
6.7289965E-001
 21
6.7289965E-001
  0
LINE
  8
108
  6
CONTINUOUS
 62
1
 10
-2.6642136
 20
1.6421356E-001
 11
6.7289965E-001
 21
3.5013268
  0
LINE
  8
108
  6
CONTINUOUS
 62
1
 10
-4.0784271
 20
1.5784271
 11
6.7289965E-001
 21
6.3297539
  0
LINE
  8
108
  6
CONTINUOUS
 62
1
 10
-4.3271003
 20
4.158181
 11
6.7289965E-001
 21
9.158181
  0
LINE
  8
108
  6
CONTINUOUS
 62
1
 10
-4.3271003
 20
6.9866081
 11
-9.8660815E-001
 21
1.03271E+001
  0
ENDBLK
  0
BLOCK
  2
*XH47
  3
*XH
 10
0.0
 20
0.0
 70
65
  0
LINE
  8
108
  6
CONTINUOUS
 62
1
 10
-5.160454E-001
 20
-5.160454E-001
 11
5.160454E-001
 21
5.160454E-001
  0
LINE
  8
108
  6
CONTINUOUS
 62
1
 10
-2.6642136
 20
1.6421356E-001
 11
5.160454E-001
 21
3.3444725
  0
LINE
  8
108
  6
CONTINUOUS
 62
1
 10
-4.0784271
 20
1.5784271
 11
-1.7289965E-001
 21
5.4839546
  0
ENDBLK
  0
BLOCK
  2
*XH48
  3
*XH
 10
0.0
 20
0.0
 70
65
  0
LINE
  8
108
  6
CONTINUOUS
 62
1
 10
-3.0764027E-002
 20
-3.0764027E-002
 11
3.0764027E-002
 21
3.0764027E-002
  0
LINE
  8
108
  6
CONTINUOUS
 62
1
 10
-2.6642136
 20
1.6421356E-001
 11
3.0764027E-002
 21
2.8591912
  0
LINE
  8
108
  6
CONTINUOUS
 62
1
 10
-4.0784271
 20
1.5784271
 11
3.0764027E-002
 21
5.6876183
  0
LINE
  8
108
  6
CONTINUOUS
 62
1
 10
-4.969236
 20
3.5160454
 11
3.0764027E-002
 21
8.5160454
  0
LINE
  8
108
  6
CONTINUOUS
 62
1
 10
-4.969236
 20
6.3444725
 11
-3.4447253E-001
 21
1.0969236E+001
  0
ENDBLK
  0
BLOCK
  2
*XH49
  3
*XH
 10
0.0
 20
0.0
 70
65
  0
LINE
  8
108
  6
CONTINUOUS
 62
1
 10
-1.2881233
 20
-1.2881233
 11
1.2881233
 21
1.2881233
  0
LINE
  8
108
  6
CONTINUOUS
 62
1
 10
-3.7118767
 20
-8.8344954E-001
 11
1.2881233
 21
4.1165505
  0
LINE
  8
108
  6
CONTINUOUS
 62
1
 10
-3.7118767
 20
1.9449776
 11
-9.4497759E-001
 21
4.7118767
  0
ENDBLK
  0
BLOCK
  2
MONTAGEPLATTE
 10
0.0
 20
0.0
 70
0
  0
LINE
  8
104
  6
CONTINUOUS
 62
40
 10
-5.0
 20
-8.5
 11
-5.0
 21
5.15E+001
  0
LINE
  8
104
  6
CONTINUOUS
 62
40
 10
0.0
 20
-8.5
 11
0.0
 21
5.15E+001
  0
LINE
  8
104
  6
CONTINUOUS
 62
40
 10
0.0
 20
-8.5
 11
-5.0
 21
-8.5
  0
LINE
  8
104
  6
CONTINUOUS
 62
40
 10
-5.0
 20
5.15E+001
 11
0.0
 21
5.15E+001
  0
LINE
  8
106
  6
CENTERLINE
 62
1
 10
-5.0
 20
2.7E+001
 11
2.426452
 21
2.7E+001
  0
LINE
  8
106
  6
CENTERLINE
 62
1
 10
-5.0
 20
1.6E+001
 11
2.426452
 21
1.6E+001
  0
LINE
  8
106
  6
CENTERLINE
 62
1
 10
-5.0
 20
4.3E+001
 11
2.426452
 21
4.3E+001
  0
LINE
  8
106
  6
CENTERLINE
 62
1
 10
-5.0
 20
0.0
 11
2.426452
 21
0.0
  0
LINE
  8
104
  6
CONTINUOUS
 62
40
 10
-2.5
 20
2.95E+001
 11
0.0
 21
2.95E+001
  0
LINE
  8
104
  6
CONTINUOUS
 62
40
 10
-2.5
 20
2.45E+001
 11
0.0
 21
2.45E+001
  0
LINE
  8
104
  6
CONTINUOUS
 62
40
 10
-5.0
 20
2.2E+001
 11
-2.5
 21
2.45E+001
  0
LINE
  8
104
  6
CONTINUOUS
 62
40
 10
-5.0
 20
3.2E+001
 11
-2.5
 21
2.95E+001
  0
LINE
  8
104
  6
CONTINUOUS
 62
40
 10
-2.5
 20
2.95E+001
 11
-2.5
 21
2.45E+001
  0
LINE
  8
104
  6
CONTINUOUS
 62
40
 10
-5.0
 20
3.8E+001
 11
-2.5
 21
4.05E+001
  0
LINE
  8
104
  6
CONTINUOUS
 62
40
 10
-2.5
 20
4.05E+001
 11
0.0
 21
4.05E+001
  0
LINE
  8
104
  6
CONTINUOUS
 62
40
 10
-2.5
 20
4.55E+001
 11
-2.5
 21
4.05E+001
  0
LINE
  8
104
  6
CONTINUOUS
 62
40
 10
-5.0
 20
4.8E+001
 11
-2.5
 21
4.55E+001
  0
LINE
  8
104
  6
CONTINUOUS
 62
40
 10
-2.5
 20
4.55E+001
 11
0.0
 21
4.55E+001
  0
LINE
  8
104
  6
CONTINUOUS
 62
40
 10
-5.0
 20
1.1E+001
 11
-2.5
 21
1.35E+001
  0
LINE
  8
104
  6
CONTINUOUS
 62
40
 10
-2.5
 20
1.35E+001
 11
0.0
 21
1.35E+001
  0
LINE
  8
104
  6
CONTINUOUS
 62
40
 10
-2.5
 20
1.85E+001
 11
-2.5
 21
1.35E+001
  0
LINE
  8
104
  6
CONTINUOUS
 62
40
 10
-5.0
 20
2.1E+001
 11
-2.5
 21
1.85E+001
  0
LINE
  8
104
  6
CONTINUOUS
 62
40
 10
-2.5
 20
1.85E+001
 11
0.0
 21
1.85E+001
  0
LINE
  8
104
  6
CONTINUOUS
 62
40
 10
-5.0
 20
-5.0
 11
-2.5
 21
-2.5
  0
LINE
  8
104
  6
CONTINUOUS
 62
40
 10
-2.5
 20
-2.5
 11
0.0
 21
-2.5
  0
LINE
  8
104
  6
CONTINUOUS
 62
40
 10
-2.5
 20
2.5
 11
-2.5
 21
-2.5
  0
LINE
  8
104
  6
CONTINUOUS
 62
40
 10
-5.0
 20
5.0
 11
-2.5
 21
2.5
  0
LINE
  8
104
  6
CONTINUOUS
 62
40
 10
-2.5
 20
2.5
 11
0.0
 21
2.5
  0
INSERT
  2
*XH45
  8
108
 10
-1.158181
 20
4.6658181E+001
  0
INSERT
  2
*XH46
  8
108
 10
-6.7289965E-001
 20
3.01729E+001
  0
INSERT
  2
*XH47
  8
108
 10
-5.160454E-001
 20
1.9016045E+001
  0
INSERT
  2
*XH48
  8
108
 10
-3.0764027E-002
 20
2.530764
  0
INSERT
  2
*XH49
  8
108
 10
-1.2881233
 20
-7.2118767
  0
LINE
  8
106
  6
CENTERLINE
 62
1
 10
-5.0
 20
8.0
 11
2.426452
 21
8.0
  0
LINE
  8
106
  6
CENTERLINE
 62
1
 10
-5.0
 20
3.5E+001
 11
2.426452
 21
3.5E+001
  0
POINT
  8
Drafting_Hidden_Entities
  6
CONTINUOUS
 62
1
 10
0.0
 20
0.0
  0
ENDBLK
  0
BLOCK
  2
M5
 10
0.0
 20
0.0
 70
0
  0
LINE
  8
104
  6
CONTINUOUS
 62
1
 10
0.0
 20
-2.0
 11
1.1E+001
 21
-2.0
  0
LINE
  8
104
  6
CONTINUOUS
 62
40
 10
0.0
 20
-2.5
 11
1.1E+001
 21
-2.5
  0
LINE
  8
104
  6
CONTINUOUS
 62
40
 10
1.1E+001
 20
-2.5
 11
1.1E+001
 21
2.5
  0
LINE
  8
106
  6
CENTERLINE
 62
1
 10
2.426452
 20
0.0
 11
1.3070472E+001
 21
0.0
  0
LINE
  8
104
  6
CONTINUOUS
 62
1
 10
0.0
 20
2.0
 11
1.1E+001
 21
2.0
  0
LINE
  8
104
  6
CONTINUOUS
 62
40
 10
0.0
 20
2.5
 11
1.1E+001
 21
2.5
  0
POINT
  8
Drafting_Hidden_Entities
  6
CONTINUOUS
 62
1
 10
0.0
 20
0.0
  0
ENDBLK
  0
BLOCK
  2
1NEW00
 10
0.0
 20
0.0
 70
0
  0
LINE
  8
106
  6
CENTERLINE
 62
1
 10
-2.54999E+001
 20
8.551
 11
-2.54999E+001
 21
-9.988
  0
CIRCLE
  8
104
  6
CONTINUOUS
 62
40
 10
-2.54999E+001
 20
-3.65E+001
 40
6.0
  0
LINE
  8
104
  6
CONTINUOUS
 62
40
 10
-2.40565E+001
 20
-3.4E+001
 11
-2.69433E+001
 21
-3.4E+001
  0
LINE
  8
104
  6
CONTINUOUS
 62
40
 10
-2.69433E+001
 20
-3.4E+001
 11
-2.83867E+001
 21
-3.65E+001
  0
LINE
  8
104
  6
CONTINUOUS
 62
40
 10
-2.83867E+001
 20
-3.65E+001
 11
-2.69433E+001
 21
-3.9E+001
  0
LINE
  8
104
  6
CONTINUOUS
 62
40
 10
-2.69433E+001
 20
-3.9E+001
 11
-2.40565E+001
 21
-3.9E+001
  0
LINE
  8
104
  6
CONTINUOUS
 62
40
 10
-2.40565E+001
 20
-3.9E+001
 11
-2.26132E+001
 21
-3.65E+001
  0
LINE
  8
104
  6
CONTINUOUS
 62
40
 10
-2.26132E+001
 20
-3.65E+001
 11
-2.40565E+001
 21
-3.4E+001
  0
LINE
  8
106
  6
CENTERLINE
 62
1
 10
-3.42344E+001
 20
-3.65E+001
 11
-1.63139E+001
 21
-3.65E+001
  0
LINE
  8
106
  6
CENTERLINE
 62
1
 10
-2.54999E+001
 20
-4.5483E+001
 11
-2.54999E+001
 21
-2.7948E+001
  0
LINE
  8
106
  6
CENTERLINE
 62
1
 10
-5.0
 20
-5.9E+001
 11
-4.59999E+001
 21
-5.9E+001
  0
LINE
  8
106
  6
CENTERLINE
 62
1
 10
-5.0
 20
-1.4E+001
 11
-4.59999E+001
 21
-1.4E+001
  0
LINE
  8
104
  6
CONTINUOUS
 62
40
 10
-1.05592E+001
 20
-6.65E+001
 11
-1.71037E+001
 21
-7.075E+001
  0
LINE
  8
104
  6
CONTINUOUS
 62
40
 10
-1.71037E+001
 20
-7.075E+001
 11
-3.38962E+001
 21
-7.075E+001
  0
LINE
  8
104
  6
CONTINUOUS
 62
40
 10
-3.38962E+001
 20
-7.075E+001
 11
-4.04406E+001
 21
-6.65E+001
  0
LINE
  8
104
  6
CONTINUOUS
 62
40
 10
-4.74999E+001
 20
-6.5
 11
-4.74999E+001
 21
-8.8
  0
LINE
  8
104
  6
CONTINUOUS
 62
40
 10
-4.74999E+001
 20
-8.8
 11
-4.73863E+001
 21
-8.8
  0
LINE
  8
104
  6
CONTINUOUS
 62
40
 10
-4.73863E+001
 20
-8.8
 11
-4.59999E+001
 21
-8.063
  0
LINE
  8
104
  6
CONTINUOUS
 62
40
 10
-4.59999E+001
 20
-8.063
 11
-4.59999E+001
 21
-6.4937E+001
  0
LINE
  8
104
  6
CONTINUOUS
 62
40
 10
-4.59999E+001
 20
-6.4937E+001
 11
-4.73862E+001
 21
-6.42E+001
  0
LINE
  8
104
  6
CONTINUOUS
 62
40
 10
-4.73862E+001
 20
-6.42E+001
 11
-4.74999E+001
 21
-6.42E+001
  0
LINE
  8
104
  6
CONTINUOUS
 62
40
 10
-4.74999E+001
 20
-6.42E+001
 11
-4.74999E+001
 21
-6.65E+001
  0
LINE
  8
104
  6
CONTINUOUS
 62
40
 10
-4.74999E+001
 20
-6.65E+001
 11
-5.0
 21
-6.65E+001
  0
LINE
  8
104
  6
CONTINUOUS
 62
40
 10
-5.0
 20
-6.5
 11
-4.74999E+001
 21
-6.5
  0
LINE
  8
104
  6
CONTINUOUS
 62
40
 10
-4.59999E+001
 20
-8.4
 11
-4.64999E+001
 21
-8.4
  0
LINE
  8
104
  6
CONTINUOUS
 62
40
 10
-4.64999E+001
 20
-8.4
 11
-4.64999E+001
 21
-6.46E+001
  0
LINE
  8
104
  6
CONTINUOUS
 62
40
 10
-4.64999E+001
 20
-6.46E+001
 11
-4.59999E+001
 21
-6.46E+001
  0
LINE
  8
104
  6
CONTINUOUS
 62
40
 10
-4.59999E+001
 20
-6.46E+001
 11
-4.59999E+001
 21
-8.4
  0
LINE
  8
MED-1
  6
CONTINUOUS
 62
40
 10
-2.7391884E+001
 20
8.0
 11
-1.4499904E+001
 21
8.0
  0
LINE
  8
MED-1
  6
CONTINUOUS
 62
40
 10
-2.8787794E+001
 20
7.99998
 11
-2.7391884E+001
 21
8.0
  0
LINE
  8
MED-1
  6
CONTINUOUS
 62
40
 10
-6.2393861E+001
 20
7.9999855
 11
-2.8787794E+001
 21
7.99998
  0
LINE
  8
MED-1
  6
CONTINUOUS
 62
40
 10
-2.8787774E+001
 20
1.4E+001
 11
-2.8787794E+001
 21
7.99998
  0
LINE
  8
MED-1
  6
CONTINUOUS
 62
40
 10
-2.8787774E+001
 20
1.4E+001
 11
-6.2393859E+001
 21
1.4E+001
  0
LINE
  8
MED-1
  6
CONTINUOUS
 62
40
 10
-3.6499903E+001
 20
-6.5
 11
-3.6499914E+001
 21
7.99998
  0
LINE
  8
MED-1
  6
CONTINUOUS
 62
40
 10
-1.4499904E+001
 20
1.4E+001
 11
-1.4499904E+001
 21
-6.5
  0
LINE
  8
MED-1
  6
CONTINUOUS
 62
40
 10
-1.4507364E+001
 20
1.4E+001
 11
-2.8787774E+001
 21
1.4E+001
  0
POLYLINE
  8
106
  6
CENTERLINE
 62
1
 66
1
 40
0.0
 41
0.0
 70
2
  0
VERTEX
  8
106
 42
0.0
 10
-6.2393859E+001
 20
1.4E+001
 70
0
  0
VERTEX
  8
106
 42
9.2324079E-003
 10
-6.2552973E+001
 20
1.3773192E+001
 70
1
  0
VERTEX
  8
106
 42
8.8411803E-003
 10
-6.2699722E+001
 20
1.3547298E+001
 70
0
  0
VERTEX
  8
106
 42
1.0296252E-002
 10
-6.283401E+001
 20
1.3322353E+001
 70
1
  0
VERTEX
  8
106
 42
1.4267972E-002
 10
-6.2953502E+001
 20
1.3098332E+001
 70
0
  0
VERTEX
  8
106
 42
1.8048001E-002
 10
-6.3054066E+001
 20
1.2875293E+001
 70
1
  0
VERTEX
  8
106
 42
2.2083838E-002
 10
-6.3133801E+001
 20
1.2653209E+001
 70
0
  0
VERTEX
  8
106
 42
2.6064686E-002
 10
-6.3189285E+001
 20
1.2432132E+001
 70
1
  0
VERTEX
  8
106
 42
3.0114061E-002
 10
-6.3219221E+001
 20
1.2212032E+001
 70
0
  0
VERTEX
  8
106
 42
3.4583056E-002
 10
-6.3219888E+001
 20
1.1992962E+001
 70
1
  0
VERTEX
  8
106
 42
3.9550655E-002
 10
-6.3188366E+001
 20
1.1774905E+001
 70
0
  0
VERTEX
  8
106
 42
3.6229736E-002
 10
-6.3120403E+001
 20
1.1557921E+001
 70
1
  0
VERTEX
  8
106
 42
2.6791222E-002
 10
-6.302206E+001
 20
1.1341924E+001
 70
0
  0
VERTEX
  8
106
 42
1.3968395E-002
 10
-6.2900637E+001
 20
1.1126909E+001
 70
1
  0
VERTEX
  8
106
 42
-4.2625463E-003
 10
-6.2774372E+001
 20
1.0912824E+001
 70
0
  0
VERTEX
  8
106
 42
-2.2308062E-002
 10
-6.2663388E+001
 20
1.0699629E+001
 70
1
  0
VERTEX
  8
106
 42
-4.8714177E-002
 10
-6.2587532E+001
 20
1.0486907E+001
 70
0
  0
VERTEX
  8
106
 42
-6.8097367E-002
 10
-6.2567103E+001
 20
1.0274495E+001
 70
1
  0
VERTEX
  8
106
 42
-7.2067293E-002
 10
-6.2606241E+001
 20
1.0063466E+001
 70
0
  0
VERTEX
  8
106
 42
-4.4895101E-002
 10
-6.2704572E+001
 20
9.8542473
 70
1
  0
VERTEX
  8
106
 42
-5.698894E-004
 10
-6.2827267E+001
 20
9.6425173
 70
0
  0
VERTEX
  8
106
 42
1.6372564E-002
 10
-6.2939477E+001
 20
9.4269477
 70
1
  0
VERTEX
  8
106
 42
1.8487067E-002
 10
-6.3027971E+001
 20
9.2251494
 70
0
  0
VERTEX
  8
106
 42
8.9583672E-002
 10
-6.3072235E+001
 20
9.0433145
 70
1
  0
VERTEX
  8
106
 42
1.243969E-001
 10
-6.30112E+001
 20
8.8123275
 70
0
  0
VERTEX
  8
106
 42
4.4765343E-002
 10
-6.2780095E+001
 20
8.4597643
 70
1
  0
VERTEX
  8
106
 42
2.1079969E-002
 10
-6.2393861E+001
 20
7.9999855
 70
0
  0
SEQEND
  0
INSERT
  2
MONTAGEPLATTE
  8
109
 10
0.0
 20
-5.8E+001
  0
LINE
  8
104
  6
CONTINUOUS
 62
40
 10
0.0
 20
0.0
 11
8.2265901
 21
0.0
  0
LINE
  8
104
  6
CONTINUOUS
 62
40
 10
0.0
 20
-6.5
 11
0.0
 21
0.0
  0
INSERT
  2
M5
  8
109
 10
0.0
 20
-5.8E+001
  0
INSERT
  2
M5
  8
109
 10
0.0
 20
-4.2E+001
  0
LINE
  8
MED-1
  6
CONTINUOUS
 62
40
 10
-2.0
 20
3.1E+001
 11
-5.23621
 21
3.1E+001
  0
LINE
  8
MED-1
  6
CONTINUOUS
 62
40
 10
-5.23621
 20
3.1E+001
 11
-6.44927
 21
3.1E+001
  0
LINE
  8
MED-1
  6
CONTINUOUS
 62
40
 10
-6.44927
 20
3.1E+001
 11
-1.806535E+001
 21
3.1E+001
  0
LINE
  8
MED-1
  6
CONTINUOUS
 62
40
 10
-1.806535E+001
 20
3.1E+001
 11
-1.95E+001
 21
3.1E+001
  0
LINE
  8
MED-1
  6
CONTINUOUS
 62
40
 10
-1.95E+001
 20
1.5E+001
 11
-1.806535E+001
 21
1.5E+001
  0
LINE
  8
MED-1
  6
CONTINUOUS
 62
40
 10
-1.806535E+001
 20
1.5E+001
 11
-6.44927
 21
1.5E+001
  0
LINE
  8
MED-1
  6
CONTINUOUS
 62
40
 10
-6.44927
 20
1.5E+001
 11
-5.23621
 21
1.5E+001
  0
LINE
  8
MED-1
  6
CONTINUOUS
 62
40
 10
-2.0
 20
1.5E+001
 11
-5.23621
 21
1.5E+001
  0
LINE
  8
MED-1
  6
CONTINUOUS
 62
40
 10
-5.23621
 20
1.7E+001
 11
-2.0
 21
1.7E+001
  0
LINE
  8
MED-1
  6
CONTINUOUS
 62
40
 10
-5.23621
 20
1.7E+001
 11
-6.44927
 21
1.7E+001
  0
LINE
  8
MED-1
  6
CONTINUOUS
 62
40
 10
-6.44927
 20
1.7E+001
 11
-1.806535E+001
 21
1.7E+001
  0
LINE
  8
MED-1
  6
CONTINUOUS
 62
40
 10
-1.806535E+001
 20
1.7E+001
 11
-1.95E+001
 21
1.7E+001
  0
LINE
  8
MED-1
  6
CONTINUOUS
 62
40
 10
-1.95E+001
 20
2.9E+001
 11
-1.806535E+001
 21
2.9E+001
  0
LINE
  8
MED-1
  6
CONTINUOUS
 62
40
 10
-1.806535E+001
 20
2.9E+001
 11
-6.44927
 21
2.9E+001
  0
LINE
  8
MED-1
  6
CONTINUOUS
 62
40
 10
-6.44927
 20
2.9E+001
 11
-5.23621
 21
2.9E+001
  0
LINE
  8
MED-1
  6
CONTINUOUS
 62
40
 10
-2.0
 20
2.9E+001
 11
-5.23621
 21
2.9E+001
  0
ARC
  8
MED-1
  6
CONTINUOUS
 62
40
 10
-2.0
 20
2.9E+001
 40
2.0000001
 50
0.0
 51
9.0E+001
  0
ARC
  8
MED-1
  6
CONTINUOUS
 62
40
 10
-2.0
 20
1.7E+001
 40
1.9999999
 50
2.7E+002
 51
3.6E+002
  0
LINE
  8
MED-1
  6
CONTINUOUS
 62
40
 10
-2.0
 20
1.7E+001
 11
-2.0
 21
2.9E+001
  0
LINE
  8
MED-1
  6
CONTINUOUS
 62
40
 10
0.0
 20
2.9E+001
 11
0.0
 21
1.7E+001
  0
LINE
  8
MED-1
  6
CONTINUOUS
 62
40
 10
-1.95E+001
 20
2.9E+001
 11
-1.95E+001
 21
3.1E+001
  0
LINE
  8
MED-1
  6
CONTINUOUS
 62
40
 10
-1.95E+001
 20
1.5E+001
 11
-1.95E+001
 21
1.7E+001
  0
CIRCLE
  8
MED-1
  6
CONTINUOUS
 62
40
 10
-2.9E+001
 20
2.3E+001
 40
3.5
  0
ARC
  8
MED-1
  6
CONTINUOUS
 62
40
 10
-1.2E+001
 20
2.641667E+001
 40
6.0833332
 50
4.888791E+001
 51
9.0E+001
  0
ARC
  8
MED-1
  6
CONTINUOUS
 62
40
 10
-1.2E+001
 20
2.641667E+001
 40
6.0833333
 50
9.0E+001
 51
1.3111209E+002
  0
LINE
  8
MED-1
  6
CONTINUOUS
 62
40
 10
-7.0
 20
1.725E+001
 11
-1.7E+001
 21
1.725E+001
  0
LINE
  8
MED-1
  6
CONTINUOUS
 62
40
 10
-1.7E+001
 20
2.875E+001
 11
-7.0
 21
2.875E+001
  0
LINE
  8
MED-1
  6
CONTINUOUS
 62
40
 10
-7.0
 20
2.875E+001
 11
-6.99999
 21
2.850001E+001
  0
LINE
  8
MED-1
  6
CONTINUOUS
 62
40
 10
-6.99999
 20
1.749998E+001
 11
-7.0
 21
1.725E+001
  0
LINE
  8
MED-1
  6
CONTINUOUS
 62
40
 10
-1.7E+001
 20
1.725E+001
 11
-1.699999E+001
 21
1.749998E+001
  0
LINE
  8
MED-1
  6
CONTINUOUS
 62
40
 10
-1.699999E+001
 20
2.850001E+001
 11
-1.7E+001
 21
2.875E+001
  0
ARC
  8
MED-1
  6
CONTINUOUS
 62
40
 10
-2.9E+001
 20
2.3E+001
 40
5.5
 50
9.0E+001
 51
1.8E+002
  0
ARC
  8
MED-1
  6
CONTINUOUS
 62
40
 10
-2.9E+001
 20
2.3E+001
 40
5.5
 50
1.8E+002
 51
2.7E+002
  0
LINE
  8
MED-1
  6
CONTINUOUS
 62
40
 10
-1.720481E+001
 20
2.85E+001
 11
-4.5
 21
2.85E+001
  0
LINE
  8
MED-1
  6
CONTINUOUS
 62
40
 10
-1.720481E+001
 20
2.85E+001
 11
-1.893975E+001
 21
2.85E+001
  0
LINE
  8
MED-1
  6
CONTINUOUS
 62
40
 10
-1.893975E+001
 20
2.85E+001
 11
-2.9E+001
 21
2.85E+001
  0
LINE
  8
MED-1
  6
CONTINUOUS
 62
40
 10
-2.9E+001
 20
1.75E+001
 11
-1.893975E+001
 21
1.75E+001
  0
LINE
  8
MED-1
  6
CONTINUOUS
 62
40
 10
-1.893975E+001
 20
1.75E+001
 11
-1.720481E+001
 21
1.75E+001
  0
LINE
  8
MED-1
  6
CONTINUOUS
 62
40
 10
-4.5
 20
1.75E+001
 11
-1.720481E+001
 21
1.75E+001
  0
LINE
  8
MED-1
  6
CONTINUOUS
 62
40
 10
-1.720481E+001
 20
1.75E+001
 11
-1.720481E+001
 21
2.85E+001
  0
LINE
  8
MED-1
  6
CONTINUOUS
 62
40
 10
-4.5
 20
2.85E+001
 11
-4.49999
 21
2.725001E+001
  0
LINE
  8
MED-1
  6
CONTINUOUS
 62
40
 10
-4.5
 20
1.875E+001
 11
-4.5
 21
1.75E+001
  0
LINE
  8
MED-1
  6
CONTINUOUS
 62
40
 10
-3.95E+001
 20
2.022236E+001
 11
-3.949975E+001
 21
1.946704E+001
  0
LINE
  8
MED-1
  6
CONTINUOUS
 62
40
 10
-3.95E+001
 20
2.022236E+001
 11
-3.95E+001
 21
2.023821E+001
  0
LINE
  8
MED-1
  6
CONTINUOUS
 62
40
 10
-3.95E+001
 20
2.57618E+001
 11
-3.95E+001
 21
2.023821E+001
  0
LINE
  8
MED-1
  6
CONTINUOUS
 62
40
 10
-3.95E+001
 20
2.650026E+001
 11
-3.95E+001
 21
2.582649E+001
  0
LINE
  8
MED-1
  6
CONTINUOUS
 62
40
 10
-3.95E+001
 20
2.57618E+001
 11
-3.95E+001
 21
2.582649E+001
  0
LINE
  8
MED-1
  6
CONTINUOUS
 62
40
 10
-3.95E+001
 20
2.66753E+001
 11
-3.95E+001
 21
2.650026E+001
  0
LINE
  8
MED-1
  6
CONTINUOUS
 62
40
 10
-3.630001E+001
 20
1.824997E+001
 11
-3.630001E+001
 21
1.898822E+001
  0
LINE
  8
MED-1
  6
CONTINUOUS
 62
40
 10
-3.177264E+001
 20
1.825E+001
 11
-3.205563E+001
 21
1.825E+001
  0
LINE
  8
MED-1
  6
CONTINUOUS
 62
40
 10
-3.205563E+001
 20
1.825E+001
 11
-3.233856E+001
 21
1.825E+001
  0
LINE
  8
MED-1
  6
CONTINUOUS
 62
40
 10
-3.233856E+001
 20
1.825E+001
 11
-3.262138E+001
 21
1.825E+001
  0
LINE
  8
MED-1
  6
CONTINUOUS
 62
40
 10
-3.262138E+001
 20
1.825E+001
 11
-3.290448E+001
 21
1.825E+001
  0
LINE
  8
MED-1
  6
CONTINUOUS
 62
40
 10
-3.290448E+001
 20
1.825E+001
 11
-3.318801E+001
 21
1.825E+001
  0
LINE
  8
MED-1
  6
CONTINUOUS
 62
40
 10
-3.318801E+001
 20
1.825E+001
 11
-3.34704E+001
 21
1.825E+001
  0
LINE
  8
MED-1
  6
CONTINUOUS
 62
40
 10
-3.34704E+001
 20
1.825E+001
 11
-3.37511E+001
 21
1.825E+001
  0
LINE
  8
MED-1
  6
CONTINUOUS
 62
40
 10
-3.37511E+001
 20
1.825E+001
 11
-3.403632E+001
 21
1.825E+001
  0
LINE
  8
MED-1
  6
CONTINUOUS
 62
40
 10
-3.403632E+001
 20
1.825E+001
 11
-3.432821E+001
 21
1.825E+001
  0
LINE
  8
MED-1
  6
CONTINUOUS
 62
40
 10
-3.432821E+001
 20
1.825E+001
 11
-3.460224E+001
 21
1.824999E+001
  0
LINE
  8
MED-1
  6
CONTINUOUS
 62
40
 10
-3.460224E+001
 20
1.824999E+001
 11
-3.484999E+001
 21
1.824999E+001
  0
LINE
  8
MED-1
  6
CONTINUOUS
 62
40
 10
-3.484999E+001
 20
1.824999E+001
 11
-3.516817E+001
 21
1.824999E+001
  0
LINE
  8
MED-1
  6
CONTINUOUS
 62
40
 10
-3.516817E+001
 20
1.824999E+001
 11
-3.565823E+001
 21
1.824998E+001
  0
LINE
  8
MED-1
  6
CONTINUOUS
 62
40
 10
-3.565823E+001
 20
1.824998E+001
 11
-3.630001E+001
 21
1.824997E+001
  0
LINE
  8
MED-1
  6
CONTINUOUS
 62
40
 10
-3.276239E+001
 20
1.898821E+001
 11
-3.630001E+001
 21
1.898822E+001
  0
LINE
  8
MED-1
  6
CONTINUOUS
 62
40
 10
-3.937653E+001
 20
1.938092E+001
 11
-3.93726E+001
 21
1.938556E+001
  0
ARC
  8
MED-1
  6
CONTINUOUS
 62
40
 10
-2.8385165E+001
 20
1.0051235E+001
 40
1.441712E+001
 50
1.3958391E+002
 51
1.3965059E+002
  0
LINE
  8
MED-1
  6
CONTINUOUS
 62
40
 10
-3.936173E+001
 20
1.939834E+001
 11
-3.934383E+001
 21
1.94194E+001
  0
LINE
  8
MED-1
  6
CONTINUOUS
 62
40
 10
-3.934383E+001
 20
1.94194E+001
 11
-3.931791E+001
 21
1.94499E+001
  0
LINE
  8
MED-1
  6
CONTINUOUS
 62
40
 10
-3.931791E+001
 20
1.94499E+001
 11
-3.92834E+001
 21
1.949049E+001
  0
LINE
  8
MED-1
  6
CONTINUOUS
 62
40
 10
-3.92834E+001
 20
1.949049E+001
 11
-3.924672E+001
 21
1.953364E+001
  0
LINE
  8
MED-1
  6
CONTINUOUS
 62
40
 10
-3.924672E+001
 20
1.953364E+001
 11
-3.920995E+001
 21
1.95769E+001
  0
LINE
  8
MED-1
  6
CONTINUOUS
 62
40
 10
-3.920995E+001
 20
1.95769E+001
 11
-3.915079E+001
 21
1.96465E+001
  0
LINE
  8
MED-1
  6
CONTINUOUS
 62
40
 10
-3.915079E+001
 20
1.96465E+001
 11
-3.904528E+001
 21
1.977062E+001
  0
LINE
  8
MED-1
  6
CONTINUOUS
 62
40
 10
-3.904528E+001
 20
1.977062E+001
 11
-3.889837E+001
 21
1.994343E+001
  0
LINE
  8
MED-1
  6
CONTINUOUS
 62
40
 10
-3.630001E+001
 20
1.824997E+001
 11
-3.647295E+001
 21
1.825306E+001
  0
ARC
  8
MED-1
  6
CONTINUOUS
 62
40
 10
-3.6297491E+001
 20
2.3292887E+001
 40
5.0428806
 50
2.6606087E+002
 51
2.6800608E+002
  0
ARC
  8
MED-1
  6
CONTINUOUS
 62
40
 10
-3.6301575E+001
 20
2.3120683E+001
 40
4.8708089
 50
2.6397496E+002
 51
2.6596964E+002
  0
ARC
  8
MED-1
  6
CONTINUOUS
 62
40
 10
-3.6313787E+001
 20
2.3013242E+001
 40
4.7626796
 50
2.6196142E+002
 51
2.639854E+002
  0
ARC
  8
MED-1
  6
CONTINUOUS
 62
40
 10
-3.6314903E+001
 20
2.2975249E+001
 40
4.7249057
 50
2.5988441E+002
 51
2.6191039E+002
  0
ARC
  8
MED-1
  6
CONTINUOUS
 62
40
 10
-3.6322487E+001
 20
2.2951077E+001
 40
4.6997785
 50
2.5789897E+002
 51
2.5992367E+002
  0
ARC
  8
MED-1
  6
CONTINUOUS
 62
40
 10
-3.6317237E+001
 20
2.2954942E+001
 40
4.7046604
 50
2.5583385E+002
 51
2.5784633E+002
  0
ARC
  8
MED-1
  6
CONTINUOUS
 62
40
 10
-3.6329182E+001
 20
2.2911913E+001
 40
4.6600159
 50
2.5381979E+002
 51
2.5584678E+002
  0
ARC
  8
MED-1
  6
CONTINUOUS
 62
40
 10
-3.6344775E+001
 20
2.2843603E+001
 40
4.5900692
 50
2.5171292E+002
 51
2.5376911E+002
  0
ARC
  8
MED-1
  6
CONTINUOUS
 62
40
 10
-3.6311492E+001
 20
2.2983475E+001
 40
4.7333367
 50
2.4987768E+002
 51
2.5186164E+002
  0
ARC
  8
MED-1
  6
CONTINUOUS
 62
40
 10
-3.6181201E+001
 20
2.33347E+001
 40
5.1079465
 50
2.480334E+002
 51
2.4986077E+002
  0
ARC
  8
MED-1
  6
CONTINUOUS
 62
40
 10
-3.6315887E+001
 20
2.2934926E+001
 40
4.6868783
 50
2.4570623E+002
 51
2.4773225E+002
  0
ARC
  8
MED-1
  6
CONTINUOUS
 62
40
 10
-3.6606349E+001
 20
2.2273988E+001
 40
3.9649732
 50
2.4314489E+002
 51
2.456025E+002
  0
ARC
  8
MED-1
  6
CONTINUOUS
 62
40
 10
-3.624115E+001
 20
2.3179089E+001
 40
4.9381325
 50
2.4225205E+002
 51
2.4410858E+002
  0
ARC
  8
MED-1
  6
CONTINUOUS
 62
40
 10
-3.2065266E+001
 20
3.1177506E+001
 40
1.3961015E+001
 50
2.4177296E+002
 51
2.4236799E+002
  0
ARC
  8
MED-1
  6
CONTINUOUS
 62
40
 10
-3.660438E+001
 20
2.2346754E+001
 40
4.0374599
 50
2.3658323E+002
 51
2.392557E+002
  0
ARC
  8
MED-1
  6
CONTINUOUS
 62
40
 10
-3.6823677E+001
 20
2.2038926E+001
 40
3.6597724
 50
2.3219282E+002
 51
2.3679483E+002
  0
ARC
  8
MED-1
  6
CONTINUOUS
 62
40
 10
-3.3133903E+001
 20
2.7330744E+001
 40
1.0107922E+001
 50
2.3185911E+002
 51
2.3405639E+002
  0
LINE
  8
MED-1
  6
CONTINUOUS
 62
40
 10
-3.630001E+001
 20
1.898822E+001
 11
-3.644607E+001
 21
1.899082E+001
  0
ARC
  8
MED-1
  6
CONTINUOUS
 62
40
 10
-3.6298338E+001
 20
2.3245989E+001
 40
4.2577323
 50
2.6606572E+002
 51
2.6801159E+002
  0
ARC
  8
MED-1
  6
CONTINUOUS
 62
40
 10
-3.6301475E+001
 20
2.3100503E+001
 40
4.1123802
 50
2.6397486E+002
 51
2.6597025E+002
  0
ARC
  8
MED-1
  6
CONTINUOUS
 62
40
 10
-3.631214E+001
 20
2.3009815E+001
 40
4.0210735
 50
2.6196568E+002
 51
2.6399035E+002
  0
ARC
  8
MED-1
  6
CONTINUOUS
 62
40
 10
-3.6312831E+001
 20
2.2977899E+001
 40
3.9893757
 50
2.598849E+002
 51
2.6191145E+002
  0
ARC
  8
MED-1
  6
CONTINUOUS
 62
40
 10
-3.6319063E+001
 20
2.2957974E+001
 40
3.9686668
 50
2.5789778E+002
 51
2.5992295E+002
  0
ARC
  8
MED-1
  6
CONTINUOUS
 62
40
 10
-3.6314832E+001
 20
2.2961074E+001
 40
3.9725872
 50
2.5583462E+002
 51
2.5784749E+002
  0
ARC
  8
MED-1
  6
CONTINUOUS
 62
40
 10
-3.6324723E+001
 20
2.2924947E+001
 40
3.9351377
 50
2.5381821E+002
 51
2.5584552E+002
  0
ARC
  8
MED-1
  6
CONTINUOUS
 62
40
 10
-3.6338085E+001
 20
2.2867673E+001
 40
3.8764107
 50
2.5171554E+002
 51
2.5377197E+002
  0
ARC
  8
MED-1
  6
CONTINUOUS
 62
40
 10
-3.6309584E+001
 20
2.2985627E+001
 40
3.9973634
 50
2.49874E+002
 51
2.5185808E+002
  0
ARC
  8
MED-1
  6
CONTINUOUS
 62
40
 10
-3.6199823E+001
 20
2.3282935E+001
 40
4.3142848
 50
2.4803655E+002
 51
2.4986391E+002
  0
ARC
  8
MED-1
  6
CONTINUOUS
 62
40
 10
-3.6313506E+001
 20
2.294483E+001
 40
3.958255
 50
2.4570611E+002
 51
2.4773223E+002
  0
ARC
  8
MED-1
  6
CONTINUOUS
 62
40
 10
-3.6558987E+001
 20
2.2386264E+001
 40
3.3481617
 50
2.4314436E+002
 51
2.456024E+002
  0
ARC
  8
MED-1
  6
CONTINUOUS
 62
40
 10
-3.6250662E+001
 20
2.3150308E+001
 40
4.1696748
 50
2.4225052E+002
 51
2.4410739E+002
  0
ARC
  8
MED-1
  6
CONTINUOUS
 62
40
 10
-3.2721591E+001
 20
2.9910087E+001
 40
1.1795207E+001
 50
2.4177318E+002
 51
2.4236806E+002
  0
ARC
  8
MED-1
  6
CONTINUOUS
 62
40
 10
-3.6557684E+001
 20
2.244713E+001
 40
3.4086908
 50
2.3658113E+002
 51
2.3925458E+002
  0
ARC
  8
MED-1
  6
CONTINUOUS
 62
40
 10
-3.6742858E+001
 20
2.2186921E+001
 40
3.0895375
 50
2.3218539E+002
 51
2.367897E+002
  0
ARC
  8
MED-1
  6
CONTINUOUS
 62
40
 10
-3.3627746E+001
 20
2.6653901E+001
 40
8.532872
 50
2.3185275E+002
 51
2.3405113E+002
  0
LINE
  8
MED-1
  6
CONTINUOUS
 62
40
 10
-3.937653E+001
 20
1.938092E+001
 11
-3.938783E+001
 21
1.939044E+001
  0
ARC
  8
MED-1
  6
CONTINUOUS
 62
40
 10
-4.0371214E+001
 20
1.8211041E+001
 40
1.5355867
 50
5.0178631E+001
 51
5.0696498E+001
  0
ARC
  8
MED-1
  6
CONTINUOUS
 62
40
 10
-4.0188881E+001
 20
1.8429918E+001
 40
1.2507263
 50
5.0808572E+001
 51
5.140246E+001
  0
ARC
  8
MED-1
  6
CONTINUOUS
 62
40
 10
-4.0052596E+001
 20
1.8598946E+001
 40
1.0336027
 50
5.1461535E+001
 51
5.2133791E+001
  0
ARC
  8
MED-1
  6
CONTINUOUS
 62
40
 10
-3.9963443E+001
 20
1.8712737E+001
 40
8.8904782E-001
 50
5.2168206E+001
 51
5.2898169E+001
  0
ARC
  8
MED-1
  6
CONTINUOUS
 62
40
 10
-3.9895248E+001
 20
1.8801573E+001
 40
7.7705764E-001
 50
5.2957234E+001
 51
5.3736617E+001
  0
ARC
  8
MED-1
  6
CONTINUOUS
 62
40
 10
-3.9849207E+001
 20
1.8862258E+001
 40
7.008952E-001
 50
5.3837084E+001
 51
5.4639992E+001
  0
ARC
  8
MED-1
  6
CONTINUOUS
 62
40
 10
-3.9769768E+001
 20
1.8972148E+001
 40
5.6530546E-001
 50
5.4760529E+001
 51
5.5700719E+001
  0
ARC
  8
MED-1
  6
CONTINUOUS
 62
40
 10
-3.9693815E+001
 20
1.9081203E+001
 40
4.3241601E-001
 50
5.5871809E+001
 51
5.7037154E+001
  0
ARC
  8
MED-1
  6
CONTINUOUS
 62
40
 10
-3.9700372E+001
 20
1.9075801E+001
 40
4.405232E-001
 50
5.6703906E+001
 51
5.7729603E+001
  0
ARC
  8
MED-1
  6
CONTINUOUS
 62
40
 10
-3.9863959E+001
 20
1.8817963E+001
 40
7.4587689E-001
 50
5.7679239E+001
 51
5.8203133E+001
  0
ARC
  8
MED-1
  6
CONTINUOUS
 62
40
 10
-3.9628724E+001
 20
1.9184377E+001
 40
3.1058211E-001
 50
5.9469723E+001
 51
6.0913372E+001
  0
ARC
  8
MED-1
  6
CONTINUOUS
 62
40
 10
-3.959502E+001
 20
1.924387E+001
 40
2.4220825E-001
 50
6.1039162E+001
 51
6.3638087E+001
  0
ARC
  8
MED-1
  6
CONTINUOUS
 62
40
 10
-3.9728574E+001
 20
1.8994802E+001
 40
5.2475653E-001
 50
6.2647841E+001
 51
6.4147429E+001
  0
LINE
  8
MED-1
  6
CONTINUOUS
 62
40
 10
-3.889837E+001
 20
1.994343E+001
 11
-3.892528E+001
 21
1.996566E+001
  0
ARC
  8
MED-1
  6
CONTINUOUS
 62
40
 10
-3.9750718E+001
 20
1.8939806E+001
 40
1.3167097
 50
5.1178618E+001
 51
5.2685371E+001
  0
ARC
  8
MED-1
  6
CONTINUOUS
 62
40
 10
-3.9727716E+001
 20
1.89674E+001
 40
1.2808214
 50
5.2755471E+001
 51
5.4292063E+001
  0
ARC
  8
MED-1
  6
CONTINUOUS
 62
40
 10
-3.971418E+001
 20
1.8987058E+001
 40
1.2569586
 50
5.4270085E+001
 51
5.5825653E+001
  0
ARC
  8
MED-1
  6
CONTINUOUS
 62
40
 10
-3.9707109E+001
 20
1.8995486E+001
 40
1.2460141
 50
5.5876972E+001
 51
5.7436414E+001
  0
ARC
  8
MED-1
  6
CONTINUOUS
 62
40
 10
-3.970309E+001
 20
1.9002815E+001
 40
1.2376739
 50
5.7410602E+001
 51
5.897135E+001
  0
ARC
  8
MED-1
  6
CONTINUOUS
 62
40
 10
-3.9701541E+001
 20
1.9003706E+001
 40
1.236113
 50
5.9011565E+001
 51
6.0566537E+001
  0
ARC
  8
MED-1
  6
CONTINUOUS
 62
40
 10
-3.9693561E+001
 20
1.9017575E+001
 40
1.2201121
 50
6.0572852E+001
 51
6.214333E+001
  0
ARC
  8
MED-1
  6
CONTINUOUS
 62
40
 10
-3.9681578E+001
 20
1.9038497E+001
 40
1.1960163
 50
6.2182556E+001
 51
6.3781316E+001
  0
ARC
  8
MED-1
  6
CONTINUOUS
 62
40
 10
-3.9695982E+001
 20
1.901456E+001
 40
1.2238562
 50
6.3671434E+001
 51
6.5223549E+001
  0
ARC
  8
MED-1
  6
CONTINUOUS
 62
40
 10
-3.9729645E+001
 20
1.8940485E+001
 40
1.30522
 50
6.5244604E+001
 51
6.6688969E+001
  0
ARC
  8
MED-1
  6
CONTINUOUS
 62
40
 10
-3.9686622E+001
 20
1.902948E+001
 40
1.2064724
 50
6.6892865E+001
 51
6.8477617E+001
  0
ARC
  8
MED-1
  6
CONTINUOUS
 62
40
 10
-3.9625285E+001
 20
1.9182182E+001
 40
1.0419151
 50
6.8534757E+001
 51
7.0412085E+001
  0
ARC
  8
MED-1
  6
CONTINUOUS
 62
40
 10
-3.9726645E+001
 20
1.8947074E+001
 40
1.297506
 50
6.9675794E+001
 51
7.1091114E+001
  0
ARC
  8
MED-1
  6
CONTINUOUS
 62
40
 10
-4.047828E+001
 20
1.6767453E+001
 40
3.6030852
 50
7.1015803E+001
 51
7.1476784E+001
  0
ARC
  8
MED-1
  6
CONTINUOUS
 62
40
 10
-3.9637501E+001
 20
1.916672E+001
 40
1.0615833
 50
7.3366259E+001
 51
7.5380008E+001
  0
ARC
  8
MED-1
  6
CONTINUOUS
 62
40
 10
-3.9609144E+001
 20
1.928343E+001
 40
9.4149625E-001
 50
7.5257102E+001
 51
7.8770034E+001
  0
ARC
  8
MED-1
  6
CONTINUOUS
 62
40
 10
-3.9982033E+001
 20
1.7725251E+001
 40
2.5432237
 50
7.7366389E+001
 51
7.9073593E+001
  0
LINE
  8
MED-1
  6
CONTINUOUS
 62
40
 10
-3.949997E+001
 20
1.949997E+001
 11
-5.8325081E+001
 21
1.949997E+001
  0
LINE
  8
MED-1
  6
CONTINUOUS
 62
40
 10
-5.9171194E+001
 20
2.6499957E+001
 11
-3.95E+001
 21
2.650026E+001
  0
LINE
  8
MED-1
  6
CONTINUOUS
 62
40
 10
-3.949997E+001
 20
2.582647E+001
 11
-3.948022E+001
 21
2.583333E+001
  0
ARC
  8
MED-1
  6
CONTINUOUS
 62
40
 10
-3.9903388E+001
 20
2.7019663E+001
 40
1.2595459
 50
2.8963145E+002
 51
2.9058286E+002
  0
ARC
  8
MED-1
  6
CONTINUOUS
 62
40
 10
-3.9909348E+001
 20
2.7033549E+001
 40
1.2746414
 50
2.9061423E+002
 51
2.9155512E+002
  0
ARC
  8
MED-1
  6
CONTINUOUS
 62
40
 10
-3.9905194E+001
 20
2.7024235E+001
 40
1.2644526
 50
2.9153509E+002
 51
2.9248424E+002
  0
ARC
  8
MED-1
  6
CONTINUOUS
 62
40
 10
-3.9891854E+001
 20
2.698946E+001
 40
1.22722
 50
2.9252969E+002
 51
2.9350872E+002
  0
ARC
  8
MED-1
  6
CONTINUOUS
 62
40
 10
-3.9887867E+001
 20
2.6980377E+001
 40
1.2173006
 50
2.9350717E+002
 51
2.9449539E+002
  0
ARC
  8
MED-1
  6
CONTINUOUS
 62
40
 10
-3.9892536E+001
 20
2.698969E+001
 40
1.2277111
 50
2.9451348E+002
 51
2.9549395E+002
  0
ARC
  8
MED-1
  6
CONTINUOUS
 62
40
 10
-3.9889207E+001
 20
2.6981887E+001
 40
1.2192352
 50
2.9551056E+002
 51
2.965009E+002
  0
ARC
  8
MED-1
  6
CONTINUOUS
 62
40
 10
-3.9877647E+001
 20
2.6957932E+001
 40
1.1926387
 50
2.9651741E+002
 51
2.9753347E+002
  0
ARC
  8
MED-1
  6
CONTINUOUS
 62
40
 10
-3.9890838E+001
 20
2.6986329E+001
 40
1.223919
 50
2.9746652E+002
 51
2.9845499E+002
  0
ARC
  8
MED-1
  6
CONTINUOUS
 62
40
 10
-3.9930594E+001
 20
2.7058514E+001
 40
1.3063256
 50
2.984795E+002
 51
2.9940221E+002
  0
ARC
  8
MED-1
  6
CONTINUOUS
 62
40
 10
-3.9881987E+001
 20
2.6966142E+001
 40
1.2019925
 50
2.9954533E+002
 51
3.005675E+002
  0
ARC
  8
MED-1
  6
CONTINUOUS
 62
40
 10
-3.9795855E+001
 20
2.6818792E+001
 40
1.0313174
 50
3.0061046E+002
 51
3.0183443E+002
  0
ARC
  8
MED-1
  6
CONTINUOUS
 62
40
 10
-3.9921851E+001
 20
2.704171E+001
 40
1.2872044
 50
3.0136535E+002
 51
3.0228792E+002
  0
ARC
  8
MED-1
  6
CONTINUOUS
 62
40
 10
-4.1115315E+001
 20
2.8937703E+001
 40
3.5275486
 50
3.0222512E+002
 51
3.0252995E+002
  0
ARC
  8
MED-1
  6
CONTINUOUS
 62
40
 10
-3.9808446E+001
 20
2.6847172E+001
 40
1.0624782
 50
3.037341E+002
 51
3.0504502E+002
  0
ARC
  8
MED-1
  6
CONTINUOUS
 62
40
 10
-3.9749358E+001
 20
2.6765436E+001
 40
9.6163213E-001
 50
3.0495919E+002
 51
3.0720721E+002
  0
ARC
  8
MED-1
  6
CONTINUOUS
 62
40
 10
-4.0720019E+001
 20
2.8112353E+001
 40
2.6216747
 50
3.0630252E+002
 51
3.0738644E+002
  0
LINE
  8
MED-1
  6
CONTINUOUS
 62
40
 10
-3.912817E+001
 20
2.602928E+001
 11
-3.901113E+001
 21
2.611919E+001
  0
ARC
  8
MED-1
  6
CONTINUOUS
 62
40
 10
-3.6314213E+001
 20
2.2489696E+001
 40
4.52179
 50
1.2476158E+002
 51
1.2661441E+002
  0
ARC
  8
MED-1
  6
CONTINUOUS
 62
40
 10
-3.6399416E+001
 20
2.260085E+001
 40
4.3818995
 50
1.2277968E+002
 51
1.2467501E+002
  0
ARC
  8
MED-1
  6
CONTINUOUS
 62
40
 10
-3.6447488E+001
 20
2.2677637E+001
 40
4.2913134
 50
1.2087379E+002
 51
1.2279511E+002
  0
ARC
  8
MED-1
  6
CONTINUOUS
 62
40
 10
-3.646888E+001
 20
2.270557E+001
 40
4.2563626
 50
1.1889484E+002
 51
1.2081958E+002
  0
ARC
  8
MED-1
  6
CONTINUOUS
 62
40
 10
-3.6477238E+001
 20
2.2726249E+001
 40
4.2342209
 50
1.1700678E+002
 51
1.1893104E+002
  0
ARC
  8
MED-1
  6
CONTINUOUS
 62
40
 10
-3.6478651E+001
 20
2.2721207E+001
 40
4.2380728
 50
1.1504523E+002
 51
1.169588E+002
  0
ARC
  8
MED-1
  6
CONTINUOUS
 62
40
 10
-3.6496069E+001
 20
2.2759083E+001
 40
4.196385
 50
1.131201E+002
 51
1.1504871E+002
  0
ARC
  8
MED-1
  6
CONTINUOUS
 62
40
 10
-3.6524944E+001
 20
2.2819345E+001
 40
4.1296255
 50
1.1112132E+002
 51
1.1307995E+002
  0
ARC
  8
MED-1
  6
CONTINUOUS
 62
40
 10
-3.647077E+001
 20
2.2706469E+001
 40
4.254451
 50
1.093624E+002
 51
1.1125412E+002
  0
ARC
  8
MED-1
  6
CONTINUOUS
 62
40
 10
-3.6362625E+001
 20
2.2394864E+001
 40
4.5842867
 50
1.0760138E+002
 51
1.0934639E+002
  0
ARC
  8
MED-1
  6
CONTINUOUS
 62
40
 10
-3.649762E+001
 20
2.27506E+001
 40
4.2044368
 50
1.0537832E+002
 51
1.0731379E+002
  0
ARC
  8
MED-1
  6
CONTINUOUS
 62
40
 10
-3.667529E+001
 20
2.3372473E+001
 40
3.5577185
 50
1.0292874E+002
 51
1.0527537E+002
  0
ARC
  8
MED-1
  6
CONTINUOUS
 62
40
 10
-3.6410827E+001
 20
2.2540806E+001
 40
4.4280525
 50
1.0208281E+002
 51
1.0385629E+002
  0
ARC
  8
MED-1
  6
CONTINUOUS
 62
40
 10
-3.4702433E+001
 20
1.4668314E+001
 40
1.2483768E+001
 50
1.0161676E+002
 51
1.021867E+002
  0
ARC
  8
MED-1
  6
CONTINUOUS
 62
40
 10
-3.663702E+001
 20
2.3325844E+001
 40
3.6171989
 50
9.6661872E+001
 51
9.9214096E+001
  0
ARC
  8
MED-1
  6
CONTINUOUS
 62
40
 10
-3.6665964E+001
 20
2.3670595E+001
 40
3.2714371
 50
9.2458936E+001
 51
9.6858818E+001
  0
ARC
  8
MED-1
  6
CONTINUOUS
 62
40
 10
-3.6140364E+001
 20
1.7953463E+001
 40
9.0102017
 50
9.2133274E+001
 51
9.4238674E+001
  0
LINE
  8
MED-1
  6
CONTINUOUS
 62
40
 10
-3.647576E+001
 20
2.695742E+001
 11
-3.624685E+001
 21
2.695745E+001
  0
LINE
  8
MED-1
  6
CONTINUOUS
 62
40
 10
-3.624685E+001
 20
2.695745E+001
 11
-3.601798E+001
 21
2.695753E+001
  0
LINE
  8
MED-1
  6
CONTINUOUS
 62
40
 10
-3.601798E+001
 20
2.695753E+001
 11
-3.578921E+001
 21
2.695766E+001
  0
LINE
  8
MED-1
  6
CONTINUOUS
 62
40
 10
-3.578921E+001
 20
2.695766E+001
 11
-3.55602E+001
 21
2.695783E+001
  0
LINE
  8
MED-1
  6
CONTINUOUS
 62
40
 10
-3.55602E+001
 20
2.695783E+001
 11
-3.533085E+001
 21
2.695805E+001
  0
LINE
  8
MED-1
  6
CONTINUOUS
 62
40
 10
-3.533085E+001
 20
2.695805E+001
 11
-3.510243E+001
 21
2.695832E+001
  0
LINE
  8
MED-1
  6
CONTINUOUS
 62
40
 10
-3.510243E+001
 20
2.695832E+001
 11
-3.487537E+001
 21
2.695862E+001
  0
LINE
  8
MED-1
  6
CONTINUOUS
 62
40
 10
-3.487537E+001
 20
2.695862E+001
 11
-3.464466E+001
 21
2.695897E+001
  0
LINE
  8
MED-1
  6
CONTINUOUS
 62
40
 10
-3.464466E+001
 20
2.695897E+001
 11
-3.440856E+001
 21
2.695938E+001
  0
LINE
  8
MED-1
  6
CONTINUOUS
 62
40
 10
-3.440856E+001
 20
2.695938E+001
 11
-3.418689E+001
 21
2.695979E+001
  0
LINE
  8
MED-1
  6
CONTINUOUS
 62
40
 10
-3.418689E+001
 20
2.695979E+001
 11
-3.398649E+001
 21
2.696019E+001
  0
LINE
  8
MED-1
  6
CONTINUOUS
 62
40
 10
-3.398649E+001
 20
2.696019E+001
 11
-3.372912E+001
 21
2.696077E+001
  0
LINE
  8
MED-1
  6
CONTINUOUS
 62
40
 10
-3.372912E+001
 20
2.696077E+001
 11
-3.333272E+001
 21
2.696178E+001
  0
LINE
  8
MED-1
  6
CONTINUOUS
 62
40
 10
-3.333272E+001
 20
2.696178E+001
 11
-3.281359E+001
 21
2.696316E+001
  0
LINE
  8
MED-1
  6
CONTINUOUS
 62
40
 10
-3.949997E+001
 20
2.650024E+001
 11
-3.94796E+001
 21
2.647443E+001
  0
LINE
  8
MED-1
  6
CONTINUOUS
 62
40
 10
-3.94796E+001
 20
2.647443E+001
 11
-3.945731E+001
 21
2.644619E+001
  0
LINE
  8
MED-1
  6
CONTINUOUS
 62
40
 10
-3.945731E+001
 20
2.644619E+001
 11
-3.943315E+001
 21
2.641559E+001
  0
LINE
  8
MED-1
  6
CONTINUOUS
 62
40
 10
-3.943315E+001
 20
2.641559E+001
 11
-3.940637E+001
 21
2.638167E+001
  0
LINE
  8
MED-1
  6
CONTINUOUS
 62
40
 10
-3.940637E+001
 20
2.638167E+001
 11
-3.937663E+001
 21
2.6344E+001
  0
LINE
  8
MED-1
  6
CONTINUOUS
 62
40
 10
-3.937663E+001
 20
2.6344E+001
 11
-3.934751E+001
 21
2.630711E+001
  0
LINE
  8
MED-1
  6
CONTINUOUS
 62
40
 10
-3.934751E+001
 20
2.630711E+001
 11
-3.932017E+001
 21
2.627248E+001
  0
LINE
  8
MED-1
  6
CONTINUOUS
 62
40
 10
-3.932017E+001
 20
2.627248E+001
 11
-3.928116E+001
 21
2.622307E+001
  0
LINE
  8
MED-1
  6
CONTINUOUS
 62
40
 10
-3.928116E+001
 20
2.622307E+001
 11
-3.92162E+001
 21
2.614078E+001
  0
LINE
  8
MED-1
  6
CONTINUOUS
 62
40
 10
-3.92162E+001
 20
2.614078E+001
 11
-3.912817E+001
 21
2.602928E+001
  0
LINE
  8
MED-1
  6
CONTINUOUS
 62
40
 10
-3.647304E+001
 20
2.769567E+001
 11
-3.647576E+001
 21
2.695742E+001
  0
ARC
  8
MED-1
  6
CONTINUOUS
 62
40
 10
-3.647305E+001
 20
2.269565E+001
 40
5.0
 50
8.999989E+001
 51
1.2725694E+002
  0
LINE
  8
MED-1
  6
CONTINUOUS
 62
40
 10
-3.647304E+001
 20
2.769567E+001
 11
-3.183593E+001
 21
2.771249E+001
  0
LINE
  8
MED-1
  6
CONTINUOUS
 62
40
 10
1.4E+001
 20
2.3E+001
 11
1.4E+001
 21
2.52E+001
  0
LINE
  8
MED-1
  6
CONTINUOUS
 62
40
 10
1.4E+001
 20
2.08E+001
 11
1.4E+001
 21
2.3E+001
  0
LINE
  8
MED-1
  6
CONTINUOUS
 62
40
 10
-5.3
 20
2.3E+001
 11
-5.3
 21
1.905E+001
  0
LINE
  8
MED-1
  6
CONTINUOUS
 62
40
 10
-5.3
 20
2.695E+001
 11
-5.3
 21
2.3E+001
  0
LINE
  8
MED-1
  6
CONTINUOUS
 62
40
 10
1.400003E+001
 20
2.079999E+001
 11
1.369996E+001
 21
2.05E+001
  0
LINE
  8
MED-1
  6
CONTINUOUS
 62
40
 10
1.369996E+001
 20
2.3E+001
 11
1.369996E+001
 21
2.05E+001
  0
LINE
  8
MED-1
  6
CONTINUOUS
 62
40
 10
1.369996E+001
 20
2.549999E+001
 11
1.369996E+001
 21
2.3E+001
  0
LINE
  8
MED-1
  6
CONTINUOUS
 62
40
 10
1.369996E+001
 20
2.549999E+001
 11
1.400003E+001
 21
2.52E+001
  0
LINE
  8
MED-1
  6
CONTINUOUS
 62
40
 10
-5.00001
 20
2.3E+001
 11
-5.00001
 21
2.725001E+001
  0
LINE
  8
MED-1
  6
CONTINUOUS
 62
40
 10
-5.00001
 20
1.874998E+001
 11
-5.00001
 21
2.3E+001
  0
LINE
  8
MED-1
  6
CONTINUOUS
 62
40
 10
-5.00001
 20
2.725001E+001
 11
-1.99999
 21
2.725001E+001
  0
LINE
  8
MED-1
  6
CONTINUOUS
 62
40
 10
-1.99999
 20
1.874998E+001
 11
-5.00001
 21
1.874998E+001
  0
LINE
  8
MED-1
  6
CONTINUOUS
 62
40
 10
1.369996E+001
 20
2.05E+001
 11
-1.0E-005
 21
2.05E+001
  0
LINE
  8
MED-1
  6
CONTINUOUS
 62
40
 10
-1.0E-005
 20
2.549999E+001
 11
1.369996E+001
 21
2.549999E+001
  0
LINE
  8
MED-1
  6
CONTINUOUS
 62
40
 10
-5.00001
 20
1.874998E+001
 11
-5.01793
 21
1.87505E+001
  0
ARC
  8
MED-1
  6
CONTINUOUS
 62
40
 10
-5.0013833
 20
1.9030422E+001
 40
2.8041036E-001
 50
2.6288609E+002
 51
2.6661708E+002
  0
ARC
  8
MED-1
  6
CONTINUOUS
 62
40
 10
-4.9988784
 20
1.9054927E+001
 40
3.0503748E-001
 50
2.5947651E+002
 51
2.6298923E+002
  0
ARC
  8
MED-1
  6
CONTINUOUS
 62
40
 10
-4.9967401
 20
1.9066763E+001
 40
3.1706532E-001
 50
2.5604193E+002
 51
2.5948726E+002
  0
ARC
  8
MED-1
  6
CONTINUOUS
 62
40
 10
-4.9978191
 20
1.9056717E+001
 40
3.0705904E-001
 50
2.5216189E+002
 51
2.5578516E+002
  0
ARC
  8
MED-1
  6
CONTINUOUS
 62
40
 10
-4.9984952
 20
1.9054538E+001
 40
3.047772E-001
 50
2.4845281E+002
 51
2.5215739E+002
  0
ARC
  8
MED-1
  6
CONTINUOUS
 62
40
 10
-4.9976155
 20
1.905489E+001
 40
3.0542888E-001
 50
2.4457189E+002
 51
2.4832358E+002
  0
ARC
  8
MED-1
  6
CONTINUOUS
 62
40
 10
-4.997383
 20
1.9055617E+001
 40
3.061851E-001
 50
2.4080823E+002
 51
2.44591E+002
  0
ARC
  8
MED-1
  6
CONTINUOUS
 62
40
 10
-4.9977528
 20
1.905306E+001
 40
3.0377374E-001
 50
2.3678381E+002
 51
2.4063388E+002
  0
ARC
  8
MED-1
  6
CONTINUOUS
 62
40
 10
-4.9978795
 20
1.9053467E+001
 40
3.0404515E-001
 50
2.3297367E+002
 51
2.368458E+002
  0
ARC
  8
MED-1
  6
CONTINUOUS
 62
40
 10
-4.9971452
 20
1.9053276E+001
 40
3.0433578E-001
 50
2.2895445E+002
 51
2.3284168E+002
  0
ARC
  8
MED-1
  6
CONTINUOUS
 62
40
 10
-4.9985282
 20
1.9051876E+001
 40
3.0237185E-001
 50
2.2505287E+002
 51
2.289779E+002
  0
ARC
  8
MED-1
  6
CONTINUOUS
 62
40
 10
-5.0017395
 20
1.9047588E+001
 40
2.9706876E-001
 50
2.2090882E+002
 51
2.2490687E+002
  0
ARC
  8
MED-1
  6
CONTINUOUS
 62
40
 10
-4.998844
 20
1.9051627E+001
 40
3.0190478E-001
 50
2.1721574E+002
 51
2.2112838E+002
  0
ARC
  8
MED-1
  6
CONTINUOUS
 62
40
 10
-4.9871059
 20
1.9060196E+001
 40
3.1643519E-001
 50
2.1346611E+002
 51
2.1716585E+002
  0
ARC
  8
MED-1
  6
CONTINUOUS
 62
40
 10
-5.0030283
 20
1.9047169E+001
 40
2.9597588E-001
 50
2.090856E+002
 51
2.13062E+002
  0
ARC
  8
MED-1
  6
CONTINUOUS
 62
40
 10
-5.0337748
 20
1.9029458E+001
 40
2.604978E-001
 50
2.0440849E+002
 51
2.0896885E+002
  0
ARC
  8
MED-1
  6
CONTINUOUS
 62
40
 10
-4.9937925
 20
1.9056553E+001
 40
3.0821103E-001
 50
2.0230605E+002
 51
2.0592388E+002
  0
ARC
  8
MED-1
  6
CONTINUOUS
 62
40
 10
-4.711885
 20
1.9174874E+001
 40
6.1393744E-001
 50
2.0089688E+002
 51
2.0253636E+002
  0
ARC
  8
MED-1
  6
CONTINUOUS
 62
40
 10
-5.0327975
 20
1.9033479E+001
 40
2.6428833E-001
 50
1.9239051E+002
 51
1.970723E+002
  0
ARC
  8
MED-1
  6
CONTINUOUS
 62
40
 10
-5.060162
 20
1.902839E+001
 40
2.3647093E-001
 50
1.8481037E+002
 51
1.9260881E+002
  0
ARC
  8
MED-1
  6
CONTINUOUS
 62
40
 10
-4.7102045
 20
1.9088862E+001
 40
5.9107578E-001
 50
1.8377179E+002
 51
1.8780825E+002
  0
LINE
  8
MED-1
  6
CONTINUOUS
 62
40
 10
-5.3
 20
2.695001E+001
 11
-5.29948
 21
2.696794E+001
  0
ARC
  8
MED-1
  6
CONTINUOUS
 62
40
 10
-5.0196396
 20
2.6951554E+001
 40
2.8031978E-001
 50
1.7291684E+002
 51
1.7664884E+002
  0
ARC
  8
MED-1
  6
CONTINUOUS
 62
40
 10
-4.9953109
 20
2.6948896E+001
 40
3.0479065E-001
 50
1.6947134E+002
 51
1.7298505E+002
  0
ARC
  8
MED-1
  6
CONTINUOUS
 62
40
 10
-4.9833148
 20
2.6946759E+001
 40
3.1697531E-001
 50
1.6604144E+002
 51
1.6948775E+002
  0
ARC
  8
MED-1
  6
CONTINUOUS
 62
40
 10
-4.993361
 20
2.6948001E+001
 40
3.0692865E-001
 50
1.6218975E+002
 51
1.6581405E+002
  0
ARC
  8
MED-1
  6
CONTINUOUS
 62
40
 10
-4.9955416
 20
2.6948524E+001
 40
3.0469277E-001
 50
1.5845229E+002
 51
1.621579E+002
  0
ARC
  8
MED-1
  6
CONTINUOUS
 62
40
 10
-4.9953421
 20
2.6947796E+001
 40
3.0514626E-001
 50
1.5458622E+002
 51
1.5833891E+002
  0
ARC
  8
MED-1
  6
CONTINUOUS
 62
40
 10
-4.9943048
 20
2.6947262E+001
 40
3.0631231E-001
 50
1.5079557E+002
 51
1.545793E+002
  0
ARC
  8
MED-1
  6
CONTINUOUS
 62
40
 10
-4.9970047
 20
2.6947938E+001
 40
3.0362669E-001
 50
1.4680736E+002
 51
1.5065832E+002
  0
ARC
  8
MED-1
  6
CONTINUOUS
 62
40
 10
-4.9965895
 20
2.6947768E+001
 40
3.0406722E-001
 50
1.4295045E+002
 51
1.4682339E+002
  0
ARC
  8
MED-1
  6
CONTINUOUS
 62
40
 10
-4.9967723
 20
2.6947328E+001
 40
3.0418661E-001
 50
1.3897564E+002
 51
1.4286358E+002
  0
ARC
  8
MED-1
  6
CONTINUOUS
 62
40
 10
-4.9983114
 20
2.6948553E+001
 40
3.0222153E-001
 50
1.3503372E+002
 51
1.3895931E+002
  0
ARC
  8
MED-1
  6
CONTINUOUS
 62
40
 10
-5.0022983
 20
2.6951755E+001
 40
2.9713827E-001
 50
1.3092888E+002
 51
1.349273E+002
  0
ARC
  8
MED-1
  6
CONTINUOUS
 62
40
 10
-4.9983897
 20
2.6948712E+001
 40
3.0199921E-001
 50
1.2719806E+002
 51
1.3111096E+002
  0
ARC
  8
MED-1
  6
CONTINUOUS
 62
40
 10
-4.9898117
 20
2.6937117E+001
 40
3.164215E-001
 50
1.2346603E+002
 51
1.2716593E+002
  0
ARC
  8
MED-1
  6
CONTINUOUS
 62
40
 10
-5.0028376
 20
2.6953174E+001
 40
2.9585019E-001
 50
1.1909999E+002
 51
1.2307642E+002
  0
ARC
  8
MED-1
  6
CONTINUOUS
 62
40
 10
-5.0205428
 20
2.6983641E+001
 40
2.6061959E-001
 50
1.1439616E+002
 51
1.1895635E+002
  0
ARC
  8
MED-1
  6
CONTINUOUS
 62
40
 10
-4.9934373
 20
2.694377E+001
 40
3.0823548E-001
 50
1.1230619E+002
 51
1.1592374E+002
  0
ARC
  8
MED-1
  6
CONTINUOUS
 62
40
 10
-4.875103
 20
2.6661826E+001
 40
6.1400079E-001
 50
1.1089696E+002
 51
1.1253627E+002
  0
ARC
  8
MED-1
  6
CONTINUOUS
 62
40
 10
-5.0165073
 20
2.6982643E+001
 40
2.6443979E-001
 50
1.0238406E+002
 51
1.0706526E+002
  0
ARC
  8
MED-1
  6
CONTINUOUS
 62
40
 10
-5.0215935
 20
2.701012E+001
 40
2.3651374E-001
 50
9.4811077E+001
 51
1.0260811E+002
  0
ARC
  8
MED-1
  6
CONTINUOUS
 62
40
 10
-4.9609722
 20
2.6660078E+001
 40
5.9122232E-001
 50
9.3785931E+001
 51
9.7821489E+001
  0
LINE
  8
104
  6
CONTINUOUS
 62
1
 10
1.4E+001
 20
2.520003E+001
 11
0.0
 21
2.520003E+001
  0
LINE
  8
104
  6
CONTINUOUS
 62
1
 10
1.4E+001
 20
2.079996E+001
 11
0.0
 21
2.079996E+001
  0
ARC
  8
MED-1
  6
CONTINUOUS
 62
40
 10
-1.2E+001
 20
1.958334E+001
 40
6.0833333
 50
2.7E+002
 51
3.1111209E+002
  0
ARC
  8
MED-1
  6
CONTINUOUS
 62
40
 10
-1.2E+001
 20
1.958334E+001
 40
6.0833332
 50
2.2888791E+002
 51
2.7E+002
  0
LINE
  8
106
  6
CENTERLINE
 62
1
 10
1.845441E+001
 20
2.3E+001
 11
-5.8959662E+001
 21
2.3E+001
  0
POINT
  8
Drafting_Hidden_Entities
  6
CONTINUOUS
 62
1
 10
0.0
 20
0.0
  0
ENDBLK
  0
BLOCK
  2
2
 10
0.0
 20
0.0
 70
0
  0
CIRCLE
  8
105
  6
HIDDEN
 62
1
 10
1.2199947E+002
 20
-1.0491648E+001
 40
4.75
  0
CIRCLE
  8
105
  6
HIDDEN
 62
1
 10
7.199947E+001
 20
-1.0491648E+001
 40
2.5
  0
LINE
  8
106
  6
CENTERLINE
 62
1
 10
1.2199947E+002
 20
-6.1077648E+001
 11
1.2199947E+002
 21
-5.0044648E+001
  0
LINE
  8
106
  6
CENTERLINE
 62
1
 10
1.2800197E+002
 20
-1.0491648E+001
 11
1.1623197E+002
 21
-1.0491648E+001
  0
LINE
  8
106
  6
CENTERLINE
 62
1
 10
7.800197E+001
 20
-1.0491648E+001
 11
6.623197E+001
 21
-1.0491648E+001
  0
LINE
  8
106
  6
CENTERLINE
 62
1
 10
2.800197E+001
 20
-1.0491648E+001
 11
1.623197E+001
 21
-1.0491648E+001
  0
LINE
  8
106
  6
CENTERLINE
 62
1
 10
2.800197E+001
 20
-5.5491648E+001
 11
1.623197E+001
 21
-5.5491648E+001
  0
LINE
  8
106
  6
CENTERLINE
 62
1
 10
7.800197E+001
 20
-5.5491648E+001
 11
6.623197E+001
 21
-5.5491648E+001
  0
LINE
  8
106
  6
CENTERLINE
 62
1
 10
1.2800197E+002
 20
-5.5491648E+001
 11
1.1623197E+002
 21
-5.5491648E+001
  0
LINE
  8
106
  6
CENTERLINE
 62
1
 10
7.199947E+001
 20
-6.1077648E+001
 11
7.199947E+001
 21
-5.0044648E+001
  0
LINE
  8
106
  6
CENTERLINE
 62
1
 10
2.199947E+001
 20
-6.1077648E+001
 11
2.199947E+001
 21
-5.0044648E+001
  0
LINE
  8
106
  6
CENTERLINE
 62
1
 10
2.199947E+001
 20
-1.6077648E+001
 11
2.199947E+001
 21
-5.0446478
  0
LINE
  8
106
  6
CENTERLINE
 62
1
 10
7.199947E+001
 20
-1.6077648E+001
 11
7.199947E+001
 21
-5.0446478
  0
LINE
  8
106
  6
CENTERLINE
 62
1
 10
1.2199947E+002
 20
-1.6077648E+001
 11
1.2199947E+002
 21
-5.0446478
  0
CIRCLE
  8
105
  6
HIDDEN
 62
1
 10
7.199947E+001
 20
-5.5491648E+001
 40
2.5
  0
CIRCLE
  8
105
  6
HIDDEN
 62
1
 10
1.2199947E+002
 20
-5.5491648E+001
 40
4.75
  0
CIRCLE
  8
105
  6
HIDDEN
 62
1
 10
7.199947E+001
 20
-5.5491648E+001
 40
4.75
  0
CIRCLE
  8
105
  6
HIDDEN
 62
1
 10
7.199947E+001
 20
-1.0491648E+001
 40
4.75
  0
CIRCLE
  8
105
  6
HIDDEN
 62
1
 10
2.199947E+001
 20
-1.0491648E+001
 40
4.75
  0
CIRCLE
  8
105
  6
HIDDEN
 62
1
 10
2.199947E+001
 20
-5.5491648E+001
 40
4.75
  0
LINE
  8
106
  6
CENTERLINE
 62
1
 10
-5.3E-004
 20
-6.8741648E+001
 11
-5.3E-004
 21
1.6508352E+001
  0
LINE
  8
104
  6
CONTINUOUS
 62
40
 10
-7.650153E+001
 20
-2.9916477
 11
-7.650153E+001
 21
-6.2991648E+001
  0
LINE
  8
104
  6
CONTINUOUS
 62
40
 10
-7.650153E+001
 20
-6.2991648E+001
 11
1.5649947E+002
 21
-6.2991648E+001
  0
LINE
  8
104
  6
CONTINUOUS
 62
40
 10
1.5649947E+002
 20
-6.2991648E+001
 11
1.5649947E+002
 21
-2.9916477
  0
LINE
  8
104
  6
CONTINUOUS
 62
40
 10
1.5649947E+002
 20
-2.9916477
 11
-7.650153E+001
 21
-2.9916477
  0
LINE
  8
104
  6
CONTINUOUS
 62
40
 10
-7.650153E+001
 20
-5.2916478
 11
1.5649947E+002
 21
-5.2916478
  0
LINE
  8
104
  6
CONTINUOUS
 62
40
 10
-7.650153E+001
 20
-6.0691648E+001
 11
1.5649947E+002
 21
-6.0691648E+001
  0
LINE
  8
104
  6
CONTINUOUS
 62
40
 10
-1.494303E+001
 20
-6.2991648E+001
 11
-8.39803
 21
-6.7241648E+001
  0
LINE
  8
104
  6
CONTINUOUS
 62
40
 10
-8.39803
 20
-6.7241648E+001
 11
8.39447
 21
-6.7241648E+001
  0
LINE
  8
104
  6
CONTINUOUS
 62
40
 10
8.39447
 20
-6.7241648E+001
 11
1.493947E+001
 21
-6.2991648E+001
  0
LINE
  8
104
  6
CONTINUOUS
 62
40
 10
1.493947E+001
 20
-6.2991648E+001
 11
-1.494303E+001
 21
-6.2991648E+001
  0
LINE
  8
106
  6
CENTERLINE
 62
1
 10
7.999947E+001
 20
2.7508352E+001
 11
6.824947E+001
 21
2.7508352E+001
  0
LINE
  8
MED-1
  6
CONTINUOUS
 62
40
 10
1.1E+001
 20
-2.9916477
 11
1.1E+001
 21
1.1508362E+001
  0
LINE
  8
MED-1
  6
CONTINUOUS
 62
40
 10
-1.083607E+001
 20
1.1508352E+001
 11
-1.1E+001
 21
1.1508352E+001
  0
LINE
  8
MED-1
  6
CONTINUOUS
 62
40
 10
-1.059235E+001
 20
1.1508362E+001
 11
-1.083607E+001
 21
1.1508352E+001
  0
LINE
  8
MED-1
  6
CONTINUOUS
 62
40
 10
-1.1E+001
 20
1.1508352E+001
 11
-1.1E+001
 21
-2.9916477
  0
LINE
  8
MED-1
  6
CONTINUOUS
 62
40
 10
-1.059235E+001
 20
1.7508352E+001
 11
-1.059235E+001
 21
1.1508362E+001
  0
LINE
  8
MED-1
  6
CONTINUOUS
 62
40
 10
5.358545E+001
 20
1.7508352E+001
 11
5.358545E+001
 21
1.1508352E+001
  0
LINE
  8
MED-1
  6
CONTINUOUS
 62
40
 10
-1.059235E+001
 20
1.7508352E+001
 11
3.191967E+001
 21
1.7508352E+001
  0
LINE
  8
MED-1
  6
CONTINUOUS
 62
40
 10
3.191967E+001
 20
1.1508352E+001
 11
-1.059235E+001
 21
1.1508362E+001
  0
LINE
  8
MED-1
  6
CONTINUOUS
 62
40
 10
3.191967E+001
 20
1.1508352E+001
 11
3.191967E+001
 21
1.7508352E+001
  0
LINE
  8
MED-1
  6
CONTINUOUS
 62
40
 10
3.191967E+001
 20
1.7508352E+001
 11
3.321269E+001
 21
1.7508352E+001
  0
LINE
  8
MED-1
  6
CONTINUOUS
 62
40
 10
3.321269E+001
 20
1.1508352E+001
 11
3.191967E+001
 21
1.1508352E+001
  0
LINE
  8
MED-1
  6
CONTINUOUS
 62
40
 10
3.321269E+001
 20
1.7508352E+001
 11
5.358545E+001
 21
1.7508352E+001
  0
LINE
  8
MED-1
  6
CONTINUOUS
 62
40
 10
5.358545E+001
 20
1.1508352E+001
 11
3.321269E+001
 21
1.1508352E+001
  0
LINE
  8
MED-1
  6
CONTINUOUS
 62
40
 10
3.799946E+001
 20
2.0508362E+001
 11
3.799946E+001
 21
1.7508332E+001
  0
LINE
  8
MED-1
  6
CONTINUOUS
 62
40
 10
4.799945E+001
 20
1.7508332E+001
 11
4.799945E+001
 21
2.0508362E+001
  0
ARC
  8
MED-1
  6
CONTINUOUS
 62
40
 10
4.299947E+001
 20
2.5650492E+001
 40
1.5E+001
 50
2.7E+002
 51
2.8947122E+002
  0
ARC
  8
MED-1
  6
CONTINUOUS
 62
40
 10
4.299947E+001
 20
2.5650492E+001
 40
1.5E+001
 50
2.5052878E+002
 51
2.7E+002
  0
LINE
  8
MED-1
  6
CONTINUOUS
 62
40
 10
5.299947E+001
 20
3.2208352E+001
 11
5.299947E+001
 21
2.6508382E+001
  0
LINE
  8
MED-1
  6
CONTINUOUS
 62
40
 10
3.299947E+001
 20
2.6408352E+001
 11
3.299947E+001
 21
3.2208352E+001
  0
ARC
  8
MED-1
  6
CONTINUOUS
 62
40
 10
3.529947E+001
 20
3.2208352E+001
 40
2.3
 50
9.0E+001
 51
1.8E+002
  0
ARC
  8
MED-1
  6
CONTINUOUS
 62
40
 10
5.069947E+001
 20
3.2208352E+001
 40
2.3000001
 50
0.0
 51
9.0E+001
  0
LINE
  8
MED-1
  6
CONTINUOUS
 62
40
 10
3.529947E+001
 20
3.4508352E+001
 11
5.069947E+001
 21
3.4508352E+001
  0
LINE
  8
MED-1
  6
CONTINUOUS
 62
40
 10
3.299947E+001
 20
2.6408352E+001
 11
5.299947E+001
 21
2.6408352E+001
  0
LINE
  8
MED-1
  6
CONTINUOUS
 62
40
 10
5.299947E+001
 20
3.2208352E+001
 11
3.299947E+001
 21
3.2208352E+001
  0
LINE
  8
MED-1
  6
CONTINUOUS
 62
40
 10
5.299947E+001
 20
2.6508382E+001
 11
3.299947E+001
 21
2.6508352E+001
  0
LINE
  8
MED-1
  6
CONTINUOUS
 62
40
 10
3.399947E+001
 20
2.0508352E+001
 11
5.199947E+001
 21
2.0508352E+001
  0
LINE
  8
MED-1
  6
CONTINUOUS
 62
40
 10
4.886377E+001
 20
3.4608352E+001
 11
3.713517E+001
 21
3.4608352E+001
  0
LINE
  8
MED-1
  6
CONTINUOUS
 62
40
 10
5.299947E+001
 20
2.1508352E+001
 11
5.199947E+001
 21
2.0508352E+001
  0
LINE
  8
MED-1
  6
CONTINUOUS
 62
40
 10
3.299949E+001
 20
2.1508352E+001
 11
3.399947E+001
 21
2.0508352E+001
  0
LINE
  8
MED-1
  6
CONTINUOUS
 62
40
 10
5.299947E+001
 20
2.1508352E+001
 11
3.299949E+001
 21
2.1508352E+001
  0
LINE
  8
MED-1
  6
CONTINUOUS
 62
40
 10
5.299947E+001
 20
2.6508382E+001
 11
5.299947E+001
 21
2.1508352E+001
  0
LINE
  8
MED-1
  6
CONTINUOUS
 62
40
 10
3.299947E+001
 20
2.6408352E+001
 11
3.299949E+001
 21
2.1508352E+001
  0
ARC
  8
MED-1
  6
CONTINUOUS
 62
40
 10
4.299947E+001
 20
2.6508352E+001
 40
1.0E+001
 50
5.4095932E+001
 51
9.0E+001
  0
ARC
  8
MED-1
  6
CONTINUOUS
 62
40
 10
4.299947E+001
 20
2.6508352E+001
 40
1.0E+001
 50
9.0E+001
 51
1.2590407E+002
  0
LINE
  8
MED-1
  6
CONTINUOUS
 62
40
 10
3.899945E+001
 20
3.4608332E+001
 11
3.899947E+001
 21
3.4508352E+001
  0
LINE
  8
MED-1
  6
CONTINUOUS
 62
40
 10
4.699946E+001
 20
3.4608332E+001
 11
4.699947E+001
 21
3.4508352E+001
  0
LINE
  8
MED-1
  6
CONTINUOUS
 62
40
 10
7.999947E+001
 20
2.1508352E+001
 11
7.999947E+001
 21
1.9508352E+001
  0
LINE
  8
MED-1
  6
CONTINUOUS
 62
40
 10
7.999947E+001
 20
3.5508352E+001
 11
7.999947E+001
 21
3.3508352E+001
  0
LINE
  8
MED-1
  6
CONTINUOUS
 62
40
 10
7.999947E+001
 20
3.3508352E+001
 11
7.999947E+001
 21
2.1508352E+001
  0
LINE
  8
MED-1
  6
CONTINUOUS
 62
40
 10
2.199947E+001
 20
1.9508352E+001
 11
2.199947E+001
 21
2.1508352E+001
  0
LINE
  8
MED-1
  6
CONTINUOUS
 62
40
 10
2.199947E+001
 20
2.1508352E+001
 11
2.199947E+001
 21
3.3508352E+001
  0
LINE
  8
MED-1
  6
CONTINUOUS
 62
40
 10
2.199947E+001
 20
3.3508352E+001
 11
2.199947E+001
 21
3.5508352E+001
  0
LINE
  8
MED-1
  6
CONTINUOUS
 62
40
 10
7.903098E+001
 20
3.5508352E+001
 11
7.999947E+001
 21
3.5508352E+001
  0
LINE
  8
MED-1
  6
CONTINUOUS
 62
40
 10
2.199947E+001
 20
3.5508352E+001
 11
2.261716E+001
 21
3.5508352E+001
  0
LINE
  8
MED-1
  6
CONTINUOUS
 62
40
 10
2.261716E+001
 20
3.5508352E+001
 11
3.858794E+001
 21
3.5508352E+001
  0
LINE
  8
MED-1
  6
CONTINUOUS
 62
40
 10
3.858794E+001
 20
3.5508352E+001
 11
3.864057E+001
 21
3.5508352E+001
  0
LINE
  8
MED-1
  6
CONTINUOUS
 62
40
 10
4.735837E+001
 20
3.5508352E+001
 11
7.903098E+001
 21
3.5508352E+001
  0
LINE
  8
MED-1
  6
CONTINUOUS
 62
40
 10
7.999947E+001
 20
1.9508352E+001
 11
7.903098E+001
 21
1.9508352E+001
  0
LINE
  8
MED-1
  6
CONTINUOUS
 62
40
 10
7.903098E+001
 20
1.9508352E+001
 11
4.799947E+001
 21
1.9508352E+001
  0
LINE
  8
MED-1
  6
CONTINUOUS
 62
40
 10
3.799947E+001
 20
1.9508352E+001
 11
2.261716E+001
 21
1.9508352E+001
  0
LINE
  8
MED-1
  6
CONTINUOUS
 62
40
 10
2.261716E+001
 20
1.9508352E+001
 11
2.199947E+001
 21
1.9508352E+001
  0
LINE
  8
MED-1
  6
CONTINUOUS
 62
40
 10
7.903098E+001
 20
2.1508352E+001
 11
7.999947E+001
 21
2.1508352E+001
  0
LINE
  8
MED-1
  6
CONTINUOUS
 62
40
 10
2.199947E+001
 20
2.1508352E+001
 11
2.261716E+001
 21
2.1508352E+001
  0
LINE
  8
MED-1
  6
CONTINUOUS
 62
40
 10
2.261716E+001
 20
2.1508352E+001
 11
3.299949E+001
 21
2.1508352E+001
  0
LINE
  8
MED-1
  6
CONTINUOUS
 62
40
 10
5.299947E+001
 20
2.1508352E+001
 11
7.903098E+001
 21
2.1508352E+001
  0
LINE
  8
MED-1
  6
CONTINUOUS
 62
40
 10
7.999947E+001
 20
3.3508352E+001
 11
7.903098E+001
 21
3.3508352E+001
  0
LINE
  8
MED-1
  6
CONTINUOUS
 62
40
 10
7.903098E+001
 20
3.3508352E+001
 11
5.254018E+001
 21
3.3508332E+001
  0
LINE
  8
MED-1
  6
CONTINUOUS
 62
40
 10
3.345873E+001
 20
3.3508332E+001
 11
2.261716E+001
 21
3.3508352E+001
  0
LINE
  8
MED-1
  6
CONTINUOUS
 62
40
 10
2.261716E+001
 20
3.3508352E+001
 11
2.199947E+001
 21
3.3508352E+001
  0
LINE
  8
MED-1
  6
CONTINUOUS
 62
40
 10
6.449947E+001
 20
3.0508352E+001
 11
7.048907E+001
 21
3.0508352E+001
  0
ARC
  8
MED-1
  6
CONTINUOUS
 62
40
 10
6.449947E+001
 20
2.7508352E+001
 40
3.0000001
 50
9.0E+001
 51
2.7E+002
  0
LINE
  8
MED-1
  6
CONTINUOUS
 62
40
 10
7.048907E+001
 20
2.4508352E+001
 11
6.449947E+001
 21
2.4508352E+001
  0
ARC
  8
MED-1
  6
CONTINUOUS
 62
40
 10
4.299947E+001
 20
3.0925022E+001
 40
6.0833333
 50
5.6898288E+001
 51
9.0E+001
  0
ARC
  8
MED-1
  6
CONTINUOUS
 62
40
 10
4.299947E+001
 20
3.0925022E+001
 40
6.0833333
 50
9.0E+001
 51
1.2310337E+002
  0
CIRCLE
  8
MED-1
  6
CONTINUOUS
 62
40
 10
2.849947E+001
 20
2.7508352E+001
 40
4.25
  0
LINE
  8
MED-1
  6
CONTINUOUS
 62
40
 10
2.924949E+001
 20
2.9758322E+001
 11
2.924949E+001
 21
2.8258332E+001
  0
LINE
  8
MED-1
  6
CONTINUOUS
 62
40
 10
2.774944E+001
 20
2.9758322E+001
 11
2.924949E+001
 21
2.9758322E+001
  0
LINE
  8
MED-1
  6
CONTINUOUS
 62
40
 10
2.774944E+001
 20
2.8258332E+001
 11
2.774944E+001
 21
2.9758322E+001
  0
LINE
  8
MED-1
  6
CONTINUOUS
 62
40
 10
2.624945E+001
 20
2.8258332E+001
 11
2.774944E+001
 21
2.8258332E+001
  0
LINE
  8
MED-1
  6
CONTINUOUS
 62
40
 10
2.624945E+001
 20
2.6758342E+001
 11
2.624945E+001
 21
2.8258332E+001
  0
LINE
  8
MED-1
  6
CONTINUOUS
 62
40
 10
2.774944E+001
 20
2.6758342E+001
 11
2.624945E+001
 21
2.6758342E+001
  0
LINE
  8
MED-1
  6
CONTINUOUS
 62
40
 10
2.774944E+001
 20
2.5258352E+001
 11
2.774944E+001
 21
2.6758342E+001
  0
LINE
  8
MED-1
  6
CONTINUOUS
 62
40
 10
2.924949E+001
 20
2.5258352E+001
 11
2.774944E+001
 21
2.5258352E+001
  0
LINE
  8
MED-1
  6
CONTINUOUS
 62
40
 10
2.924949E+001
 20
2.6758342E+001
 11
2.924949E+001
 21
2.5258352E+001
  0
LINE
  8
MED-1
  6
CONTINUOUS
 62
40
 10
3.074948E+001
 20
2.6758342E+001
 11
2.924949E+001
 21
2.6758342E+001
  0
LINE
  8
MED-1
  6
CONTINUOUS
 62
40
 10
3.074948E+001
 20
2.8258332E+001
 11
3.074948E+001
 21
2.6758342E+001
  0
LINE
  8
MED-1
  6
CONTINUOUS
 62
40
 10
2.924949E+001
 20
2.8258332E+001
 11
3.074948E+001
 21
2.8258332E+001
  0
CIRCLE
  8
MED-1
  6
CONTINUOUS
 62
40
 10
7.349947E+001
 20
2.7508352E+001
 40
4.25
  0
LINE
  8
MED-1
  6
CONTINUOUS
 62
40
 10
7.424947E+001
 20
2.9758322E+001
 11
7.424947E+001
 21
2.8258332E+001
  0
LINE
  8
MED-1
  6
CONTINUOUS
 62
40
 10
7.274948E+001
 20
2.9758322E+001
 11
7.424947E+001
 21
2.9758322E+001
  0
LINE
  8
MED-1
  6
CONTINUOUS
 62
40
 10
7.274948E+001
 20
2.8258332E+001
 11
7.274948E+001
 21
2.9758322E+001
  0
LINE
  8
MED-1
  6
CONTINUOUS
 62
40
 10
7.124949E+001
 20
2.8258332E+001
 11
7.274948E+001
 21
2.8258332E+001
  0
LINE
  8
MED-1
  6
CONTINUOUS
 62
40
 10
7.124949E+001
 20
2.6758342E+001
 11
7.124949E+001
 21
2.8258332E+001
  0
LINE
  8
MED-1
  6
CONTINUOUS
 62
40
 10
7.274948E+001
 20
2.6758342E+001
 11
7.124949E+001
 21
2.6758342E+001
  0
LINE
  8
MED-1
  6
CONTINUOUS
 62
40
 10
7.274948E+001
 20
2.5258352E+001
 11
7.274948E+001
 21
2.6758342E+001
  0
LINE
  8
MED-1
  6
CONTINUOUS
 62
40
 10
7.424947E+001
 20
2.5258352E+001
 11
7.274948E+001
 21
2.5258352E+001
  0
LINE
  8
MED-1
  6
CONTINUOUS
 62
40
 10
7.424947E+001
 20
2.6758342E+001
 11
7.424947E+001
 21
2.5258352E+001
  0
LINE
  8
MED-1
  6
CONTINUOUS
 62
40
 10
7.574946E+001
 20
2.6758342E+001
 11
7.424947E+001
 21
2.6758342E+001
  0
LINE
  8
MED-1
  6
CONTINUOUS
 62
40
 10
7.574946E+001
 20
2.8258332E+001
 11
7.574946E+001
 21
2.6758342E+001
  0
LINE
  8
MED-1
  6
CONTINUOUS
 62
40
 10
7.424947E+001
 20
2.8258332E+001
 11
7.574946E+001
 21
2.8258332E+001
  0
LINE
  8
106
  6
CENTERLINE
 62
1
 10
7.874947E+001
 20
2.7508352E+001
 11
6.035848E+001
 21
2.7508352E+001
  0
LINE
  8
106
  6
CENTERLINE
 62
1
 10
7.349947E+001
 20
2.2258352E+001
 11
7.349947E+001
 21
3.2758352E+001
  0
LINE
  8
106
  6
CENTERLINE
 62
1
 10
3.374947E+001
 20
2.7508352E+001
 11
2.324947E+001
 21
2.7508352E+001
  0
LINE
  8
106
  6
CENTERLINE
 62
1
 10
2.849947E+001
 20
2.2258352E+001
 11
2.849947E+001
 21
3.2758352E+001
  0
LINE
  8
3
  6
CENTERLINE
 62
1
 10
4.299947E+001
 20
3.9736984E+001
 11
4.299947E+001
 21
8.0303203
  0
LINE
  8
3
  6
CENTERLINE
 62
1
 10
0.0
 20
-5.7389492E+001
 11
0.0
 21
1.9058996E+001
  0
POINT
  8
Drafting_Hidden_Entities
  6
CONTINUOUS
 62
1
 10
0.0
 20
0.0
  0
ENDBLK
  0
BLOCK
  2
2NEW00
 10
0.0
 20
0.0
 70
0
  0
LINE
  8
106
  6
CENTERLINE
 62
1
 10
0.0
 20
-2.3
 11
0.0
 21
2.2853061E+001
  0
LINE
  8
104
  6
CONTINUOUS
 62
40
 10
-7.6501E+001
 20
0.0
 11
-7.6501E+001
 21
-6.0E+001
  0
LINE
  8
104
  6
CONTINUOUS
 62
40
 10
-7.6501E+001
 20
-6.0E+001
 11
1.565E+002
 21
-6.0E+001
  0
LINE
  8
104
  6
CONTINUOUS
 62
40
 10
1.565E+002
 20
-6.0E+001
 11
1.565E+002
 21
0.0
  0
LINE
  8
104
  6
CONTINUOUS
 62
40
 10
1.565E+002
 20
0.0
 11
-7.6501E+001
 21
0.0
  0
LINE
  8
104
  6
CONTINUOUS
 62
40
 10
-7.6501E+001
 20
-2.3
 11
1.565E+002
 21
-2.3
  0
LINE
  8
104
  6
CONTINUOUS
 62
40
 10
-7.6501E+001
 20
-5.77E+001
 11
1.565E+002
 21
-5.77E+001
  0
LINE
  8
104
  6
CONTINUOUS
 62
40
 10
-1.49425E+001
 20
-6.0E+001
 11
-8.3975
 21
-6.425E+001
  0
LINE
  8
104
  6
CONTINUOUS
 62
40
 10
-8.3975
 20
-6.425E+001
 11
8.395
 21
-6.425E+001
  0
LINE
  8
104
  6
CONTINUOUS
 62
40
 10
8.395
 20
-6.425E+001
 11
1.494E+001
 21
-6.0E+001
  0
LINE
  8
104
  6
CONTINUOUS
 62
40
 10
1.494E+001
 20
-6.0E+001
 11
-1.49425E+001
 21
-6.0E+001
  0
LINE
  8
106
  6
CENTERLINE
 62
1
 10
8.0E+001
 20
2.95E+001
 11
6.825E+001
 21
2.95E+001
  0
LINE
  8
MED-1
  6
CONTINUOUS
 62
40
 10
1.100053E+001
 20
0.0
 11
1.100053E+001
 21
1.450001E+001
  0
LINE
  8
MED-1
  6
CONTINUOUS
 62
40
 10
-1.083554E+001
 20
1.45E+001
 11
-1.099947E+001
 21
1.45E+001
  0
LINE
  8
MED-1
  6
CONTINUOUS
 62
40
 10
-1.059182E+001
 20
1.450001E+001
 11
-1.083554E+001
 21
1.45E+001
  0
LINE
  8
MED-1
  6
CONTINUOUS
 62
40
 10
-1.099947E+001
 20
1.45E+001
 11
-1.099947E+001
 21
0.0
  0
LINE
  8
MED-1
  6
CONTINUOUS
 62
40
 10
-1.059182E+001
 20
2.05E+001
 11
-1.059182E+001
 21
1.450001E+001
  0
LINE
  8
MED-1
  6
CONTINUOUS
 62
40
 10
5.358598E+001
 20
2.05E+001
 11
5.358598E+001
 21
1.45E+001
  0
LINE
  8
MED-1
  6
CONTINUOUS
 62
40
 10
-1.059182E+001
 20
2.05E+001
 11
3.19202E+001
 21
2.05E+001
  0
LINE
  8
MED-1
  6
CONTINUOUS
 62
40
 10
3.19202E+001
 20
1.45E+001
 11
-1.059182E+001
 21
1.450001E+001
  0
LINE
  8
MED-1
  6
CONTINUOUS
 62
40
 10
3.19202E+001
 20
1.45E+001
 11
3.19202E+001
 21
2.05E+001
  0
LINE
  8
MED-1
  6
CONTINUOUS
 62
40
 10
3.19202E+001
 20
2.05E+001
 11
3.321322E+001
 21
2.05E+001
  0
LINE
  8
MED-1
  6
CONTINUOUS
 62
40
 10
3.321322E+001
 20
1.45E+001
 11
3.19202E+001
 21
1.45E+001
  0
LINE
  8
MED-1
  6
CONTINUOUS
 62
40
 10
3.321322E+001
 20
2.05E+001
 11
5.358598E+001
 21
2.05E+001
  0
LINE
  8
MED-1
  6
CONTINUOUS
 62
40
 10
5.358598E+001
 20
1.45E+001
 11
3.321322E+001
 21
1.45E+001
  0
LINE
  8
MED-1
  6
CONTINUOUS
 62
40
 10
3.799999E+001
 20
2.350001E+001
 11
3.799999E+001
 21
2.049998E+001
  0
LINE
  8
MED-1
  6
CONTINUOUS
 62
40
 10
4.799998E+001
 20
2.049998E+001
 11
4.799998E+001
 21
2.350001E+001
  0
ARC
  8
MED-1
  6
CONTINUOUS
 62
40
 10
4.3E+001
 20
2.864214E+001
 40
1.5E+001
 50
2.7E+002
 51
2.8947122E+002
  0
ARC
  8
MED-1
  6
CONTINUOUS
 62
40
 10
4.3E+001
 20
2.864214E+001
 40
1.5E+001
 50
2.5052878E+002
 51
2.7E+002
  0
LINE
  8
MED-1
  6
CONTINUOUS
 62
40
 10
5.3E+001
 20
3.52E+001
 11
5.3E+001
 21
2.950003E+001
  0
LINE
  8
MED-1
  6
CONTINUOUS
 62
40
 10
3.3E+001
 20
2.94E+001
 11
3.3E+001
 21
3.52E+001
  0
ARC
  8
MED-1
  6
CONTINUOUS
 62
40
 10
3.53E+001
 20
3.52E+001
 40
2.3
 50
9.0E+001
 51
1.8E+002
  0
ARC
  8
MED-1
  6
CONTINUOUS
 62
40
 10
5.07E+001
 20
3.52E+001
 40
2.3000001
 50
0.0
 51
9.0E+001
  0
LINE
  8
MED-1
  6
CONTINUOUS
 62
40
 10
3.53E+001
 20
3.75E+001
 11
5.07E+001
 21
3.75E+001
  0
LINE
  8
MED-1
  6
CONTINUOUS
 62
40
 10
3.3E+001
 20
2.94E+001
 11
5.3E+001
 21
2.94E+001
  0
LINE
  8
MED-1
  6
CONTINUOUS
 62
40
 10
5.3E+001
 20
3.52E+001
 11
3.3E+001
 21
3.52E+001
  0
LINE
  8
MED-1
  6
CONTINUOUS
 62
40
 10
5.3E+001
 20
2.950003E+001
 11
3.3E+001
 21
2.95E+001
  0
LINE
  8
MED-1
  6
CONTINUOUS
 62
40
 10
3.4E+001
 20
2.35E+001
 11
5.2E+001
 21
2.35E+001
  0
LINE
  8
MED-1
  6
CONTINUOUS
 62
40
 10
4.88643E+001
 20
3.76E+001
 11
3.71357E+001
 21
3.76E+001
  0
LINE
  8
MED-1
  6
CONTINUOUS
 62
40
 10
5.3E+001
 20
2.45E+001
 11
5.2E+001
 21
2.35E+001
  0
LINE
  8
MED-1
  6
CONTINUOUS
 62
40
 10
3.300002E+001
 20
2.45E+001
 11
3.4E+001
 21
2.35E+001
  0
LINE
  8
MED-1
  6
CONTINUOUS
 62
40
 10
5.3E+001
 20
2.45E+001
 11
3.300002E+001
 21
2.45E+001
  0
LINE
  8
MED-1
  6
CONTINUOUS
 62
40
 10
5.3E+001
 20
2.950003E+001
 11
5.3E+001
 21
2.45E+001
  0
LINE
  8
MED-1
  6
CONTINUOUS
 62
40
 10
3.3E+001
 20
2.94E+001
 11
3.300002E+001
 21
2.45E+001
  0
ARC
  8
MED-1
  6
CONTINUOUS
 62
40
 10
4.3E+001
 20
2.95E+001
 40
1.0E+001
 50
5.4095932E+001
 51
9.0E+001
  0
ARC
  8
MED-1
  6
CONTINUOUS
 62
40
 10
4.3E+001
 20
2.95E+001
 40
1.0E+001
 50
9.0E+001
 51
1.2590407E+002
  0
LINE
  8
MED-1
  6
CONTINUOUS
 62
40
 10
3.899998E+001
 20
3.759998E+001
 11
3.9E+001
 21
3.75E+001
  0
LINE
  8
MED-1
  6
CONTINUOUS
 62
40
 10
4.699999E+001
 20
3.759998E+001
 11
4.7E+001
 21
3.75E+001
  0
LINE
  8
MED-1
  6
CONTINUOUS
 62
40
 10
8.0E+001
 20
2.35E+001
 11
8.0E+001
 21
2.15E+001
  0
LINE
  8
MED-1
  6
CONTINUOUS
 62
40
 10
8.0E+001
 20
3.75E+001
 11
8.0E+001
 21
3.55E+001
  0
LINE
  8
MED-1
  6
CONTINUOUS
 62
40
 10
8.0E+001
 20
3.55E+001
 11
8.0E+001
 21
2.35E+001
  0
LINE
  8
MED-1
  6
CONTINUOUS
 62
40
 10
2.2E+001
 20
2.15E+001
 11
2.2E+001
 21
2.35E+001
  0
LINE
  8
MED-1
  6
CONTINUOUS
 62
40
 10
2.2E+001
 20
2.35E+001
 11
2.2E+001
 21
3.55E+001
  0
LINE
  8
MED-1
  6
CONTINUOUS
 62
40
 10
2.2E+001
 20
3.55E+001
 11
2.2E+001
 21
3.75E+001
  0
LINE
  8
MED-1
  6
CONTINUOUS
 62
40
 10
7.903151E+001
 20
3.75E+001
 11
8.0E+001
 21
3.75E+001
  0
LINE
  8
MED-1
  6
CONTINUOUS
 62
40
 10
2.2E+001
 20
3.75E+001
 11
2.261769E+001
 21
3.75E+001
  0
LINE
  8
MED-1
  6
CONTINUOUS
 62
40
 10
2.261769E+001
 20
3.75E+001
 11
3.858847E+001
 21
3.75E+001
  0
LINE
  8
MED-1
  6
CONTINUOUS
 62
40
 10
3.858847E+001
 20
3.85E+001
 11
3.86411E+001
 21
3.85E+001
  0
LINE
  8
MED-1
  6
CONTINUOUS
 62
40
 10
4.73589E+001
 20
3.75E+001
 11
7.903151E+001
 21
3.75E+001
  0
LINE
  8
MED-1
  6
CONTINUOUS
 62
40
 10
8.0E+001
 20
2.15E+001
 11
7.903151E+001
 21
2.15E+001
  0
LINE
  8
MED-1
  6
CONTINUOUS
 62
40
 10
7.903151E+001
 20
2.15E+001
 11
4.8E+001
 21
2.15E+001
  0
LINE
  8
MED-1
  6
CONTINUOUS
 62
40
 10
3.8E+001
 20
2.15E+001
 11
2.261769E+001
 21
2.15E+001
  0
LINE
  8
MED-1
  6
CONTINUOUS
 62
40
 10
2.261769E+001
 20
2.15E+001
 11
2.2E+001
 21
2.15E+001
  0
LINE
  8
MED-1
  6
CONTINUOUS
 62
40
 10
7.903151E+001
 20
2.35E+001
 11
8.0E+001
 21
2.35E+001
  0
LINE
  8
MED-1
  6
CONTINUOUS
 62
40
 10
2.2E+001
 20
2.35E+001
 11
2.261769E+001
 21
2.35E+001
  0
LINE
  8
MED-1
  6
CONTINUOUS
 62
40
 10
2.261769E+001
 20
2.35E+001
 11
3.4E+001
 21
2.35E+001
  0
LINE
  8
MED-1
  6
CONTINUOUS
 62
40
 10
5.2E+001
 20
2.35E+001
 11
7.903151E+001
 21
2.35E+001
  0
LINE
  8
MED-1
  6
CONTINUOUS
 62
40
 10
8.0E+001
 20
3.55E+001
 11
7.903151E+001
 21
3.55E+001
  0
LINE
  8
MED-1
  6
CONTINUOUS
 62
40
 10
7.903151E+001
 20
3.55E+001
 11
5.2980354E+001
 21
3.549998E+001
  0
LINE
  8
MED-1
  6
CONTINUOUS
 62
40
 10
3.3019647E+001
 20
3.5499981E+001
 11
2.261769E+001
 21
3.55E+001
  0
LINE
  8
MED-1
  6
CONTINUOUS
 62
40
 10
2.261769E+001
 20
3.55E+001
 11
2.2E+001
 21
3.55E+001
  0
LINE
  8
MED-1
  6
CONTINUOUS
 62
40
 10
6.45E+001
 20
3.25E+001
 11
7.04896E+001
 21
3.25E+001
  0
ARC
  8
MED-1
  6
CONTINUOUS
 62
40
 10
6.45E+001
 20
2.95E+001
 40
3.0000001
 50
9.0E+001
 51
2.7E+002
  0
LINE
  8
MED-1
  6
CONTINUOUS
 62
40
 10
7.04896E+001
 20
2.65E+001
 11
6.45E+001
 21
2.65E+001
  0
ARC
  8
MED-1
  6
CONTINUOUS
 62
40
 10
4.3E+001
 20
3.391667E+001
 40
6.0833333
 50
5.6898288E+001
 51
9.0E+001
  0
ARC
  8
MED-1
  6
CONTINUOUS
 62
40
 10
4.3E+001
 20
3.391667E+001
 40
6.0833333
 50
9.0E+001
 51
1.2310337E+002
  0
CIRCLE
  8
MED-1
  6
CONTINUOUS
 62
40
 10
2.85E+001
 20
2.95E+001
 40
4.25
  0
LINE
  8
MED-1
  6
CONTINUOUS
 62
40
 10
2.925002E+001
 20
3.174997E+001
 11
2.925002E+001
 21
3.024998E+001
  0
LINE
  8
MED-1
  6
CONTINUOUS
 62
40
 10
2.774997E+001
 20
3.174997E+001
 11
2.925002E+001
 21
3.174997E+001
  0
LINE
  8
MED-1
  6
CONTINUOUS
 62
40
 10
2.774997E+001
 20
3.024998E+001
 11
2.774997E+001
 21
3.174997E+001
  0
LINE
  8
MED-1
  6
CONTINUOUS
 62
40
 10
2.624998E+001
 20
3.024998E+001
 11
2.774997E+001
 21
3.024998E+001
  0
LINE
  8
MED-1
  6
CONTINUOUS
 62
40
 10
2.624998E+001
 20
2.874999E+001
 11
2.624998E+001
 21
3.024998E+001
  0
LINE
  8
MED-1
  6
CONTINUOUS
 62
40
 10
2.774997E+001
 20
2.874999E+001
 11
2.624998E+001
 21
2.874999E+001
  0
LINE
  8
MED-1
  6
CONTINUOUS
 62
40
 10
2.774997E+001
 20
2.725E+001
 11
2.774997E+001
 21
2.874999E+001
  0
LINE
  8
MED-1
  6
CONTINUOUS
 62
40
 10
2.925002E+001
 20
2.725E+001
 11
2.774997E+001
 21
2.725E+001
  0
LINE
  8
MED-1
  6
CONTINUOUS
 62
40
 10
2.925002E+001
 20
2.874999E+001
 11
2.925002E+001
 21
2.725E+001
  0
LINE
  8
MED-1
  6
CONTINUOUS
 62
40
 10
3.075001E+001
 20
2.874999E+001
 11
2.925002E+001
 21
2.874999E+001
  0
LINE
  8
MED-1
  6
CONTINUOUS
 62
40
 10
3.075001E+001
 20
3.024998E+001
 11
3.075001E+001
 21
2.874999E+001
  0
LINE
  8
MED-1
  6
CONTINUOUS
 62
40
 10
2.925002E+001
 20
3.024998E+001
 11
3.075001E+001
 21
3.024998E+001
  0
CIRCLE
  8
MED-1
  6
CONTINUOUS
 62
40
 10
7.35E+001
 20
2.95E+001
 40
4.25
  0
LINE
  8
MED-1
  6
CONTINUOUS
 62
40
 10
7.425E+001
 20
3.174997E+001
 11
7.425E+001
 21
3.024998E+001
  0
LINE
  8
MED-1
  6
CONTINUOUS
 62
40
 10
7.275001E+001
 20
3.174997E+001
 11
7.425E+001
 21
3.174997E+001
  0
LINE
  8
MED-1
  6
CONTINUOUS
 62
40
 10
7.275001E+001
 20
3.024998E+001
 11
7.275001E+001
 21
3.174997E+001
  0
LINE
  8
MED-1
  6
CONTINUOUS
 62
40
 10
7.125002E+001
 20
3.024998E+001
 11
7.275001E+001
 21
3.024998E+001
  0
LINE
  8
MED-1
  6
CONTINUOUS
 62
40
 10
7.125002E+001
 20
2.874999E+001
 11
7.125002E+001
 21
3.024998E+001
  0
LINE
  8
MED-1
  6
CONTINUOUS
 62
40
 10
7.275001E+001
 20
2.874999E+001
 11
7.125002E+001
 21
2.874999E+001
  0
LINE
  8
MED-1
  6
CONTINUOUS
 62
40
 10
7.275001E+001
 20
2.725E+001
 11
7.275001E+001
 21
2.874999E+001
  0
LINE
  8
MED-1
  6
CONTINUOUS
 62
40
 10
7.425E+001
 20
2.725E+001
 11
7.275001E+001
 21
2.725E+001
  0
LINE
  8
MED-1
  6
CONTINUOUS
 62
40
 10
7.425E+001
 20
2.874999E+001
 11
7.425E+001
 21
2.725E+001
  0
LINE
  8
MED-1
  6
CONTINUOUS
 62
40
 10
7.574999E+001
 20
2.874999E+001
 11
7.425E+001
 21
2.874999E+001
  0
LINE
  8
MED-1
  6
CONTINUOUS
 62
40
 10
7.574999E+001
 20
3.024998E+001
 11
7.574999E+001
 21
2.874999E+001
  0
LINE
  8
MED-1
  6
CONTINUOUS
 62
40
 10
7.425E+001
 20
3.024998E+001
 11
7.574999E+001
 21
3.024998E+001
  0
LINE
  8
106
  6
CENTERLINE
 62
1
 10
7.875E+001
 20
2.95E+001
 11
6.035901E+001
 21
2.95E+001
  0
LINE
  8
106
  6
CENTERLINE
 62
1
 10
7.35E+001
 20
2.425E+001
 11
7.35E+001
 21
3.475E+001
  0
LINE
  8
106
  6
CENTERLINE
 62
1
 10
3.375E+001
 20
2.95E+001
 11
2.325E+001
 21
2.95E+001
  0
LINE
  8
106
  6
CENTERLINE
 62
1
 10
2.85E+001
 20
2.425E+001
 11
2.85E+001
 21
3.475E+001
  0
LINE
  8
3
  6
CENTERLINE
 62
1
 10
4.3E+001
 20
4.2728632E+001
 11
4.3E+001
 21
1.1021968E+001
  0
LINE
  8
MED-0
  6
CONTINUOUS
 62
1
 10
1.08499E+002
 20
-5.15E+001
 11
1.08499E+002
 21
-5.9E+001
  0
LINE
  8
MED-0
  6
CONTINUOUS
 62
1
 10
-5.1501E+001
 20
-5.15E+001
 11
-5.1501E+001
 21
-5.9E+001
  0
CIRCLE
  8
104
  6
CONTINUOUS
 62
40
 10
1.08499E+002
 20
-5.15E+001
 40
5.0
  0
CIRCLE
  8
104
  6
CONTINUOUS
 62
40
 10
1.08499E+002
 20
-5.15E+001
 40
2.5
  0
CIRCLE
  8
104
  6
CONTINUOUS
 62
40
 10
-5.1501E+001
 20
-5.15E+001
 40
5.0
  0
CIRCLE
  8
104
  6
CONTINUOUS
 62
40
 10
-5.1501E+001
 20
-5.15E+001
 40
2.5
  0
CIRCLE
  8
104
  6
CONTINUOUS
 62
40
 10
-5.1501E+001
 20
-3.55E+001
 40
5.0
  0
CIRCLE
  8
104
  6
CONTINUOUS
 62
40
 10
-5.1501E+001
 20
-3.55E+001
 40
2.5
  0
CIRCLE
  8
104
  6
CONTINUOUS
 62
40
 10
-5.1501E+001
 20
-2.45E+001
 40
5.0
  0
CIRCLE
  8
104
  6
CONTINUOUS
 62
40
 10
-5.1501E+001
 20
-2.45E+001
 40
2.5
  0
CIRCLE
  8
104
  6
CONTINUOUS
 62
40
 10
-5.1501E+001
 20
-8.5
 40
5.0
  0
CIRCLE
  8
104
  6
CONTINUOUS
 62
40
 10
-5.1501E+001
 20
-8.5
 40
2.5
  0
CIRCLE
  8
104
  6
CONTINUOUS
 62
40
 10
1.08499E+002
 20
-3.55E+001
 40
5.0
  0
CIRCLE
  8
104
  6
CONTINUOUS
 62
40
 10
1.08499E+002
 20
-3.55E+001
 40
2.5
  0
CIRCLE
  8
104
  6
CONTINUOUS
 62
40
 10
5.6499E+001
 20
-1.65E+001
 40
5.0
  0
CIRCLE
  8
104
  6
CONTINUOUS
 62
40
 10
5.6499E+001
 20
-1.65E+001
 40
2.5
  0
CIRCLE
  8
104
  6
CONTINUOUS
 62
40
 10
5.6499E+001
 20
-4.35E+001
 40
5.0
  0
CIRCLE
  8
104
  6
CONTINUOUS
 62
40
 10
5.6499E+001
 20
-4.35E+001
 40
2.5
  0
CIRCLE
  8
104
  6
CONTINUOUS
 62
40
 10
4.99E-001
 20
-1.65E+001
 40
5.0
  0
CIRCLE
  8
104
  6
CONTINUOUS
 62
40
 10
4.99E-001
 20
-1.65E+001
 40
2.5
  0
CIRCLE
  8
104
  6
CONTINUOUS
 62
40
 10
4.99E-001
 20
-4.35E+001
 40
5.0
  0
CIRCLE
  8
104
  6
CONTINUOUS
 62
40
 10
4.99E-001
 20
-4.35E+001
 40
2.5
  0
LINE
  8
MED-0
  6
CONTINUOUS
 62
1
 10
1.0882984E+002
 20
-7.9736206
 11
1.0882984E+002
 21
-7.9736206
  0
LINE
  8
MED-0
  6
CONTINUOUS
 62
1
 10
1.0882984E+002
 20
-7.9736206
 11
1.0882984E+002
 21
-7.9736206
  0
LINE
  8
MED-0
  6
CONTINUOUS
 62
1
 10
1.08499E+002
 20
-3.55E+001
 11
1.08499E+002
 21
-3.55E+001
  0
LINE
  8
MED-0
  6
CONTINUOUS
 62
1
 10
1.08499E+002
 20
-3.55E+001
 11
1.08499E+002
 21
-3.55E+001
  0
LINE
  8
MED-0
  6
CONTINUOUS
 62
1
 10
1.08499E+002
 20
-3.55E+001
 11
1.15999E+002
 21
-3.55E+001
  0
LINE
  8
MED-0
  6
CONTINUOUS
 62
1
 10
1.08499E+002
 20
-3.55E+001
 11
1.08499E+002
 21
-2.8E+001
  0
LINE
  8
MED-0
  6
CONTINUOUS
 62
1
 10
1.08499E+002
 20
-3.55E+001
 11
1.00999E+002
 21
-3.55E+001
  0
LINE
  8
MED-0
  6
CONTINUOUS
 62
1
 10
1.08499E+002
 20
-3.55E+001
 11
1.08499E+002
 21
-4.3E+001
  0
LINE
  8
MED-0
  6
CONTINUOUS
 62
1
 10
1.08499E+002
 20
-5.15E+001
 11
1.08499E+002
 21
-5.15E+001
  0
LINE
  8
MED-0
  6
CONTINUOUS
 62
1
 10
1.08499E+002
 20
-5.15E+001
 11
1.08499E+002
 21
-5.15E+001
  0
LINE
  8
MED-0
  6
CONTINUOUS
 62
1
 10
1.08499E+002
 20
-5.15E+001
 11
1.15999E+002
 21
-5.15E+001
  0
LINE
  8
MED-0
  6
CONTINUOUS
 62
1
 10
1.08499E+002
 20
-5.15E+001
 11
1.08499E+002
 21
-4.4E+001
  0
LINE
  8
MED-0
  6
CONTINUOUS
 62
1
 10
1.08499E+002
 20
-5.15E+001
 11
1.00999E+002
 21
-5.15E+001
  0
LINE
  8
MED-0
  6
CONTINUOUS
 62
1
 10
5.6499E+001
 20
-4.35E+001
 11
5.6499E+001
 21
-4.35E+001
  0
LINE
  8
MED-0
  6
CONTINUOUS
 62
1
 10
5.6499E+001
 20
-4.35E+001
 11
5.6499E+001
 21
-4.35E+001
  0
LINE
  8
MED-0
  6
CONTINUOUS
 62
1
 10
5.6499E+001
 20
-4.35E+001
 11
6.3999E+001
 21
-4.35E+001
  0
LINE
  8
MED-0
  6
CONTINUOUS
 62
1
 10
5.6499E+001
 20
-4.35E+001
 11
5.6499E+001
 21
-3.6E+001
  0
LINE
  8
MED-0
  6
CONTINUOUS
 62
1
 10
5.6499E+001
 20
-4.35E+001
 11
4.8999E+001
 21
-4.35E+001
  0
LINE
  8
MED-0
  6
CONTINUOUS
 62
1
 10
5.6499E+001
 20
-4.35E+001
 11
5.6499E+001
 21
-5.1E+001
  0
LINE
  8
MED-0
  6
CONTINUOUS
 62
1
 10
5.6499E+001
 20
-1.65E+001
 11
5.6499E+001
 21
-1.65E+001
  0
LINE
  8
MED-0
  6
CONTINUOUS
 62
1
 10
5.6499E+001
 20
-1.65E+001
 11
5.6499E+001
 21
-1.65E+001
  0
LINE
  8
MED-0
  6
CONTINUOUS
 62
1
 10
5.6499E+001
 20
-1.65E+001
 11
6.3999E+001
 21
-1.65E+001
  0
LINE
  8
MED-0
  6
CONTINUOUS
 62
1
 10
5.6499E+001
 20
-1.65E+001
 11
5.6499E+001
 21
-9.0
  0
LINE
  8
MED-0
  6
CONTINUOUS
 62
1
 10
5.6499E+001
 20
-1.65E+001
 11
4.8999E+001
 21
-1.65E+001
  0
LINE
  8
MED-0
  6
CONTINUOUS
 62
1
 10
5.6499E+001
 20
-1.65E+001
 11
5.6499E+001
 21
-2.4E+001
  0
LINE
  8
MED-0
  6
CONTINUOUS
 62
1
 10
4.99E-001
 20
-1.65E+001
 11
4.99E-001
 21
-1.65E+001
  0
LINE
  8
MED-0
  6
CONTINUOUS
 62
1
 10
4.99E-001
 20
-1.65E+001
 11
4.99E-001
 21
-1.65E+001
  0
LINE
  8
MED-0
  6
CONTINUOUS
 62
1
 10
4.99E-001
 20
-1.65E+001
 11
7.999
 21
-1.65E+001
  0
LINE
  8
MED-0
  6
CONTINUOUS
 62
1
 10
4.99E-001
 20
-1.65E+001
 11
4.99E-001
 21
-9.0
  0
LINE
  8
MED-0
  6
CONTINUOUS
 62
1
 10
4.99E-001
 20
-1.65E+001
 11
-7.001
 21
-1.65E+001
  0
LINE
  8
MED-0
  6
CONTINUOUS
 62
1
 10
4.99E-001
 20
-1.65E+001
 11
4.99E-001
 21
-2.4E+001
  0
LINE
  8
MED-0
  6
CONTINUOUS
 62
1
 10
4.99E-001
 20
-4.35E+001
 11
4.99E-001
 21
-4.35E+001
  0
LINE
  8
MED-0
  6
CONTINUOUS
 62
1
 10
4.99E-001
 20
-4.35E+001
 11
4.99E-001
 21
-4.35E+001
  0
LINE
  8
MED-0
  6
CONTINUOUS
 62
1
 10
4.99E-001
 20
-4.35E+001
 11
7.999
 21
-4.35E+001
  0
LINE
  8
MED-0
  6
CONTINUOUS
 62
1
 10
4.99E-001
 20
-4.35E+001
 11
4.99E-001
 21
-3.6E+001
  0
LINE
  8
MED-0
  6
CONTINUOUS
 62
1
 10
4.99E-001
 20
-4.35E+001
 11
-7.001
 21
-4.35E+001
  0
LINE
  8
MED-0
  6
CONTINUOUS
 62
1
 10
4.99E-001
 20
-4.35E+001
 11
4.99E-001
 21
-5.1E+001
  0
LINE
  8
MED-0
  6
CONTINUOUS
 62
1
 10
-5.1501E+001
 20
-5.15E+001
 11
-5.1501E+001
 21
-5.15E+001
  0
LINE
  8
MED-0
  6
CONTINUOUS
 62
1
 10
-5.1501E+001
 20
-5.15E+001
 11
-5.1501E+001
 21
-5.15E+001
  0
LINE
  8
MED-0
  6
CONTINUOUS
 62
1
 10
-5.1501E+001
 20
-5.15E+001
 11
-4.4001E+001
 21
-5.15E+001
  0
LINE
  8
MED-0
  6
CONTINUOUS
 62
1
 10
-5.1501E+001
 20
-5.15E+001
 11
-5.1501E+001
 21
-4.4E+001
  0
LINE
  8
MED-0
  6
CONTINUOUS
 62
1
 10
-5.1501E+001
 20
-5.15E+001
 11
-5.9001E+001
 21
-5.15E+001
  0
LINE
  8
MED-0
  6
CONTINUOUS
 62
1
 10
-5.1501E+001
 20
-3.55E+001
 11
-5.1501E+001
 21
-3.55E+001
  0
LINE
  8
MED-0
  6
CONTINUOUS
 62
1
 10
-5.1501E+001
 20
-3.55E+001
 11
-5.1501E+001
 21
-3.55E+001
  0
LINE
  8
MED-0
  6
CONTINUOUS
 62
1
 10
-5.1501E+001
 20
-3.55E+001
 11
-4.4001E+001
 21
-3.55E+001
  0
LINE
  8
MED-0
  6
CONTINUOUS
 62
1
 10
-5.1501E+001
 20
-3.55E+001
 11
-5.1501E+001
 21
-2.8E+001
  0
LINE
  8
MED-0
  6
CONTINUOUS
 62
1
 10
-5.1501E+001
 20
-3.55E+001
 11
-5.9001E+001
 21
-3.55E+001
  0
LINE
  8
MED-0
  6
CONTINUOUS
 62
1
 10
-5.1501E+001
 20
-3.55E+001
 11
-5.1501E+001
 21
-4.3E+001
  0
LINE
  8
MED-0
  6
CONTINUOUS
 62
1
 10
-5.1501E+001
 20
-2.45E+001
 11
-5.1501E+001
 21
-2.45E+001
  0
LINE
  8
MED-0
  6
CONTINUOUS
 62
1
 10
-5.1501E+001
 20
-2.45E+001
 11
-5.1501E+001
 21
-2.45E+001
  0
LINE
  8
MED-0
  6
CONTINUOUS
 62
1
 10
-5.1501E+001
 20
-2.45E+001
 11
-4.4001E+001
 21
-2.45E+001
  0
LINE
  8
MED-0
  6
CONTINUOUS
 62
1
 10
-5.1501E+001
 20
-2.45E+001
 11
-5.1501E+001
 21
-1.7E+001
  0
LINE
  8
MED-0
  6
CONTINUOUS
 62
1
 10
-5.1501E+001
 20
-2.45E+001
 11
-5.9001E+001
 21
-2.45E+001
  0
LINE
  8
MED-0
  6
CONTINUOUS
 62
1
 10
-5.1501E+001
 20
-2.45E+001
 11
-5.1501E+001
 21
-3.2E+001
  0
LINE
  8
MED-0
  6
CONTINUOUS
 62
1
 10
-5.1501E+001
 20
-8.5
 11
-5.1501E+001
 21
-8.5
  0
LINE
  8
MED-0
  6
CONTINUOUS
 62
1
 10
-5.1501E+001
 20
-8.5
 11
-5.1501E+001
 21
-8.5
  0
LINE
  8
MED-0
  6
CONTINUOUS
 62
1
 10
-5.1501E+001
 20
-8.5
 11
-4.4001E+001
 21
-8.5
  0
LINE
  8
MED-0
  6
CONTINUOUS
 62
1
 10
-5.1501E+001
 20
-8.5
 11
-5.1501E+001
 21
-1.0
  0
LINE
  8
MED-0
  6
CONTINUOUS
 62
1
 10
-5.1501E+001
 20
-8.5
 11
-5.9001E+001
 21
-8.5
  0
LINE
  8
MED-0
  6
CONTINUOUS
 62
1
 10
-5.1501E+001
 20
-8.5
 11
-5.1501E+001
 21
-1.6E+001
  0
CIRCLE
  8
104
  6
CONTINUOUS
 62
40
 10
1.08499E+002
 20
-2.45E+001
 40
5.0
  0
CIRCLE
  8
104
  6
CONTINUOUS
 62
40
 10
1.08499E+002
 20
-2.45E+001
 40
2.5
  0
LINE
  8
MED-0
  6
CONTINUOUS
 62
1
 10
1.08499E+002
 20
-2.45E+001
 11
1.08499E+002
 21
-2.45E+001
  0
LINE
  8
MED-0
  6
CONTINUOUS
 62
1
 10
1.08499E+002
 20
-2.45E+001
 11
1.08499E+002
 21
-2.45E+001
  0
LINE
  8
MED-0
  6
CONTINUOUS
 62
1
 10
1.08499E+002
 20
-2.45E+001
 11
1.15999E+002
 21
-2.45E+001
  0
LINE
  8
MED-0
  6
CONTINUOUS
 62
1
 10
1.08499E+002
 20
-2.45E+001
 11
1.08499E+002
 21
-1.7E+001
  0
LINE
  8
MED-0
  6
CONTINUOUS
 62
1
 10
1.08499E+002
 20
-2.45E+001
 11
1.00999E+002
 21
-2.45E+001
  0
LINE
  8
MED-0
  6
CONTINUOUS
 62
1
 10
1.08499E+002
 20
-2.45E+001
 11
1.08499E+002
 21
-3.2E+001
  0
CIRCLE
  8
104
  6
CONTINUOUS
 62
40
 10
1.08499E+002
 20
-8.5
 40
5.0
  0
CIRCLE
  8
104
  6
CONTINUOUS
 62
40
 10
1.08499E+002
 20
-8.5
 40
2.5
  0
LINE
  8
MED-0
  6
CONTINUOUS
 62
1
 10
1.08499E+002
 20
-8.5
 11
1.08499E+002
 21
-8.5
  0
LINE
  8
MED-0
  6
CONTINUOUS
 62
1
 10
1.08499E+002
 20
-8.5
 11
1.08499E+002
 21
-8.5
  0
LINE
  8
MED-0
  6
CONTINUOUS
 62
1
 10
1.08499E+002
 20
-8.5
 11
1.15999E+002
 21
-8.5
  0
LINE
  8
MED-0
  6
CONTINUOUS
 62
1
 10
1.08499E+002
 20
-8.5
 11
1.08499E+002
 21
-1.0
  0
LINE
  8
MED-0
  6
CONTINUOUS
 62
1
 10
1.08499E+002
 20
-8.5
 11
1.00999E+002
 21
-8.5
  0
LINE
  8
MED-0
  6
CONTINUOUS
 62
1
 10
1.08499E+002
 20
-8.5
 11
1.08499E+002
 21
-1.6E+001
  0
POINT
  8
Drafting_Hidden_Entities
  6
CONTINUOUS
 62
1
 10
0.0
 20
0.0
  0
ENDBLK
  0
BLOCK
  2
1NEW01
 10
0.0
 20
0.0
 70
0
  0
LINE
  8
MED-1
  6
CONTINUOUS
 62
40
 10
0.0
 20
-6.34992
 11
0.0
 21
0.0
  0
LINE
  8
MED-1
  6
CONTINUOUS
 62
40
 10
6.65
 20
-1.7E+001
 11
6.65
 21
-1.3E+001
  0
LINE
  8
MED-1
  6
CONTINUOUS
 62
40
 10
6.14998
 20
-1.25E+001
 11
6.65
 21
-1.3E+001
  0
LINE
  8
MED-1
  6
CONTINUOUS
 62
40
 10
6.14998
 20
-1.25E+001
 11
6.14998
 21
-1.75E+001
  0
LINE
  8
MED-1
  6
CONTINUOUS
 62
40
 10
6.65
 20
-1.7E+001
 11
6.14998
 21
-1.75E+001
  0
LINE
  8
MED-1
  6
CONTINUOUS
 62
40
 10
-4.0E-005
 20
-1.25E+001
 11
6.14998
 21
-1.25E+001
  0
LINE
  8
MED-1
  6
CONTINUOUS
 62
40
 10
6.14998
 20
-1.75E+001
 11
-4.0E-005
 21
-1.75E+001
  0
LINE
  8
MED-1
  6
CONTINUOUS
 62
40
 10
6.65
 20
-6.2E+001
 11
6.65
 21
-5.8E+001
  0
LINE
  8
MED-1
  6
CONTINUOUS
 62
40
 10
6.14998
 20
-5.749998E+001
 11
6.65
 21
-5.8E+001
  0
LINE
  8
MED-1
  6
CONTINUOUS
 62
40
 10
6.14998
 20
-5.749998E+001
 11
6.14998
 21
-6.249997E+001
  0
LINE
  8
MED-1
  6
CONTINUOUS
 62
40
 10
6.65
 20
-6.200003E+001
 11
6.14998
 21
-6.249997E+001
  0
LINE
  8
MED-1
  6
CONTINUOUS
 62
40
 10
-4.0E-005
 20
-5.749998E+001
 11
6.14998
 21
-5.749998E+001
  0
LINE
  8
MED-1
  6
CONTINUOUS
 62
40
 10
6.14998
 20
-6.249997E+001
 11
-4.0E-005
 21
-6.249997E+001
  0
LINE
  8
MED-1
  6
CONTINUOUS
 62
40
 10
-3.2E+001
 20
-6.40856
 11
-3.200001E+001
 21
6.99998
  0
LINE
  8
MED-1
  6
CONTINUOUS
 62
40
 10
-2.289198E+001
 20
7.0
 11
-1.0E+001
 21
7.0
  0
LINE
  8
MED-1
  6
CONTINUOUS
 62
40
 10
-2.428789E+001
 20
6.99998
 11
-2.289198E+001
 21
7.0
  0
LINE
  8
MED-1
  6
CONTINUOUS
 62
40
 10
-1.0E+001
 20
7.0
 11
-1.0E+001
 21
-6.02455
  0
LINE
  8
MED-1
  6
CONTINUOUS
 62
40
 10
-1.000746E+001
 20
1.3E+001
 11
-2.048986E+001
 21
1.3E+001
  0
LINE
  8
MED-1
  6
CONTINUOUS
 62
40
 10
-1.000746E+001
 20
1.3E+001
 11
-1.0E+001
 21
7.0
  0
LINE
  8
MED-1
  6
CONTINUOUS
 62
40
 10
-2.048986E+001
 20
1.3E+001
 11
-2.428787E+001
 21
1.3E+001
  0
LINE
  8
MED-1
  6
CONTINUOUS
 62
40
 10
-2.428787E+001
 20
1.3E+001
 11
-2.428789E+001
 21
6.99998
  0
LINE
  8
MED-1
  6
CONTINUOUS
 62
40
 10
-2.428787E+001
 20
1.3E+001
 11
-5.7893955E+001
 21
1.3E+001
  0
LINE
  8
MED-1
  6
CONTINUOUS
 62
40
 10
0.0
 20
-5.85
 11
-4.5E+001
 21
-6.63548
  0
LINE
  8
MED-1
  6
CONTINUOUS
 62
40
 10
0.0
 20
-7.4E+001
 11
0.0
 21
-7.350007E+001
  0
LINE
  8
MED-1
  6
CONTINUOUS
 62
40
 10
0.0
 20
-7.350007E+001
 11
0.0
 21
-6.34992
  0
LINE
  8
MED-1
  6
CONTINUOUS
 62
40
 10
0.0
 20
-6.34992
 11
0.0
 21
-5.85
  0
LINE
  8
MED-1
  6
CONTINUOUS
 62
40
 10
-4.42E+001
 20
-7.071452E+001
 11
-4.42E+001
 21
-9.13548
  0
LINE
  8
MED-1
  6
CONTINUOUS
 62
40
 10
-4.5E+001
 20
-7.321452E+001
 11
0.0
 21
-7.4E+001
  0
LINE
  8
MED-1
  6
CONTINUOUS
 62
40
 10
-4.5E+001
 20
-7.071452E+001
 11
-4.42E+001
 21
-7.071452E+001
  0
LINE
  8
MED-1
  6
CONTINUOUS
 62
40
 10
-4.5E+001
 20
-7.27146E+001
 11
-4.5E+001
 21
-7.321452E+001
  0
LINE
  8
MED-1
  6
CONTINUOUS
 62
40
 10
-4.5E+001
 20
-7.071452E+001
 11
-4.5E+001
 21
-7.27146E+001
  0
LINE
  8
MED-1
  6
CONTINUOUS
 62
40
 10
-4.5E+001
 20
-6.63548
 11
-4.5E+001
 21
-7.1354
  0
LINE
  8
MED-1
  6
CONTINUOUS
 62
40
 10
-4.5E+001
 20
-7.1354
 11
-4.5E+001
 21
-9.13548
  0
LINE
  8
MED-1
  6
CONTINUOUS
 62
40
 10
-4.42E+001
 20
-9.13548
 11
-4.5E+001
 21
-9.13548
  0
LINE
  8
MED-1
  6
CONTINUOUS
 62
40
 10
-3.358763E+001
 20
-6.43763
 11
-3.358741E+001
 21
-6.43741
  0
LINE
  8
MED-1
  6
CONTINUOUS
 62
40
 10
-3.358741E+001
 20
-6.43741
 11
-3.358721E+001
 21
-6.43721
  0
LINE
  8
MED-1
  6
CONTINUOUS
 62
40
 10
-3.358721E+001
 20
-6.43721
 11
-3.358703E+001
 21
-6.43702
  0
LINE
  8
MED-1
  6
CONTINUOUS
 62
40
 10
-3.358703E+001
 20
-6.43702
 11
-3.358687E+001
 21
-6.43686
  0
LINE
  8
MED-1
  6
CONTINUOUS
 62
40
 10
-3.358687E+001
 20
-6.43686
 11
-3.358672E+001
 21
-6.43672
  0
LINE
  8
MED-1
  6
CONTINUOUS
 62
40
 10
-3.358672E+001
 20
-6.43672
 11
-3.35866E+001
 21
-6.43659
  0
LINE
  8
MED-1
  6
CONTINUOUS
 62
40
 10
-3.35866E+001
 20
-6.43659
 11
-3.358649E+001
 21
-6.43649
  0
ARC
  8
MED-1
  6
CONTINUOUS
 62
40
 10
-3.3437173E+001
 20
-6.5691352
 40
1.9972525E-001
 50
1.3834919E+002
 51
1.3838373E+002
  0
ARC
  8
MED-1
  6
CONTINUOUS
 62
40
 10
-3.3550941E+001
 20
-6.4762118
 40
5.3319884E-002
 50
1.3156884E+002
 51
1.3169824E+002
  0
ARC
  8
MED-1
  6
CONTINUOUS
 62
40
 10
-3.356405E+001
 20
-6.4585198
 40
3.1444812E-002
 50
1.3490981E+002
 51
1.3509019E+002
  0
LINE
  8
MED-1
  6
CONTINUOUS
 62
40
 10
-5.7893957E+001
 20
6.9999855
 11
-2.428789E+001
 21
6.99998
  0
LINE
  8
MED-1
  6
CONTINUOUS
 62
40
 10
5.761028
 20
0.0
 11
0.0
 21
0.0
  0
LINE
  8
106
  6
CENTERLINE
 62
1
 10
1.011738E+001
 20
-1.5E+001
 11
-4.931836
 21
-1.5E+001
  0
LINE
  8
106
  6
CENTERLINE
 62
1
 10
-2.0999996E+001
 20
-1.1999999E+001
 11
-2.1000016E+001
 21
1.4999999E+001
  0
LINE
  8
104
  6
CONTINUOUS
 62
1
 10
6.65
 20
-1.7E+001
 11
0.0
 21
-1.7E+001
  0
LINE
  8
104
  6
CONTINUOUS
 62
1
 10
6.65
 20
-1.3E+001
 11
0.0
 21
-1.3E+001
  0
LINE
  8
104
  6
CONTINUOUS
 62
1
 10
6.65
 20
-5.8E+001
 11
0.0
 21
-5.8E+001
  0
LINE
  8
104
  6
CONTINUOUS
 62
1
 10
6.65
 20
-6.200003E+001
 11
0.0
 21
-6.200003E+001
  0
LINE
  8
106
  6
CENTERLINE
 62
1
 10
8.006539
 20
-5.9999975E+001
 11
-1.853475
 21
-5.9999975E+001
  0
POLYLINE
  8
106
  6
CENTERLINE
 62
1
 66
1
 40
0.0
 41
0.0
 70
2
  0
VERTEX
  8
106
 42
0.0
 10
-5.9171194E+001
 20
2.6499957E+001
 70
0
  0
VERTEX
  8
106
 42
1.6021017E-002
 10
-5.9423381E+001
 20
2.6240538E+001
 70
1
  0
VERTEX
  8
106
 42
1.7178381E-002
 10
-5.9642562E+001
 20
2.5983376E+001
 70
0
  0
VERTEX
  8
106
 42
2.1075284E-002
 10
-5.9828237E+001
 20
2.5728418E+001
 70
1
  0
VERTEX
  8
106
 42
2.9869106E-002
 10
-5.997582E+001
 20
2.5476587E+001
 70
0
  0
VERTEX
  8
106
 42
4.0886208E-002
 10
-6.0076233E+001
 20
2.5229293E+001
 70
1
  0
VERTEX
  8
106
 42
5.4078361E-002
 10
-6.0125061E+001
 20
2.4987432E+001
 70
0
  0
VERTEX
  8
106
 42
6.3282736E-002
 10
-6.0114521E+001
 20
2.4752193E+001
 70
1
  0
VERTEX
  8
106
 42
6.3347295E-002
 10
-6.0044639E+001
 20
2.4523711E+001
 70
0
  0
VERTEX
  8
106
 42
4.6528517E-002
 10
-5.9914722E+001
 20
2.4301965E+001
 70
1
  0
VERTEX
  8
106
 42
2.2453815E-002
 10
-5.9744232E+001
 20
2.4083771E+001
 70
0
  0
VERTEX
  8
106
 42
7.2186117E-003
 10
-5.9552221E+001
 20
2.3865735E+001
 70
1
  0
VERTEX
  8
106
 42
-6.2768048E-003
 10
-5.9357053E+001
 20
2.364485E+001
 70
0
  0
VERTEX
  8
106
 42
-2.0714311E-002
 10
-5.9177092E+001
 20
2.3417833E+001
 70
1
  0
VERTEX
  8
106
 42
-4.2757599E-002
 10
-5.9033044E+001
 20
2.3181329E+001
 70
0
  0
VERTEX
  8
106
 42
-5.4352146E-002
 10
-5.8945074E+001
 20
2.2931795E+001
 70
1
  0
VERTEX
  8
106
 42
-4.9147831E-002
 10
-5.8909886E+001
 20
2.2669917E+001
 70
0
  0
VERTEX
  8
106
 42
-3.5823262E-002
 10
-5.8922174E+001
 20
2.2396848E+001
 70
1
  0
VERTEX
  8
106
 42
-1.7170451E-002
 10
-5.8963815E+001
 20
2.2117968E+001
 70
0
  0
VERTEX
  8
106
 42
-1.372151E-004
 10
-5.901633E+001
 20
2.1837618E+001
 70
1
  0
VERTEX
  8
106
 42
2.1408811E-002
 10
-5.9057171E+001
 20
2.1554459E+001
 70
0
  0
VERTEX
  8
106
 42
2.6009087E-002
 10
-5.9067423E+001
 20
2.1270337E+001
 70
1
  0
VERTEX
  8
106
 42
1.9128576E-002
 10
-5.9053997E+001
 20
2.1007958E+001
 70
0
  0
VERTEX
  8
106
 42
4.3322628E-002
 10
-5.9016076E+001
 20
2.0775766E+001
 70
1
  0
VERTEX
  8
106
 42
4.7830877E-002
 10
-5.8906149E+001
 20
2.0488582E+001
 70
0
  0
VERTEX
  8
106
 42
2.037569E-002
 10
-5.8671946E+001
 20
2.0057502E+001
 70
1
  0
VERTEX
  8
106
 42
1.1496265E-002
 10
-5.8325081E+001
 20
1.949997E+001
 70
0
  0
SEQEND
  0
POLYLINE
  8
106
  6
CENTERLINE
 62
1
 66
1
 40
0.0
 41
0.0
 70
2
  0
VERTEX
  8
106
 42
0.0
 10
-5.7893955E+001
 20
1.3E+001
 70
0
  0
VERTEX
  8
106
 42
9.2324079E-003
 10
-5.8053069E+001
 20
1.2773192E+001
 70
1
  0
VERTEX
  8
106
 42
8.8411803E-003
 10
-5.8199818E+001
 20
1.2547298E+001
 70
0
  0
VERTEX
  8
106
 42
1.0296252E-002
 10
-5.8334106E+001
 20
1.2322353E+001
 70
1
  0
VERTEX
  8
106
 42
1.4267972E-002
 10
-5.8453598E+001
 20
1.2098332E+001
 70
0
  0
VERTEX
  8
106
 42
1.8048001E-002
 10
-5.8554162E+001
 20
1.1875293E+001
 70
1
  0
VERTEX
  8
106
 42
2.2083838E-002
 10
-5.8633897E+001
 20
1.1653209E+001
 70
0
  0
VERTEX
  8
106
 42
2.6064686E-002
 10
-5.8689381E+001
 20
1.1432132E+001
 70
1
  0
VERTEX
  8
106
 42
3.0114061E-002
 10
-5.8719317E+001
 20
1.1212032E+001
 70
0
  0
VERTEX
  8
106
 42
3.4583056E-002
 10
-5.8719984E+001
 20
1.0992962E+001
 70
1
  0
VERTEX
  8
106
 42
3.9550655E-002
 10
-5.8688462E+001
 20
1.0774905E+001
 70
0
  0
VERTEX
  8
106
 42
3.6229736E-002
 10
-5.8620499E+001
 20
1.0557921E+001
 70
1
  0
VERTEX
  8
106
 42
2.6791222E-002
 10
-5.8522156E+001
 20
1.0341924E+001
 70
0
  0
VERTEX
  8
106
 42
1.3968395E-002
 10
-5.8400733E+001
 20
1.0126909E+001
 70
1
  0
VERTEX
  8
106
 42
-4.2625463E-003
 10
-5.8274467E+001
 20
9.9128236
 70
0
  0
VERTEX
  8
106
 42
-2.2308062E-002
 10
-5.8163483E+001
 20
9.6996291
 70
1
  0
VERTEX
  8
106
 42
-4.8714177E-002
 10
-5.8087627E+001
 20
9.4869071
 70
0
  0
VERTEX
  8
106
 42
-6.8097367E-002
 10
-5.8067199E+001
 20
9.274495
 70
1
  0
VERTEX
  8
106
 42
-7.2067293E-002
 10
-5.8106337E+001
 20
9.0634664
 70
0
  0
VERTEX
  8
106
 42
-4.4895101E-002
 10
-5.8204668E+001
 20
8.8542473
 70
1
  0
VERTEX
  8
106
 42
-5.698894E-004
 10
-5.8327363E+001
 20
8.6425173
 70
0
  0
VERTEX
  8
106
 42
1.6372564E-002
 10
-5.8439573E+001
 20
8.4269477
 70
1
  0
VERTEX
  8
106
 42
1.8487067E-002
 10
-5.8528067E+001
 20
8.2251494
 70
0
  0
VERTEX
  8
106
 42
8.9583672E-002
 10
-5.8572331E+001
 20
8.0433145
 70
1
  0
VERTEX
  8
106
 42
1.243969E-001
 10
-5.8511296E+001
 20
7.8123275
 70
0
  0
VERTEX
  8
106
 42
4.4765343E-002
 10
-5.828019E+001
 20
7.4597643
 70
1
  0
VERTEX
  8
106
 42
2.1079969E-002
 10
-5.7893957E+001
 20
6.9999855
 70
0
  0
SEQEND
  0
LINE
  8
MED-1
  6
CONTINUOUS
 62
40
 10
-2.0
 20
3.1E+001
 11
-5.23621
 21
3.1E+001
  0
LINE
  8
MED-1
  6
CONTINUOUS
 62
40
 10
-5.23621
 20
3.1E+001
 11
-6.44927
 21
3.1E+001
  0
LINE
  8
MED-1
  6
CONTINUOUS
 62
40
 10
-6.44927
 20
3.1E+001
 11
-1.806535E+001
 21
3.1E+001
  0
LINE
  8
MED-1
  6
CONTINUOUS
 62
40
 10
-1.806535E+001
 20
3.1E+001
 11
-1.95E+001
 21
3.1E+001
  0
LINE
  8
MED-1
  6
CONTINUOUS
 62
40
 10
-1.95E+001
 20
1.5E+001
 11
-1.806535E+001
 21
1.5E+001
  0
LINE
  8
MED-1
  6
CONTINUOUS
 62
40
 10
-1.806535E+001
 20
1.5E+001
 11
-6.44927
 21
1.5E+001
  0
LINE
  8
MED-1
  6
CONTINUOUS
 62
40
 10
-6.44927
 20
1.5E+001
 11
-5.23621
 21
1.5E+001
  0
LINE
  8
MED-1
  6
CONTINUOUS
 62
40
 10
-2.0
 20
1.5E+001
 11
-5.23621
 21
1.5E+001
  0
LINE
  8
MED-1
  6
CONTINUOUS
 62
40
 10
-5.23621
 20
1.7E+001
 11
-2.0
 21
1.7E+001
  0
LINE
  8
MED-1
  6
CONTINUOUS
 62
40
 10
-5.23621
 20
1.7E+001
 11
-6.44927
 21
1.7E+001
  0
LINE
  8
MED-1
  6
CONTINUOUS
 62
40
 10
-6.44927
 20
1.7E+001
 11
-1.806535E+001
 21
1.7E+001
  0
LINE
  8
MED-1
  6
CONTINUOUS
 62
40
 10
-1.806535E+001
 20
1.7E+001
 11
-1.95E+001
 21
1.7E+001
  0
LINE
  8
MED-1
  6
CONTINUOUS
 62
40
 10
-1.95E+001
 20
2.9E+001
 11
-1.806535E+001
 21
2.9E+001
  0
LINE
  8
MED-1
  6
CONTINUOUS
 62
40
 10
-1.806535E+001
 20
2.9E+001
 11
-6.44927
 21
2.9E+001
  0
LINE
  8
MED-1
  6
CONTINUOUS
 62
40
 10
-6.44927
 20
2.9E+001
 11
-5.23621
 21
2.9E+001
  0
LINE
  8
MED-1
  6
CONTINUOUS
 62
40
 10
-2.0
 20
2.9E+001
 11
-5.23621
 21
2.9E+001
  0
ARC
  8
MED-1
  6
CONTINUOUS
 62
40
 10
-2.0
 20
2.9E+001
 40
2.0000001
 50
0.0
 51
9.0E+001
  0
ARC
  8
MED-1
  6
CONTINUOUS
 62
40
 10
-2.0
 20
1.7E+001
 40
1.9999999
 50
2.7E+002
 51
3.6E+002
  0
LINE
  8
MED-1
  6
CONTINUOUS
 62
40
 10
-2.0
 20
1.7E+001
 11
-2.0
 21
2.9E+001
  0
LINE
  8
MED-1
  6
CONTINUOUS
 62
40
 10
0.0
 20
2.9E+001
 11
0.0
 21
1.7E+001
  0
LINE
  8
MED-1
  6
CONTINUOUS
 62
40
 10
-1.95E+001
 20
2.9E+001
 11
-1.95E+001
 21
3.1E+001
  0
LINE
  8
MED-1
  6
CONTINUOUS
 62
40
 10
-1.95E+001
 20
1.5E+001
 11
-1.95E+001
 21
1.7E+001
  0
CIRCLE
  8
MED-1
  6
CONTINUOUS
 62
40
 10
-2.9E+001
 20
2.3E+001
 40
3.5
  0
ARC
  8
MED-1
  6
CONTINUOUS
 62
40
 10
-1.2E+001
 20
2.641667E+001
 40
6.0833332
 50
4.888791E+001
 51
9.0E+001
  0
ARC
  8
MED-1
  6
CONTINUOUS
 62
40
 10
-1.2E+001
 20
2.641667E+001
 40
6.0833333
 50
9.0E+001
 51
1.3111209E+002
  0
LINE
  8
MED-1
  6
CONTINUOUS
 62
40
 10
-7.0
 20
1.725E+001
 11
-1.7E+001
 21
1.725E+001
  0
LINE
  8
MED-1
  6
CONTINUOUS
 62
40
 10
-1.7E+001
 20
2.875E+001
 11
-7.0
 21
2.875E+001
  0
LINE
  8
MED-1
  6
CONTINUOUS
 62
40
 10
-7.0
 20
2.875E+001
 11
-6.99999
 21
2.850001E+001
  0
LINE
  8
MED-1
  6
CONTINUOUS
 62
40
 10
-6.99999
 20
1.749998E+001
 11
-7.0
 21
1.725E+001
  0
LINE
  8
MED-1
  6
CONTINUOUS
 62
40
 10
-1.7E+001
 20
1.725E+001
 11
-1.699999E+001
 21
1.749998E+001
  0
LINE
  8
MED-1
  6
CONTINUOUS
 62
40
 10
-1.699999E+001
 20
2.850001E+001
 11
-1.7E+001
 21
2.875E+001
  0
ARC
  8
MED-1
  6
CONTINUOUS
 62
40
 10
-2.9E+001
 20
2.3E+001
 40
5.5
 50
9.0E+001
 51
1.8E+002
  0
ARC
  8
MED-1
  6
CONTINUOUS
 62
40
 10
-2.9E+001
 20
2.3E+001
 40
5.5
 50
1.8E+002
 51
2.7E+002
  0
LINE
  8
MED-1
  6
CONTINUOUS
 62
40
 10
-1.720481E+001
 20
2.85E+001
 11
-4.5
 21
2.85E+001
  0
LINE
  8
MED-1
  6
CONTINUOUS
 62
40
 10
-1.720481E+001
 20
2.85E+001
 11
-1.893975E+001
 21
2.85E+001
  0
LINE
  8
MED-1
  6
CONTINUOUS
 62
40
 10
-1.893975E+001
 20
2.85E+001
 11
-2.9E+001
 21
2.85E+001
  0
LINE
  8
MED-1
  6
CONTINUOUS
 62
40
 10
-2.9E+001
 20
1.75E+001
 11
-1.893975E+001
 21
1.75E+001
  0
LINE
  8
MED-1
  6
CONTINUOUS
 62
40
 10
-1.893975E+001
 20
1.75E+001
 11
-1.720481E+001
 21
1.75E+001
  0
LINE
  8
MED-1
  6
CONTINUOUS
 62
40
 10
-4.5
 20
1.75E+001
 11
-1.720481E+001
 21
1.75E+001
  0
LINE
  8
MED-1
  6
CONTINUOUS
 62
40
 10
-1.720481E+001
 20
1.75E+001
 11
-1.720481E+001
 21
2.85E+001
  0
LINE
  8
MED-1
  6
CONTINUOUS
 62
40
 10
-4.5
 20
2.85E+001
 11
-4.49999
 21
2.725001E+001
  0
LINE
  8
MED-1
  6
CONTINUOUS
 62
40
 10
-4.5
 20
1.875E+001
 11
-4.5
 21
1.75E+001
  0
LINE
  8
MED-1
  6
CONTINUOUS
 62
40
 10
-3.95E+001
 20
2.022236E+001
 11
-3.949975E+001
 21
1.946704E+001
  0
LINE
  8
MED-1
  6
CONTINUOUS
 62
40
 10
-3.95E+001
 20
2.022236E+001
 11
-3.95E+001
 21
2.023821E+001
  0
LINE
  8
MED-1
  6
CONTINUOUS
 62
40
 10
-3.95E+001
 20
2.57618E+001
 11
-3.95E+001
 21
2.023821E+001
  0
LINE
  8
MED-1
  6
CONTINUOUS
 62
40
 10
-3.95E+001
 20
2.650026E+001
 11
-3.95E+001
 21
2.582649E+001
  0
LINE
  8
MED-1
  6
CONTINUOUS
 62
40
 10
-3.95E+001
 20
2.57618E+001
 11
-3.95E+001
 21
2.582649E+001
  0
LINE
  8
MED-1
  6
CONTINUOUS
 62
40
 10
-3.95E+001
 20
2.66753E+001
 11
-3.95E+001
 21
2.650026E+001
  0
LINE
  8
MED-1
  6
CONTINUOUS
 62
40
 10
-3.630001E+001
 20
1.824997E+001
 11
-3.630001E+001
 21
1.898822E+001
  0
LINE
  8
MED-1
  6
CONTINUOUS
 62
40
 10
-3.177264E+001
 20
1.825E+001
 11
-3.205563E+001
 21
1.825E+001
  0
LINE
  8
MED-1
  6
CONTINUOUS
 62
40
 10
-3.205563E+001
 20
1.825E+001
 11
-3.233856E+001
 21
1.825E+001
  0
LINE
  8
MED-1
  6
CONTINUOUS
 62
40
 10
-3.233856E+001
 20
1.825E+001
 11
-3.262138E+001
 21
1.825E+001
  0
LINE
  8
MED-1
  6
CONTINUOUS
 62
40
 10
-3.262138E+001
 20
1.825E+001
 11
-3.290448E+001
 21
1.825E+001
  0
LINE
  8
MED-1
  6
CONTINUOUS
 62
40
 10
-3.290448E+001
 20
1.825E+001
 11
-3.318801E+001
 21
1.825E+001
  0
LINE
  8
MED-1
  6
CONTINUOUS
 62
40
 10
-3.318801E+001
 20
1.825E+001
 11
-3.34704E+001
 21
1.825E+001
  0
LINE
  8
MED-1
  6
CONTINUOUS
 62
40
 10
-3.34704E+001
 20
1.825E+001
 11
-3.37511E+001
 21
1.825E+001
  0
LINE
  8
MED-1
  6
CONTINUOUS
 62
40
 10
-3.37511E+001
 20
1.825E+001
 11
-3.403632E+001
 21
1.825E+001
  0
LINE
  8
MED-1
  6
CONTINUOUS
 62
40
 10
-3.403632E+001
 20
1.825E+001
 11
-3.432821E+001
 21
1.825E+001
  0
LINE
  8
MED-1
  6
CONTINUOUS
 62
40
 10
-3.432821E+001
 20
1.825E+001
 11
-3.460224E+001
 21
1.824999E+001
  0
LINE
  8
MED-1
  6
CONTINUOUS
 62
40
 10
-3.460224E+001
 20
1.824999E+001
 11
-3.484999E+001
 21
1.824999E+001
  0
LINE
  8
MED-1
  6
CONTINUOUS
 62
40
 10
-3.484999E+001
 20
1.824999E+001
 11
-3.516817E+001
 21
1.824999E+001
  0
LINE
  8
MED-1
  6
CONTINUOUS
 62
40
 10
-3.516817E+001
 20
1.824999E+001
 11
-3.565823E+001
 21
1.824998E+001
  0
LINE
  8
MED-1
  6
CONTINUOUS
 62
40
 10
-3.565823E+001
 20
1.824998E+001
 11
-3.630001E+001
 21
1.824997E+001
  0
LINE
  8
MED-1
  6
CONTINUOUS
 62
40
 10
-3.276239E+001
 20
1.898821E+001
 11
-3.630001E+001
 21
1.898822E+001
  0
LINE
  8
MED-1
  6
CONTINUOUS
 62
40
 10
-3.937653E+001
 20
1.938092E+001
 11
-3.93726E+001
 21
1.938556E+001
  0
ARC
  8
MED-1
  6
CONTINUOUS
 62
40
 10
-2.8385165E+001
 20
1.0051235E+001
 40
1.441712E+001
 50
1.3958391E+002
 51
1.3965059E+002
  0
LINE
  8
MED-1
  6
CONTINUOUS
 62
40
 10
-3.936173E+001
 20
1.939834E+001
 11
-3.934383E+001
 21
1.94194E+001
  0
LINE
  8
MED-1
  6
CONTINUOUS
 62
40
 10
-3.934383E+001
 20
1.94194E+001
 11
-3.931791E+001
 21
1.94499E+001
  0
LINE
  8
MED-1
  6
CONTINUOUS
 62
40
 10
-3.931791E+001
 20
1.94499E+001
 11
-3.92834E+001
 21
1.949049E+001
  0
LINE
  8
MED-1
  6
CONTINUOUS
 62
40
 10
-3.92834E+001
 20
1.949049E+001
 11
-3.924672E+001
 21
1.953364E+001
  0
LINE
  8
MED-1
  6
CONTINUOUS
 62
40
 10
-3.924672E+001
 20
1.953364E+001
 11
-3.920995E+001
 21
1.95769E+001
  0
LINE
  8
MED-1
  6
CONTINUOUS
 62
40
 10
-3.920995E+001
 20
1.95769E+001
 11
-3.915079E+001
 21
1.96465E+001
  0
LINE
  8
MED-1
  6
CONTINUOUS
 62
40
 10
-3.915079E+001
 20
1.96465E+001
 11
-3.904528E+001
 21
1.977062E+001
  0
LINE
  8
MED-1
  6
CONTINUOUS
 62
40
 10
-3.904528E+001
 20
1.977062E+001
 11
-3.889837E+001
 21
1.994343E+001
  0
LINE
  8
MED-1
  6
CONTINUOUS
 62
40
 10
-3.630001E+001
 20
1.824997E+001
 11
-3.647295E+001
 21
1.825306E+001
  0
ARC
  8
MED-1
  6
CONTINUOUS
 62
40
 10
-3.6297491E+001
 20
2.3292887E+001
 40
5.0428806
 50
2.6606087E+002
 51
2.6800608E+002
  0
ARC
  8
MED-1
  6
CONTINUOUS
 62
40
 10
-3.6301575E+001
 20
2.3120683E+001
 40
4.8708089
 50
2.6397496E+002
 51
2.6596964E+002
  0
ARC
  8
MED-1
  6
CONTINUOUS
 62
40
 10
-3.6313787E+001
 20
2.3013242E+001
 40
4.7626796
 50
2.6196142E+002
 51
2.639854E+002
  0
ARC
  8
MED-1
  6
CONTINUOUS
 62
40
 10
-3.6314903E+001
 20
2.2975249E+001
 40
4.7249057
 50
2.5988441E+002
 51
2.6191039E+002
  0
ARC
  8
MED-1
  6
CONTINUOUS
 62
40
 10
-3.6322487E+001
 20
2.2951077E+001
 40
4.6997785
 50
2.5789897E+002
 51
2.5992367E+002
  0
ARC
  8
MED-1
  6
CONTINUOUS
 62
40
 10
-3.6317237E+001
 20
2.2954942E+001
 40
4.7046604
 50
2.5583385E+002
 51
2.5784633E+002
  0
ARC
  8
MED-1
  6
CONTINUOUS
 62
40
 10
-3.6329182E+001
 20
2.2911913E+001
 40
4.6600159
 50
2.5381979E+002
 51
2.5584678E+002
  0
ARC
  8
MED-1
  6
CONTINUOUS
 62
40
 10
-3.6344775E+001
 20
2.2843603E+001
 40
4.5900692
 50
2.5171292E+002
 51
2.5376911E+002
  0
ARC
  8
MED-1
  6
CONTINUOUS
 62
40
 10
-3.6311492E+001
 20
2.2983475E+001
 40
4.7333367
 50
2.4987768E+002
 51
2.5186164E+002
  0
ARC
  8
MED-1
  6
CONTINUOUS
 62
40
 10
-3.6181201E+001
 20
2.33347E+001
 40
5.1079465
 50
2.480334E+002
 51
2.4986077E+002
  0
ARC
  8
MED-1
  6
CONTINUOUS
 62
40
 10
-3.6315887E+001
 20
2.2934926E+001
 40
4.6868783
 50
2.4570623E+002
 51
2.4773225E+002
  0
ARC
  8
MED-1
  6
CONTINUOUS
 62
40
 10
-3.6606349E+001
 20
2.2273988E+001
 40
3.9649732
 50
2.4314489E+002
 51
2.456025E+002
  0
ARC
  8
MED-1
  6
CONTINUOUS
 62
40
 10
-3.624115E+001
 20
2.3179089E+001
 40
4.9381325
 50
2.4225205E+002
 51
2.4410858E+002
  0
ARC
  8
MED-1
  6
CONTINUOUS
 62
40
 10
-3.2065266E+001
 20
3.1177506E+001
 40
1.3961015E+001
 50
2.4177296E+002
 51
2.4236799E+002
  0
ARC
  8
MED-1
  6
CONTINUOUS
 62
40
 10
-3.660438E+001
 20
2.2346754E+001
 40
4.0374599
 50
2.3658323E+002
 51
2.392557E+002
  0
ARC
  8
MED-1
  6
CONTINUOUS
 62
40
 10
-3.6823677E+001
 20
2.2038926E+001
 40
3.6597724
 50
2.3219282E+002
 51
2.3679483E+002
  0
ARC
  8
MED-1
  6
CONTINUOUS
 62
40
 10
-3.3133903E+001
 20
2.7330744E+001
 40
1.0107922E+001
 50
2.3185911E+002
 51
2.3405639E+002
  0
LINE
  8
MED-1
  6
CONTINUOUS
 62
40
 10
-3.630001E+001
 20
1.898822E+001
 11
-3.644607E+001
 21
1.899082E+001
  0
ARC
  8
MED-1
  6
CONTINUOUS
 62
40
 10
-3.6298338E+001
 20
2.3245989E+001
 40
4.2577323
 50
2.6606572E+002
 51
2.6801159E+002
  0
ARC
  8
MED-1
  6
CONTINUOUS
 62
40
 10
-3.6301475E+001
 20
2.3100503E+001
 40
4.1123802
 50
2.6397486E+002
 51
2.6597025E+002
  0
ARC
  8
MED-1
  6
CONTINUOUS
 62
40
 10
-3.631214E+001
 20
2.3009815E+001
 40
4.0210735
 50
2.6196568E+002
 51
2.6399035E+002
  0
ARC
  8
MED-1
  6
CONTINUOUS
 62
40
 10
-3.6312831E+001
 20
2.2977899E+001
 40
3.9893757
 50
2.598849E+002
 51
2.6191145E+002
  0
ARC
  8
MED-1
  6
CONTINUOUS
 62
40
 10
-3.6319063E+001
 20
2.2957974E+001
 40
3.9686668
 50
2.5789778E+002
 51
2.5992295E+002
  0
ARC
  8
MED-1
  6
CONTINUOUS
 62
40
 10
-3.6314832E+001
 20
2.2961074E+001
 40
3.9725872
 50
2.5583462E+002
 51
2.5784749E+002
  0
ARC
  8
MED-1
  6
CONTINUOUS
 62
40
 10
-3.6324723E+001
 20
2.2924947E+001
 40
3.9351377
 50
2.5381821E+002
 51
2.5584552E+002
  0
ARC
  8
MED-1
  6
CONTINUOUS
 62
40
 10
-3.6338085E+001
 20
2.2867673E+001
 40
3.8764107
 50
2.5171554E+002
 51
2.5377197E+002
  0
ARC
  8
MED-1
  6
CONTINUOUS
 62
40
 10
-3.6309584E+001
 20
2.2985627E+001
 40
3.9973634
 50
2.49874E+002
 51
2.5185808E+002
  0
ARC
  8
MED-1
  6
CONTINUOUS
 62
40
 10
-3.6199823E+001
 20
2.3282935E+001
 40
4.3142848
 50
2.4803655E+002
 51
2.4986391E+002
  0
ARC
  8
MED-1
  6
CONTINUOUS
 62
40
 10
-3.6313506E+001
 20
2.294483E+001
 40
3.958255
 50
2.4570611E+002
 51
2.4773223E+002
  0
ARC
  8
MED-1
  6
CONTINUOUS
 62
40
 10
-3.6558987E+001
 20
2.2386264E+001
 40
3.3481617
 50
2.4314436E+002
 51
2.456024E+002
  0
ARC
  8
MED-1
  6
CONTINUOUS
 62
40
 10
-3.6250662E+001
 20
2.3150308E+001
 40
4.1696748
 50
2.4225052E+002
 51
2.4410739E+002
  0
ARC
  8
MED-1
  6
CONTINUOUS
 62
40
 10
-3.2721591E+001
 20
2.9910087E+001
 40
1.1795207E+001
 50
2.4177318E+002
 51
2.4236806E+002
  0
ARC
  8
MED-1
  6
CONTINUOUS
 62
40
 10
-3.6557684E+001
 20
2.244713E+001
 40
3.4086908
 50
2.3658113E+002
 51
2.3925458E+002
  0
ARC
  8
MED-1
  6
CONTINUOUS
 62
40
 10
-3.6742858E+001
 20
2.2186921E+001
 40
3.0895375
 50
2.3218539E+002
 51
2.367897E+002
  0
ARC
  8
MED-1
  6
CONTINUOUS
 62
40
 10
-3.3627746E+001
 20
2.6653901E+001
 40
8.532872
 50
2.3185275E+002
 51
2.3405113E+002
  0
LINE
  8
MED-1
  6
CONTINUOUS
 62
40
 10
-3.937653E+001
 20
1.938092E+001
 11
-3.938783E+001
 21
1.939044E+001
  0
ARC
  8
MED-1
  6
CONTINUOUS
 62
40
 10
-4.0371214E+001
 20
1.8211041E+001
 40
1.5355867
 50
5.0178631E+001
 51
5.0696498E+001
  0
ARC
  8
MED-1
  6
CONTINUOUS
 62
40
 10
-4.0188881E+001
 20
1.8429918E+001
 40
1.2507263
 50
5.0808572E+001
 51
5.140246E+001
  0
ARC
  8
MED-1
  6
CONTINUOUS
 62
40
 10
-4.0052596E+001
 20
1.8598946E+001
 40
1.0336027
 50
5.1461535E+001
 51
5.2133791E+001
  0
ARC
  8
MED-1
  6
CONTINUOUS
 62
40
 10
-3.9963443E+001
 20
1.8712737E+001
 40
8.8904782E-001
 50
5.2168206E+001
 51
5.2898169E+001
  0
ARC
  8
MED-1
  6
CONTINUOUS
 62
40
 10
-3.9895248E+001
 20
1.8801573E+001
 40
7.7705764E-001
 50
5.2957234E+001
 51
5.3736617E+001
  0
ARC
  8
MED-1
  6
CONTINUOUS
 62
40
 10
-3.9849207E+001
 20
1.8862258E+001
 40
7.008952E-001
 50
5.3837084E+001
 51
5.4639992E+001
  0
ARC
  8
MED-1
  6
CONTINUOUS
 62
40
 10
-3.9769768E+001
 20
1.8972148E+001
 40
5.6530546E-001
 50
5.4760529E+001
 51
5.5700719E+001
  0
ARC
  8
MED-1
  6
CONTINUOUS
 62
40
 10
-3.9693815E+001
 20
1.9081203E+001
 40
4.3241601E-001
 50
5.5871809E+001
 51
5.7037154E+001
  0
ARC
  8
MED-1
  6
CONTINUOUS
 62
40
 10
-3.9700372E+001
 20
1.9075801E+001
 40
4.405232E-001
 50
5.6703906E+001
 51
5.7729603E+001
  0
ARC
  8
MED-1
  6
CONTINUOUS
 62
40
 10
-3.9863959E+001
 20
1.8817963E+001
 40
7.4587689E-001
 50
5.7679239E+001
 51
5.8203133E+001
  0
ARC
  8
MED-1
  6
CONTINUOUS
 62
40
 10
-3.9628724E+001
 20
1.9184377E+001
 40
3.1058211E-001
 50
5.9469723E+001
 51
6.0913372E+001
  0
ARC
  8
MED-1
  6
CONTINUOUS
 62
40
 10
-3.959502E+001
 20
1.924387E+001
 40
2.4220825E-001
 50
6.1039162E+001
 51
6.3638087E+001
  0
ARC
  8
MED-1
  6
CONTINUOUS
 62
40
 10
-3.9728574E+001
 20
1.8994802E+001
 40
5.2475653E-001
 50
6.2647841E+001
 51
6.4147429E+001
  0
LINE
  8
MED-1
  6
CONTINUOUS
 62
40
 10
-3.889837E+001
 20
1.994343E+001
 11
-3.892528E+001
 21
1.996566E+001
  0
ARC
  8
MED-1
  6
CONTINUOUS
 62
40
 10
-3.9750718E+001
 20
1.8939806E+001
 40
1.3167097
 50
5.1178618E+001
 51
5.2685371E+001
  0
ARC
  8
MED-1
  6
CONTINUOUS
 62
40
 10
-3.9727716E+001
 20
1.89674E+001
 40
1.2808214
 50
5.2755471E+001
 51
5.4292063E+001
  0
ARC
  8
MED-1
  6
CONTINUOUS
 62
40
 10
-3.971418E+001
 20
1.8987058E+001
 40
1.2569586
 50
5.4270085E+001
 51
5.5825653E+001
  0
ARC
  8
MED-1
  6
CONTINUOUS
 62
40
 10
-3.9707109E+001
 20
1.8995486E+001
 40
1.2460141
 50
5.5876972E+001
 51
5.7436414E+001
  0
ARC
  8
MED-1
  6
CONTINUOUS
 62
40
 10
-3.970309E+001
 20
1.9002815E+001
 40
1.2376739
 50
5.7410602E+001
 51
5.897135E+001
  0
ARC
  8
MED-1
  6
CONTINUOUS
 62
40
 10
-3.9701541E+001
 20
1.9003706E+001
 40
1.236113
 50
5.9011565E+001
 51
6.0566537E+001
  0
ARC
  8
MED-1
  6
CONTINUOUS
 62
40
 10
-3.9693561E+001
 20
1.9017575E+001
 40
1.2201121
 50
6.0572852E+001
 51
6.214333E+001
  0
ARC
  8
MED-1
  6
CONTINUOUS
 62
40
 10
-3.9681578E+001
 20
1.9038497E+001
 40
1.1960163
 50
6.2182556E+001
 51
6.3781316E+001
  0
ARC
  8
MED-1
  6
CONTINUOUS
 62
40
 10
-3.9695982E+001
 20
1.901456E+001
 40
1.2238562
 50
6.3671434E+001
 51
6.5223549E+001
  0
ARC
  8
MED-1
  6
CONTINUOUS
 62
40
 10
-3.9729645E+001
 20
1.8940485E+001
 40
1.30522
 50
6.5244604E+001
 51
6.6688969E+001
  0
ARC
  8
MED-1
  6
CONTINUOUS
 62
40
 10
-3.9686622E+001
 20
1.902948E+001
 40
1.2064724
 50
6.6892865E+001
 51
6.8477617E+001
  0
ARC
  8
MED-1
  6
CONTINUOUS
 62
40
 10
-3.9625285E+001
 20
1.9182182E+001
 40
1.0419151
 50
6.8534757E+001
 51
7.0412085E+001
  0
ARC
  8
MED-1
  6
CONTINUOUS
 62
40
 10
-3.9726645E+001
 20
1.8947074E+001
 40
1.297506
 50
6.9675794E+001
 51
7.1091114E+001
  0
ARC
  8
MED-1
  6
CONTINUOUS
 62
40
 10
-4.047828E+001
 20
1.6767453E+001
 40
3.6030852
 50
7.1015803E+001
 51
7.1476784E+001
  0
ARC
  8
MED-1
  6
CONTINUOUS
 62
40
 10
-3.9637501E+001
 20
1.916672E+001
 40
1.0615833
 50
7.3366259E+001
 51
7.5380008E+001
  0
ARC
  8
MED-1
  6
CONTINUOUS
 62
40
 10
-3.9609144E+001
 20
1.928343E+001
 40
9.4149625E-001
 50
7.5257102E+001
 51
7.8770034E+001
  0
ARC
  8
MED-1
  6
CONTINUOUS
 62
40
 10
-3.9982033E+001
 20
1.7725251E+001
 40
2.5432237
 50
7.7366389E+001
 51
7.9073593E+001
  0
LINE
  8
MED-1
  6
CONTINUOUS
 62
40
 10
-3.949997E+001
 20
1.949997E+001
 11
-5.8325081E+001
 21
1.949997E+001
  0
LINE
  8
MED-1
  6
CONTINUOUS
 62
40
 10
-5.9171194E+001
 20
2.6499957E+001
 11
-3.95E+001
 21
2.650026E+001
  0
LINE
  8
MED-1
  6
CONTINUOUS
 62
40
 10
-3.949997E+001
 20
2.582647E+001
 11
-3.948022E+001
 21
2.583333E+001
  0
ARC
  8
MED-1
  6
CONTINUOUS
 62
40
 10
-3.9903388E+001
 20
2.7019663E+001
 40
1.2595459
 50
2.8963145E+002
 51
2.9058286E+002
  0
ARC
  8
MED-1
  6
CONTINUOUS
 62
40
 10
-3.9909348E+001
 20
2.7033549E+001
 40
1.2746414
 50
2.9061423E+002
 51
2.9155512E+002
  0
ARC
  8
MED-1
  6
CONTINUOUS
 62
40
 10
-3.9905194E+001
 20
2.7024235E+001
 40
1.2644526
 50
2.9153509E+002
 51
2.9248424E+002
  0
ARC
  8
MED-1
  6
CONTINUOUS
 62
40
 10
-3.9891854E+001
 20
2.698946E+001
 40
1.22722
 50
2.9252969E+002
 51
2.9350872E+002
  0
ARC
  8
MED-1
  6
CONTINUOUS
 62
40
 10
-3.9887867E+001
 20
2.6980377E+001
 40
1.2173006
 50
2.9350717E+002
 51
2.9449539E+002
  0
ARC
  8
MED-1
  6
CONTINUOUS
 62
40
 10
-3.9892536E+001
 20
2.698969E+001
 40
1.2277111
 50
2.9451348E+002
 51
2.9549395E+002
  0
ARC
  8
MED-1
  6
CONTINUOUS
 62
40
 10
-3.9889207E+001
 20
2.6981887E+001
 40
1.2192352
 50
2.9551056E+002
 51
2.965009E+002
  0
ARC
  8
MED-1
  6
CONTINUOUS
 62
40
 10
-3.9877647E+001
 20
2.6957932E+001
 40
1.1926387
 50
2.9651741E+002
 51
2.9753347E+002
  0
ARC
  8
MED-1
  6
CONTINUOUS
 62
40
 10
-3.9890838E+001
 20
2.6986329E+001
 40
1.223919
 50
2.9746652E+002
 51
2.9845499E+002
  0
ARC
  8
MED-1
  6
CONTINUOUS
 62
40
 10
-3.9930594E+001
 20
2.7058514E+001
 40
1.3063256
 50
2.984795E+002
 51
2.9940221E+002
  0
ARC
  8
MED-1
  6
CONTINUOUS
 62
40
 10
-3.9881987E+001
 20
2.6966142E+001
 40
1.2019925
 50
2.9954533E+002
 51
3.005675E+002
  0
ARC
  8
MED-1
  6
CONTINUOUS
 62
40
 10
-3.9795855E+001
 20
2.6818792E+001
 40
1.0313174
 50
3.0061046E+002
 51
3.0183443E+002
  0
ARC
  8
MED-1
  6
CONTINUOUS
 62
40
 10
-3.9921851E+001
 20
2.704171E+001
 40
1.2872044
 50
3.0136535E+002
 51
3.0228792E+002
  0
ARC
  8
MED-1
  6
CONTINUOUS
 62
40
 10
-4.1115315E+001
 20
2.8937703E+001
 40
3.5275486
 50
3.0222512E+002
 51
3.0252995E+002
  0
ARC
  8
MED-1
  6
CONTINUOUS
 62
40
 10
-3.9808446E+001
 20
2.6847172E+001
 40
1.0624782
 50
3.037341E+002
 51
3.0504502E+002
  0
ARC
  8
MED-1
  6
CONTINUOUS
 62
40
 10
-3.9749358E+001
 20
2.6765436E+001
 40
9.6163213E-001
 50
3.0495919E+002
 51
3.0720721E+002
  0
ARC
  8
MED-1
  6
CONTINUOUS
 62
40
 10
-4.0720019E+001
 20
2.8112353E+001
 40
2.6216747
 50
3.0630252E+002
 51
3.0738644E+002
  0
LINE
  8
MED-1
  6
CONTINUOUS
 62
40
 10
-3.912817E+001
 20
2.602928E+001
 11
-3.901113E+001
 21
2.611919E+001
  0
ARC
  8
MED-1
  6
CONTINUOUS
 62
40
 10
-3.6314213E+001
 20
2.2489696E+001
 40
4.52179
 50
1.2476158E+002
 51
1.2661441E+002
  0
ARC
  8
MED-1
  6
CONTINUOUS
 62
40
 10
-3.6399416E+001
 20
2.260085E+001
 40
4.3818995
 50
1.2277968E+002
 51
1.2467501E+002
  0
ARC
  8
MED-1
  6
CONTINUOUS
 62
40
 10
-3.6447488E+001
 20
2.2677637E+001
 40
4.2913134
 50
1.2087379E+002
 51
1.2279511E+002
  0
ARC
  8
MED-1
  6
CONTINUOUS
 62
40
 10
-3.646888E+001
 20
2.270557E+001
 40
4.2563626
 50
1.1889484E+002
 51
1.2081958E+002
  0
ARC
  8
MED-1
  6
CONTINUOUS
 62
40
 10
-3.6477238E+001
 20
2.2726249E+001
 40
4.2342209
 50
1.1700678E+002
 51
1.1893104E+002
  0
ARC
  8
MED-1
  6
CONTINUOUS
 62
40
 10
-3.6478651E+001
 20
2.2721207E+001
 40
4.2380728
 50
1.1504523E+002
 51
1.169588E+002
  0
ARC
  8
MED-1
  6
CONTINUOUS
 62
40
 10
-3.6496069E+001
 20
2.2759083E+001
 40
4.196385
 50
1.131201E+002
 51
1.1504871E+002
  0
ARC
  8
MED-1
  6
CONTINUOUS
 62
40
 10
-3.6524944E+001
 20
2.2819345E+001
 40
4.1296255
 50
1.1112132E+002
 51
1.1307995E+002
  0
ARC
  8
MED-1
  6
CONTINUOUS
 62
40
 10
-3.647077E+001
 20
2.2706469E+001
 40
4.254451
 50
1.093624E+002
 51
1.1125412E+002
  0
ARC
  8
MED-1
  6
CONTINUOUS
 62
40
 10
-3.6362625E+001
 20
2.2394864E+001
 40
4.5842867
 50
1.0760138E+002
 51
1.0934639E+002
  0
ARC
  8
MED-1
  6
CONTINUOUS
 62
40
 10
-3.649762E+001
 20
2.27506E+001
 40
4.2044368
 50
1.0537832E+002
 51
1.0731379E+002
  0
ARC
  8
MED-1
  6
CONTINUOUS
 62
40
 10
-3.667529E+001
 20
2.3372473E+001
 40
3.5577185
 50
1.0292874E+002
 51
1.0527537E+002
  0
ARC
  8
MED-1
  6
CONTINUOUS
 62
40
 10
-3.6410827E+001
 20
2.2540806E+001
 40
4.4280525
 50
1.0208281E+002
 51
1.0385629E+002
  0
ARC
  8
MED-1
  6
CONTINUOUS
 62
40
 10
-3.4702433E+001
 20
1.4668314E+001
 40
1.2483768E+001
 50
1.0161676E+002
 51
1.021867E+002
  0
ARC
  8
MED-1
  6
CONTINUOUS
 62
40
 10
-3.663702E+001
 20
2.3325844E+001
 40
3.6171989
 50
9.6661872E+001
 51
9.9214096E+001
  0
ARC
  8
MED-1
  6
CONTINUOUS
 62
40
 10
-3.6665964E+001
 20
2.3670595E+001
 40
3.2714371
 50
9.2458936E+001
 51
9.6858818E+001
  0
ARC
  8
MED-1
  6
CONTINUOUS
 62
40
 10
-3.6140364E+001
 20
1.7953463E+001
 40
9.0102017
 50
9.2133274E+001
 51
9.4238674E+001
  0
LINE
  8
MED-1
  6
CONTINUOUS
 62
40
 10
-3.647576E+001
 20
2.695742E+001
 11
-3.624685E+001
 21
2.695745E+001
  0
LINE
  8
MED-1
  6
CONTINUOUS
 62
40
 10
-3.624685E+001
 20
2.695745E+001
 11
-3.601798E+001
 21
2.695753E+001
  0
LINE
  8
MED-1
  6
CONTINUOUS
 62
40
 10
-3.601798E+001
 20
2.695753E+001
 11
-3.578921E+001
 21
2.695766E+001
  0
LINE
  8
MED-1
  6
CONTINUOUS
 62
40
 10
-3.578921E+001
 20
2.695766E+001
 11
-3.55602E+001
 21
2.695783E+001
  0
LINE
  8
MED-1
  6
CONTINUOUS
 62
40
 10
-3.55602E+001
 20
2.695783E+001
 11
-3.533085E+001
 21
2.695805E+001
  0
LINE
  8
MED-1
  6
CONTINUOUS
 62
40
 10
-3.533085E+001
 20
2.695805E+001
 11
-3.510243E+001
 21
2.695832E+001
  0
LINE
  8
MED-1
  6
CONTINUOUS
 62
40
 10
-3.510243E+001
 20
2.695832E+001
 11
-3.487537E+001
 21
2.695862E+001
  0
LINE
  8
MED-1
  6
CONTINUOUS
 62
40
 10
-3.487537E+001
 20
2.695862E+001
 11
-3.464466E+001
 21
2.695897E+001
  0
LINE
  8
MED-1
  6
CONTINUOUS
 62
40
 10
-3.464466E+001
 20
2.695897E+001
 11
-3.440856E+001
 21
2.695938E+001
  0
LINE
  8
MED-1
  6
CONTINUOUS
 62
40
 10
-3.440856E+001
 20
2.695938E+001
 11
-3.418689E+001
 21
2.695979E+001
  0
LINE
  8
MED-1
  6
CONTINUOUS
 62
40
 10
-3.418689E+001
 20
2.695979E+001
 11
-3.398649E+001
 21
2.696019E+001
  0
LINE
  8
MED-1
  6
CONTINUOUS
 62
40
 10
-3.398649E+001
 20
2.696019E+001
 11
-3.372912E+001
 21
2.696077E+001
  0
LINE
  8
MED-1
  6
CONTINUOUS
 62
40
 10
-3.372912E+001
 20
2.696077E+001
 11
-3.333272E+001
 21
2.696178E+001
  0
LINE
  8
MED-1
  6
CONTINUOUS
 62
40
 10
-3.333272E+001
 20
2.696178E+001
 11
-3.281359E+001
 21
2.696316E+001
  0
LINE
  8
MED-1
  6
CONTINUOUS
 62
40
 10
-3.949997E+001
 20
2.650024E+001
 11
-3.94796E+001
 21
2.647443E+001
  0
LINE
  8
MED-1
  6
CONTINUOUS
 62
40
 10
-3.94796E+001
 20
2.647443E+001
 11
-3.945731E+001
 21
2.644619E+001
  0
LINE
  8
MED-1
  6
CONTINUOUS
 62
40
 10
-3.945731E+001
 20
2.644619E+001
 11
-3.943315E+001
 21
2.641559E+001
  0
LINE
  8
MED-1
  6
CONTINUOUS
 62
40
 10
-3.943315E+001
 20
2.641559E+001
 11
-3.940637E+001
 21
2.638167E+001
  0
LINE
  8
MED-1
  6
CONTINUOUS
 62
40
 10
-3.940637E+001
 20
2.638167E+001
 11
-3.937663E+001
 21
2.6344E+001
  0
LINE
  8
MED-1
  6
CONTINUOUS
 62
40
 10
-3.937663E+001
 20
2.6344E+001
 11
-3.934751E+001
 21
2.630711E+001
  0
LINE
  8
MED-1
  6
CONTINUOUS
 62
40
 10
-3.934751E+001
 20
2.630711E+001
 11
-3.932017E+001
 21
2.627248E+001
  0
LINE
  8
MED-1
  6
CONTINUOUS
 62
40
 10
-3.932017E+001
 20
2.627248E+001
 11
-3.928116E+001
 21
2.622307E+001
  0
LINE
  8
MED-1
  6
CONTINUOUS
 62
40
 10
-3.928116E+001
 20
2.622307E+001
 11
-3.92162E+001
 21
2.614078E+001
  0
LINE
  8
MED-1
  6
CONTINUOUS
 62
40
 10
-3.92162E+001
 20
2.614078E+001
 11
-3.912817E+001
 21
2.602928E+001
  0
LINE
  8
MED-1
  6
CONTINUOUS
 62
40
 10
-3.647304E+001
 20
2.769567E+001
 11
-3.647576E+001
 21
2.695742E+001
  0
ARC
  8
MED-1
  6
CONTINUOUS
 62
40
 10
-3.647305E+001
 20
2.269565E+001
 40
5.0
 50
8.999989E+001
 51
1.2725694E+002
  0
LINE
  8
MED-1
  6
CONTINUOUS
 62
40
 10
-3.647304E+001
 20
2.769567E+001
 11
-3.183593E+001
 21
2.771249E+001
  0
LINE
  8
MED-1
  6
CONTINUOUS
 62
40
 10
1.4E+001
 20
2.3E+001
 11
1.4E+001
 21
2.52E+001
  0
LINE
  8
MED-1
  6
CONTINUOUS
 62
40
 10
1.4E+001
 20
2.08E+001
 11
1.4E+001
 21
2.3E+001
  0
LINE
  8
MED-1
  6
CONTINUOUS
 62
40
 10
-5.3
 20
2.3E+001
 11
-5.3
 21
1.905E+001
  0
LINE
  8
MED-1
  6
CONTINUOUS
 62
40
 10
-5.3
 20
2.695E+001
 11
-5.3
 21
2.3E+001
  0
LINE
  8
MED-1
  6
CONTINUOUS
 62
40
 10
1.400003E+001
 20
2.079999E+001
 11
1.369996E+001
 21
2.05E+001
  0
LINE
  8
MED-1
  6
CONTINUOUS
 62
40
 10
1.369996E+001
 20
2.3E+001
 11
1.369996E+001
 21
2.05E+001
  0
LINE
  8
MED-1
  6
CONTINUOUS
 62
40
 10
1.369996E+001
 20
2.549999E+001
 11
1.369996E+001
 21
2.3E+001
  0
LINE
  8
MED-1
  6
CONTINUOUS
 62
40
 10
1.369996E+001
 20
2.549999E+001
 11
1.400003E+001
 21
2.52E+001
  0
LINE
  8
MED-1
  6
CONTINUOUS
 62
40
 10
-5.00001
 20
2.3E+001
 11
-5.00001
 21
2.725001E+001
  0
LINE
  8
MED-1
  6
CONTINUOUS
 62
40
 10
-5.00001
 20
1.874998E+001
 11
-5.00001
 21
2.3E+001
  0
LINE
  8
MED-1
  6
CONTINUOUS
 62
40
 10
-5.00001
 20
2.725001E+001
 11
-1.99999
 21
2.725001E+001
  0
LINE
  8
MED-1
  6
CONTINUOUS
 62
40
 10
-1.99999
 20
1.874998E+001
 11
-5.00001
 21
1.874998E+001
  0
LINE
  8
MED-1
  6
CONTINUOUS
 62
40
 10
1.369996E+001
 20
2.05E+001
 11
-1.0E-005
 21
2.05E+001
  0
LINE
  8
MED-1
  6
CONTINUOUS
 62
40
 10
-1.0E-005
 20
2.549999E+001
 11
1.369996E+001
 21
2.549999E+001
  0
LINE
  8
MED-1
  6
CONTINUOUS
 62
40
 10
-5.00001
 20
1.874998E+001
 11
-5.01793
 21
1.87505E+001
  0
ARC
  8
MED-1
  6
CONTINUOUS
 62
40
 10
-5.0013833
 20
1.9030422E+001
 40
2.8041036E-001
 50
2.6288609E+002
 51
2.6661708E+002
  0
ARC
  8
MED-1
  6
CONTINUOUS
 62
40
 10
-4.9988784
 20
1.9054927E+001
 40
3.0503748E-001
 50
2.5947651E+002
 51
2.6298923E+002
  0
ARC
  8
MED-1
  6
CONTINUOUS
 62
40
 10
-4.9967401
 20
1.9066763E+001
 40
3.1706532E-001
 50
2.5604193E+002
 51
2.5948726E+002
  0
ARC
  8
MED-1
  6
CONTINUOUS
 62
40
 10
-4.9978191
 20
1.9056717E+001
 40
3.0705904E-001
 50
2.5216189E+002
 51
2.5578516E+002
  0
ARC
  8
MED-1
  6
CONTINUOUS
 62
40
 10
-4.9984952
 20
1.9054538E+001
 40
3.047772E-001
 50
2.4845281E+002
 51
2.5215739E+002
  0
ARC
  8
MED-1
  6
CONTINUOUS
 62
40
 10
-4.9976155
 20
1.905489E+001
 40
3.0542888E-001
 50
2.4457189E+002
 51
2.4832358E+002
  0
ARC
  8
MED-1
  6
CONTINUOUS
 62
40
 10
-4.997383
 20
1.9055617E+001
 40
3.061851E-001
 50
2.4080823E+002
 51
2.44591E+002
  0
ARC
  8
MED-1
  6
CONTINUOUS
 62
40
 10
-4.9977528
 20
1.905306E+001
 40
3.0377374E-001
 50
2.3678381E+002
 51
2.4063388E+002
  0
ARC
  8
MED-1
  6
CONTINUOUS
 62
40
 10
-4.9978795
 20
1.9053467E+001
 40
3.0404515E-001
 50
2.3297367E+002
 51
2.368458E+002
  0
ARC
  8
MED-1
  6
CONTINUOUS
 62
40
 10
-4.9971452
 20
1.9053276E+001
 40
3.0433578E-001
 50
2.2895445E+002
 51
2.3284168E+002
  0
ARC
  8
MED-1
  6
CONTINUOUS
 62
40
 10
-4.9985282
 20
1.9051876E+001
 40
3.0237185E-001
 50
2.2505287E+002
 51
2.289779E+002
  0
ARC
  8
MED-1
  6
CONTINUOUS
 62
40
 10
-5.0017395
 20
1.9047588E+001
 40
2.9706876E-001
 50
2.2090882E+002
 51
2.2490687E+002
  0
ARC
  8
MED-1
  6
CONTINUOUS
 62
40
 10
-4.998844
 20
1.9051627E+001
 40
3.0190478E-001
 50
2.1721574E+002
 51
2.2112838E+002
  0
ARC
  8
MED-1
  6
CONTINUOUS
 62
40
 10
-4.9871059
 20
1.9060196E+001
 40
3.1643519E-001
 50
2.1346611E+002
 51
2.1716585E+002
  0
ARC
  8
MED-1
  6
CONTINUOUS
 62
40
 10
-5.0030283
 20
1.9047169E+001
 40
2.9597588E-001
 50
2.090856E+002
 51
2.13062E+002
  0
ARC
  8
MED-1
  6
CONTINUOUS
 62
40
 10
-5.0337748
 20
1.9029458E+001
 40
2.604978E-001
 50
2.0440849E+002
 51
2.0896885E+002
  0
ARC
  8
MED-1
  6
CONTINUOUS
 62
40
 10
-4.9937925
 20
1.9056553E+001
 40
3.0821103E-001
 50
2.0230605E+002
 51
2.0592388E+002
  0
ARC
  8
MED-1
  6
CONTINUOUS
 62
40
 10
-4.711885
 20
1.9174874E+001
 40
6.1393744E-001
 50
2.0089688E+002
 51
2.0253636E+002
  0
ARC
  8
MED-1
  6
CONTINUOUS
 62
40
 10
-5.0327975
 20
1.9033479E+001
 40
2.6428833E-001
 50
1.9239051E+002
 51
1.970723E+002
  0
ARC
  8
MED-1
  6
CONTINUOUS
 62
40
 10
-5.060162
 20
1.902839E+001
 40
2.3647093E-001
 50
1.8481037E+002
 51
1.9260881E+002
  0
ARC
  8
MED-1
  6
CONTINUOUS
 62
40
 10
-4.7102045
 20
1.9088862E+001
 40
5.9107578E-001
 50
1.8377179E+002
 51
1.8780825E+002
  0
LINE
  8
MED-1
  6
CONTINUOUS
 62
40
 10
-5.3
 20
2.695001E+001
 11
-5.29948
 21
2.696794E+001
  0
ARC
  8
MED-1
  6
CONTINUOUS
 62
40
 10
-5.0196396
 20
2.6951554E+001
 40
2.8031978E-001
 50
1.7291684E+002
 51
1.7664884E+002
  0
ARC
  8
MED-1
  6
CONTINUOUS
 62
40
 10
-4.9953109
 20
2.6948896E+001
 40
3.0479065E-001
 50
1.6947134E+002
 51
1.7298505E+002
  0
ARC
  8
MED-1
  6
CONTINUOUS
 62
40
 10
-4.9833148
 20
2.6946759E+001
 40
3.1697531E-001
 50
1.6604144E+002
 51
1.6948775E+002
  0
ARC
  8
MED-1
  6
CONTINUOUS
 62
40
 10
-4.993361
 20
2.6948001E+001
 40
3.0692865E-001
 50
1.6218975E+002
 51
1.6581405E+002
  0
ARC
  8
MED-1
  6
CONTINUOUS
 62
40
 10
-4.9955416
 20
2.6948524E+001
 40
3.0469277E-001
 50
1.5845229E+002
 51
1.621579E+002
  0
ARC
  8
MED-1
  6
CONTINUOUS
 62
40
 10
-4.9953421
 20
2.6947796E+001
 40
3.0514626E-001
 50
1.5458622E+002
 51
1.5833891E+002
  0
ARC
  8
MED-1
  6
CONTINUOUS
 62
40
 10
-4.9943048
 20
2.6947262E+001
 40
3.0631231E-001
 50
1.5079557E+002
 51
1.545793E+002
  0
ARC
  8
MED-1
  6
CONTINUOUS
 62
40
 10
-4.9970047
 20
2.6947938E+001
 40
3.0362669E-001
 50
1.4680736E+002
 51
1.5065832E+002
  0
ARC
  8
MED-1
  6
CONTINUOUS
 62
40
 10
-4.9965895
 20
2.6947768E+001
 40
3.0406722E-001
 50
1.4295045E+002
 51
1.4682339E+002
  0
ARC
  8
MED-1
  6
CONTINUOUS
 62
40
 10
-4.9967723
 20
2.6947328E+001
 40
3.0418661E-001
 50
1.3897564E+002
 51
1.4286358E+002
  0
ARC
  8
MED-1
  6
CONTINUOUS
 62
40
 10
-4.9983114
 20
2.6948553E+001
 40
3.0222153E-001
 50
1.3503372E+002
 51
1.3895931E+002
  0
ARC
  8
MED-1
  6
CONTINUOUS
 62
40
 10
-5.0022983
 20
2.6951755E+001
 40
2.9713827E-001
 50
1.3092888E+002
 51
1.349273E+002
  0
ARC
  8
MED-1
  6
CONTINUOUS
 62
40
 10
-4.9983897
 20
2.6948712E+001
 40
3.0199921E-001
 50
1.2719806E+002
 51
1.3111096E+002
  0
ARC
  8
MED-1
  6
CONTINUOUS
 62
40
 10
-4.9898117
 20
2.6937117E+001
 40
3.164215E-001
 50
1.2346603E+002
 51
1.2716593E+002
  0
ARC
  8
MED-1
  6
CONTINUOUS
 62
40
 10
-5.0028376
 20
2.6953174E+001
 40
2.9585019E-001
 50
1.1909999E+002
 51
1.2307642E+002
  0
ARC
  8
MED-1
  6
CONTINUOUS
 62
40
 10
-5.0205428
 20
2.6983641E+001
 40
2.6061959E-001
 50
1.1439616E+002
 51
1.1895635E+002
  0
ARC
  8
MED-1
  6
CONTINUOUS
 62
40
 10
-4.9934373
 20
2.694377E+001
 40
3.0823548E-001
 50
1.1230619E+002
 51
1.1592374E+002
  0
ARC
  8
MED-1
  6
CONTINUOUS
 62
40
 10
-4.875103
 20
2.6661826E+001
 40
6.1400079E-001
 50
1.1089696E+002
 51
1.1253627E+002
  0
ARC
  8
MED-1
  6
CONTINUOUS
 62
40
 10
-5.0165073
 20
2.6982643E+001
 40
2.6443979E-001
 50
1.0238406E+002
 51
1.0706526E+002
  0
ARC
  8
MED-1
  6
CONTINUOUS
 62
40
 10
-5.0215935
 20
2.701012E+001
 40
2.3651374E-001
 50
9.4811077E+001
 51
1.0260811E+002
  0
ARC
  8
MED-1
  6
CONTINUOUS
 62
40
 10
-4.9609722
 20
2.6660078E+001
 40
5.9122232E-001
 50
9.3785931E+001
 51
9.7821489E+001
  0
LINE
  8
104
  6
CONTINUOUS
 62
1
 10
1.4E+001
 20
2.520003E+001
 11
0.0
 21
2.520003E+001
  0
LINE
  8
104
  6
CONTINUOUS
 62
1
 10
1.4E+001
 20
2.079996E+001
 11
0.0
 21
2.079996E+001
  0
ARC
  8
MED-1
  6
CONTINUOUS
 62
40
 10
-1.2E+001
 20
1.958334E+001
 40
6.0833333
 50
2.7E+002
 51
3.1111209E+002
  0
ARC
  8
MED-1
  6
CONTINUOUS
 62
40
 10
-1.2E+001
 20
1.958334E+001
 40
6.0833332
 50
2.2888791E+002
 51
2.7E+002
  0
LINE
  8
106
  6
CENTERLINE
 62
1
 10
1.845441E+001
 20
2.3E+001
 11
-5.8959662E+001
 21
2.3E+001
  0
POINT
  8
Drafting_Hidden_Entities
  6
CONTINUOUS
 62
1
 10
0.0
 20
0.0
  0
ENDBLK
  0
BLOCK
  2
M5NEW01NEW01
 10
0.0
 20
0.0
 70
0
  0
LINE
  8
104
  6
CONTINUOUS
 62
1
 10
0.0
 20
-2.0
 11
1.1E+001
 21
-2.0
  0
LINE
  8
104
  6
CONTINUOUS
 62
40
 10
0.0
 20
-2.5
 11
1.1E+001
 21
-2.5
  0
LINE
  8
104
  6
CONTINUOUS
 62
40
 10
1.1E+001
 20
-2.5
 11
1.1E+001
 21
2.5
  0
LINE
  8
106
  6
CENTERLINE
 62
1
 10
2.426452
 20
0.0
 11
1.3070472E+001
 21
0.0
  0
LINE
  8
104
  6
CONTINUOUS
 62
1
 10
0.0
 20
2.0
 11
1.1E+001
 21
2.0
  0
LINE
  8
104
  6
CONTINUOUS
 62
40
 10
0.0
 20
2.5
 11
1.1E+001
 21
2.5
  0
POINT
  8
Drafting_Hidden_Entities
  6
CONTINUOUS
 62
1
 10
0.0
 20
0.0
  0
ENDBLK
  0
BLOCK
  2
M5NEW02NEW01
 10
0.0
 20
0.0
 70
0
  0
LINE
  8
104
  6
CONTINUOUS
 62
1
 10
0.0
 20
-2.0
 11
1.1E+001
 21
-2.0
  0
LINE
  8
104
  6
CONTINUOUS
 62
40
 10
0.0
 20
-2.5
 11
1.1E+001
 21
-2.5
  0
LINE
  8
104
  6
CONTINUOUS
 62
40
 10
1.1E+001
 20
-2.5
 11
1.1E+001
 21
2.5
  0
LINE
  8
106
  6
CENTERLINE
 62
1
 10
2.426452
 20
0.0
 11
1.3070472E+001
 21
0.0
  0
LINE
  8
104
  6
CONTINUOUS
 62
1
 10
0.0
 20
2.0
 11
1.1E+001
 21
2.0
  0
LINE
  8
104
  6
CONTINUOUS
 62
40
 10
0.0
 20
2.5
 11
1.1E+001
 21
2.5
  0
POINT
  8
Drafting_Hidden_Entities
  6
CONTINUOUS
 62
1
 10
0.0
 20
0.0
  0
ENDBLK
  0
BLOCK
  2
*XH59
  3
*XH
 10
0.0
 20
0.0
 70
65
  0
LINE
  8
108
  6
CONTINUOUS
 62
1
 10
-4.3519008E-001
 20
-4.3519008E-001
 11
4.3519008E-001
 21
4.3519008E-001
  0
LINE
  8
108
  6
CONTINUOUS
 62
1
 10
-2.6642136
 20
1.6421356E-001
 11
4.3519008E-001
 21
3.2636172
  0
LINE
  8
108
  6
CONTINUOUS
 62
1
 10
-4.0784271
 20
1.5784271
 11
4.3519008E-001
 21
6.0920443
  0
LINE
  8
108
  6
CONTINUOUS
 62
1
 10
-4.5648099
 20
3.9204715
 11
4.3519008E-001
 21
8.9204715
  0
LINE
  8
108
  6
CONTINUOUS
 62
1
 10
-4.5648099
 20
6.7488986
 11
-7.4889858E-001
 21
1.056481E+001
  0
ENDBLK
  0
BLOCK
  2
*XH60
  3
*XH
 10
0.0
 20
0.0
 70
65
  0
LINE
  8
108
  6
CONTINUOUS
 62
1
 10
-6.999087E-001
 20
-6.999087E-001
 11
6.999087E-001
 21
6.999087E-001
  0
LINE
  8
108
  6
CONTINUOUS
 62
1
 10
-3.5283358
 20
-6.999087E-001
 11
6.999087E-001
 21
3.5283358
  0
LINE
  8
108
  6
CONTINUOUS
 62
1
 10
-4.3000913
 20
1.356763
 11
6.999087E-001
 21
6.356763
  0
LINE
  8
108
  6
CONTINUOUS
 62
1
 10
-4.3000913
 20
4.1851901
 11
6.999087E-001
 21
9.1851901
  0
LINE
  8
108
  6
CONTINUOUS
 62
1
 10
-4.3000913
 20
7.0136172
 11
4.863828E-001
 21
1.1800091E+001
  0
ENDBLK
  0
BLOCK
  2
*XH61
  3
*XH
 10
0.0
 20
0.0
 70
65
  0
LINE
  8
108
  6
CONTINUOUS
 62
1
 10
-9.4998778E-002
 20
-9.4998778E-002
 11
9.4998778E-002
 21
9.4998778E-002
  0
LINE
  8
108
  6
CONTINUOUS
 62
1
 10
-2.6642136
 20
1.6421356E-001
 11
9.4998778E-002
 21
2.9234259
  0
LINE
  8
108
  6
CONTINUOUS
 62
1
 10
-4.0784271
 20
1.5784271
 11
9.4998778E-002
 21
5.751853
  0
LINE
  8
108
  6
CONTINUOUS
 62
1
 10
-4.9050012
 20
3.5802802
 11
9.4998778E-002
 21
8.5802802
  0
LINE
  8
108
  6
CONTINUOUS
 62
1
 10
-4.9050012
 20
6.4087073
 11
-4.0870728E-001
 21
1.0905001E+001
  0
ENDBLK
  0
BLOCK
  2
*XH62
  3
*XH
 10
0.0
 20
0.0
 70
65
  0
LINE
  8
108
  6
CONTINUOUS
 62
1
 10
-1.301179
 20
-1.301179
 11
1.301179
 21
1.301179
  0
LINE
  8
108
  6
CONTINUOUS
 62
1
 10
-2.7153926
 20
1.1303452E-001
 11
1.301179
 21
4.1296062
  0
LINE
  8
108
  6
CONTINUOUS
 62
1
 10
-3.698821
 20
1.9580333
 11
-1.0603914
 21
4.5964629
  0
ENDBLK
  0
BLOCK
  2
*XH63
  3
*XH
 10
0.0
 20
0.0
 70
65
  0
LINE
  8
108
  6
CONTINUOUS
 62
1
 10
-5.8028015E-001
 20
-5.8028015E-001
 11
5.8028015E-001
 21
5.8028015E-001
  0
LINE
  8
108
  6
CONTINUOUS
 62
1
 10
-2.6642136
 20
1.6421356E-001
 11
5.8028015E-001
 21
3.4087073
  0
LINE
  8
108
  6
CONTINUOUS
 62
1
 10
-4.0784271
 20
1.5784271
 11
5.8028015E-001
 21
6.2371344
  0
LINE
  8
108
  6
CONTINUOUS
 62
1
 10
-4.4197198
 20
4.0655615
 11
-1.5655615
 21
6.9197198
  0
LINE
  8
108
  6
CONTINUOUS
 62
1
 10
-4.4197198
 20
6.8939887
 11
-4.3939887
 21
6.9197198
  0
ENDBLK
  0
BLOCK
  2
1NEW02
 10
0.0
 20
0.0
 70
0
  0
LINE
  8
MED-1
  6
CONTINUOUS
 62
40
 10
1.0097683E+002
 20
2.1192047E+002
 11
1.0097683E+002
 21
2.1727039E+002
  0
LINE
  8
MED-1
  6
CONTINUOUS
 62
40
 10
6.3976834E+001
 20
2.1186183E+002
 11
6.3976824E+001
 21
2.2527037E+002
  0
LINE
  8
MED-1
  6
CONTINUOUS
 62
40
 10
7.3084854E+001
 20
2.2527039E+002
 11
8.5976834E+001
 21
2.2527039E+002
  0
LINE
  8
MED-1
  6
CONTINUOUS
 62
40
 10
7.1688944E+001
 20
2.2527037E+002
 11
7.3084854E+001
 21
2.2527039E+002
  0
LINE
  8
MED-1
  6
CONTINUOUS
 62
40
 10
8.5976834E+001
 20
2.2527039E+002
 11
8.5976834E+001
 21
2.1224584E+002
  0
LINE
  8
MED-1
  6
CONTINUOUS
 62
40
 10
8.5969374E+001
 20
2.3127039E+002
 11
7.5486974E+001
 21
2.3127039E+002
  0
LINE
  8
MED-1
  6
CONTINUOUS
 62
40
 10
8.5969374E+001
 20
2.3127039E+002
 11
8.5976834E+001
 21
2.2527039E+002
  0
LINE
  8
MED-1
  6
CONTINUOUS
 62
40
 10
7.5486974E+001
 20
2.3127039E+002
 11
7.1688964E+001
 21
2.3127039E+002
  0
LINE
  8
MED-1
  6
CONTINUOUS
 62
40
 10
7.1688964E+001
 20
2.3127039E+002
 11
7.1688944E+001
 21
2.2527037E+002
  0
LINE
  8
MED-1
  6
CONTINUOUS
 62
40
 10
7.1688964E+001
 20
2.3127039E+002
 11
3.8082879E+001
 21
2.3127039E+002
  0
LINE
  8
MED-1
  6
CONTINUOUS
 62
40
 10
9.5976834E+001
 20
2.1242039E+002
 11
5.0976834E+001
 21
2.1163491E+002
  0
LINE
  8
MED-1
  6
CONTINUOUS
 62
40
 10
9.5976834E+001
 20
1.4427039E+002
 11
9.5976834E+001
 21
1.4477032E+002
  0
LINE
  8
MED-1
  6
CONTINUOUS
 62
40
 10
9.5976834E+001
 20
1.4477032E+002
 11
9.5976834E+001
 21
2.1192047E+002
  0
LINE
  8
MED-1
  6
CONTINUOUS
 62
40
 10
9.5976834E+001
 20
2.1192047E+002
 11
9.5976834E+001
 21
2.1242039E+002
  0
LINE
  8
MED-1
  6
CONTINUOUS
 62
40
 10
5.1776834E+001
 20
1.4755587E+002
 11
5.1776834E+001
 21
2.0913491E+002
  0
LINE
  8
MED-1
  6
CONTINUOUS
 62
40
 10
5.0976834E+001
 20
1.4505587E+002
 11
9.5976834E+001
 21
1.4427039E+002
  0
LINE
  8
MED-1
  6
CONTINUOUS
 62
40
 10
5.0976834E+001
 20
1.4755587E+002
 11
5.1776834E+001
 21
1.4755587E+002
  0
LINE
  8
MED-1
  6
CONTINUOUS
 62
40
 10
5.0976834E+001
 20
1.4555579E+002
 11
5.0976834E+001
 21
1.4505587E+002
  0
LINE
  8
MED-1
  6
CONTINUOUS
 62
40
 10
5.0976834E+001
 20
1.4755587E+002
 11
5.0976834E+001
 21
1.4555579E+002
  0
LINE
  8
MED-1
  6
CONTINUOUS
 62
40
 10
5.0976834E+001
 20
2.1163491E+002
 11
5.0976834E+001
 21
2.1113499E+002
  0
LINE
  8
MED-1
  6
CONTINUOUS
 62
40
 10
5.0976834E+001
 20
2.1113499E+002
 11
5.0976834E+001
 21
2.0913491E+002
  0
LINE
  8
MED-1
  6
CONTINUOUS
 62
40
 10
5.1776834E+001
 20
2.0913491E+002
 11
5.0976834E+001
 21
2.0913491E+002
  0
LINE
  8
MED-1
  6
CONTINUOUS
 62
40
 10
6.2389204E+001
 20
2.1183276E+002
 11
6.2389424E+001
 21
2.1183298E+002
  0
LINE
  8
MED-1
  6
CONTINUOUS
 62
40
 10
6.2389424E+001
 20
2.1183298E+002
 11
6.2389624E+001
 21
2.1183318E+002
  0
LINE
  8
MED-1
  6
CONTINUOUS
 62
40
 10
6.2389624E+001
 20
2.1183318E+002
 11
6.2389804E+001
 21
2.1183337E+002
  0
LINE
  8
MED-1
  6
CONTINUOUS
 62
40
 10
6.2389804E+001
 20
2.1183337E+002
 11
6.2389964E+001
 21
2.1183353E+002
  0
LINE
  8
MED-1
  6
CONTINUOUS
 62
40
 10
6.2389964E+001
 20
2.1183353E+002
 11
6.2390114E+001
 21
2.1183367E+002
  0
LINE
  8
MED-1
  6
CONTINUOUS
 62
40
 10
6.2390114E+001
 20
2.1183367E+002
 11
6.2390234E+001
 21
2.118338E+002
  0
LINE
  8
MED-1
  6
CONTINUOUS
 62
40
 10
6.2390234E+001
 20
2.118338E+002
 11
6.2390344E+001
 21
2.118339E+002
  0
ARC
  8
MED-1
  6
CONTINUOUS
 62
40
 10
6.2539661E+001
 20
2.1170126E+002
 40
1.9972525E-001
 50
1.3834919E+002
 51
1.3838373E+002
  0
ARC
  8
MED-1
  6
CONTINUOUS
 62
40
 10
6.2425893E+001
 20
2.1179418E+002
 40
5.3319884E-002
 50
1.3156884E+002
 51
1.3169824E+002
  0
ARC
  8
MED-1
  6
CONTINUOUS
 62
40
 10
6.2412784E+001
 20
2.1181187E+002
 40
3.1444812E-002
 50
1.3490981E+002
 51
1.3509019E+002
  0
LINE
  8
MED-1
  6
CONTINUOUS
 62
40
 10
3.8082877E+001
 20
2.2527038E+002
 11
7.1688944E+001
 21
2.2527037E+002
  0
LINE
  8
MED-1
  6
CONTINUOUS
 62
40
 10
1.0673786E+002
 20
2.1727039E+002
 11
1.0097683E+002
 21
2.1727039E+002
  0
LINE
  8
106
  6
CENTERLINE
 62
1
 10
7.4976838E+001
 20
2.0627039E+002
 11
7.4976818E+001
 21
2.3327039E+002
  0
POLYLINE
  8
106
  6
CENTERLINE
 62
1
 66
1
 40
0.0
 41
0.0
 70
2
  0
VERTEX
  8
106
 42
0.0
 10
3.680564E+001
 20
2.4377035E+002
 70
0
  0
VERTEX
  8
106
 42
1.6021017E-002
 10
3.6553453E+001
 20
2.4351093E+002
 70
1
  0
VERTEX
  8
106
 42
1.7178381E-002
 10
3.6334272E+001
 20
2.4325377E+002
 70
0
  0
VERTEX
  8
106
 42
2.1075284E-002
 10
3.6148597E+001
 20
2.4299881E+002
 70
1
  0
VERTEX
  8
106
 42
2.9869106E-002
 10
3.6001014E+001
 20
2.4274698E+002
 70
0
  0
VERTEX
  8
106
 42
4.0886208E-002
 10
3.5900601E+001
 20
2.4249968E+002
 70
1
  0
VERTEX
  8
106
 42
5.4078361E-002
 10
3.5851773E+001
 20
2.4225782E+002
 70
0
  0
VERTEX
  8
106
 42
6.3282736E-002
 10
3.5862313E+001
 20
2.4202258E+002
 70
1
  0
VERTEX
  8
106
 42
6.3347295E-002
 10
3.5932195E+001
 20
2.417941E+002
 70
0
  0
VERTEX
  8
106
 42
4.6528517E-002
 10
3.6062112E+001
 20
2.4157236E+002
 70
1
  0
VERTEX
  8
106
 42
2.2453815E-002
 10
3.6232602E+001
 20
2.4135416E+002
 70
0
  0
VERTEX
  8
106
 42
7.2186117E-003
 10
3.6424613E+001
 20
2.4113613E+002
 70
1
  0
VERTEX
  8
106
 42
-6.2768048E-003
 10
3.6619781E+001
 20
2.4091524E+002
 70
0
  0
VERTEX
  8
106
 42
-2.0714311E-002
 10
3.6799742E+001
 20
2.4068822E+002
 70
1
  0
VERTEX
  8
106
 42
-4.2757599E-002
 10
3.694379E+001
 20
2.4045172E+002
 70
0
  0
VERTEX
  8
106
 42
-5.4352146E-002
 10
3.703176E+001
 20
2.4020219E+002
 70
1
  0
VERTEX
  8
106
 42
-4.9147831E-002
 10
3.7066948E+001
 20
2.3994031E+002
 70
0
  0
VERTEX
  8
106
 42
-3.5823262E-002
 10
3.705466E+001
 20
2.3966724E+002
 70
1
  0
VERTEX
  8
106
 42
-1.7170451E-002
 10
3.7013019E+001
 20
2.3938836E+002
 70
0
  0
VERTEX
  8
106
 42
-1.372151E-004
 10
3.6960504E+001
 20
2.3910801E+002
 70
1
  0
VERTEX
  8
106
 42
2.1408811E-002
 10
3.6919663E+001
 20
2.3882485E+002
 70
0
  0
VERTEX
  8
106
 42
2.6009087E-002
 10
3.6909411E+001
 20
2.3854073E+002
 70
1
  0
VERTEX
  8
106
 42
1.9128576E-002
 10
3.6922837E+001
 20
2.3827835E+002
 70
0
  0
VERTEX
  8
106
 42
4.3322628E-002
 10
3.6960758E+001
 20
2.3804616E+002
 70
1
  0
VERTEX
  8
106
 42
4.7830877E-002
 10
3.7070685E+001
 20
2.3775897E+002
 70
0
  0
VERTEX
  8
106
 42
2.037569E-002
 10
3.7304888E+001
 20
2.3732789E+002
 70
1
  0
VERTEX
  8
106
 42
1.1496265E-002
 10
3.7651753E+001
 20
2.3677036E+002
 70
0
  0
SEQEND
  0
POLYLINE
  8
106
  6
CENTERLINE
 62
1
 66
1
 40
0.0
 41
0.0
 70
2
  0
VERTEX
  8
106
 42
0.0
 10
3.8082879E+001
 20
2.3127039E+002
 70
0
  0
VERTEX
  8
106
 42
9.2324079E-003
 10
3.7923765E+001
 20
2.3104358E+002
 70
1
  0
VERTEX
  8
106
 42
8.8411803E-003
 10
3.7777016E+001
 20
2.3081769E+002
 70
0
  0
VERTEX
  8
106
 42
1.0296252E-002
 10
3.7642728E+001
 20
2.3059274E+002
 70
1
  0
VERTEX
  8
106
 42
1.4267972E-002
 10
3.7523236E+001
 20
2.3036872E+002
 70
0
  0
VERTEX
  8
106
 42
1.8048001E-002
 10
3.7422672E+001
 20
2.3014568E+002
 70
1
  0
VERTEX
  8
106
 42
2.2083838E-002
 10
3.7342937E+001
 20
2.299236E+002
 70
0
  0
VERTEX
  8
106
 42
2.6064686E-002
 10
3.7287453E+001
 20
2.2970252E+002
 70
1
  0
VERTEX
  8
106
 42
3.0114061E-002
 10
3.7257517E+001
 20
2.2948242E+002
 70
0
  0
VERTEX
  8
106
 42
3.4583056E-002
 10
3.725685E+001
 20
2.2926335E+002
 70
1
  0
VERTEX
  8
106
 42
3.9550655E-002
 10
3.7288372E+001
 20
2.290453E+002
 70
0
  0
VERTEX
  8
106
 42
3.6229736E-002
 10
3.7356335E+001
 20
2.2882831E+002
 70
1
  0
VERTEX
  8
106
 42
2.6791222E-002
 10
3.7454678E+001
 20
2.2861232E+002
 70
0
  0
VERTEX
  8
106
 42
1.3968395E-002
 10
3.7576101E+001
 20
2.283973E+002
 70
1
  0
VERTEX
  8
106
 42
-4.2625463E-003
 10
3.7702367E+001
 20
2.2818321E+002
 70
0
  0
VERTEX
  8
106
 42
-2.2308062E-002
 10
3.7813351E+001
 20
2.2797002E+002
 70
1
  0
VERTEX
  8
106
 42
-4.8714177E-002
 10
3.7889207E+001
 20
2.277573E+002
 70
0
  0
VERTEX
  8
106
 42
-6.8097367E-002
 10
3.7909635E+001
 20
2.2754489E+002
 70
1
  0
VERTEX
  8
106
 42
-7.2067293E-002
 10
3.7870497E+001
 20
2.2733386E+002
 70
0
  0
VERTEX
  8
106
 42
-4.4895101E-002
 10
3.7772166E+001
 20
2.2712464E+002
 70
1
  0
VERTEX
  8
106
 42
-5.698894E-004
 10
3.7649471E+001
 20
2.2691291E+002
 70
0
  0
VERTEX
  8
106
 42
1.6372564E-002
 10
3.7537261E+001
 20
2.2669734E+002
 70
1
  0
VERTEX
  8
106
 42
1.8487067E-002
 10
3.7448767E+001
 20
2.2649554E+002
 70
0
  0
VERTEX
  8
106
 42
8.9583672E-002
 10
3.7404503E+001
 20
2.2631371E+002
 70
1
  0
VERTEX
  8
106
 42
1.243969E-001
 10
3.7465538E+001
 20
2.2608272E+002
 70
0
  0
VERTEX
  8
106
 42
4.4765343E-002
 10
3.7696644E+001
 20
2.2573016E+002
 70
1
  0
VERTEX
  8
106
 42
2.1079969E-002
 10
3.8082877E+001
 20
2.2527038E+002
 70
0
  0
SEQEND
  0
LINE
  8
106
  6
CENTERLINE
 62
1
 10
1.0173786E+002
 20
1.7527039E+002
 11
9.3931667E+001
 21
1.7527039E+002
  0
LINE
  8
MED-1
  6
CONTINUOUS
 62
40
 10
9.5976834E+001
 20
1.4427039E+002
 11
9.5976834E+001
 21
1.4462032E+002
  0
LINE
  8
104
  6
CONTINUOUS
 62
40
 10
9.5976834E+001
 20
1.4462032E+002
 11
9.5976834E+001
 21
2.1177047E+002
  0
LINE
  8
MED-1
  6
CONTINUOUS
 62
40
 10
9.5976834E+001
 20
2.1177047E+002
 11
9.5976834E+001
 21
2.1227039E+002
  0
LINE
  8
104
  6
CONTINUOUS
 62
40
 10
9.5976834E+001
 20
1.4427039E+002
 11
9.5976834E+001
 21
2.1227039E+002
  0
LINE
  8
104
  6
CONTINUOUS
 62
40
 10
1.0097683E+002
 20
1.4427039E+002
 11
1.0097683E+002
 21
2.1227039E+002
  0
LINE
  8
104
  6
CONTINUOUS
 62
40
 10
9.8476834E+001
 20
1.6177039E+002
 11
1.0097683E+002
 21
1.6177039E+002
  0
LINE
  8
104
  6
CONTINUOUS
 62
40
 10
9.8476834E+001
 20
1.5677039E+002
 11
1.0097683E+002
 21
1.5677039E+002
  0
LINE
  8
104
  6
CONTINUOUS
 62
40
 10
9.5976834E+001
 20
1.5427039E+002
 11
9.8476834E+001
 21
1.5677039E+002
  0
LINE
  8
104
  6
CONTINUOUS
 62
40
 10
9.5976834E+001
 20
1.6427039E+002
 11
9.8476834E+001
 21
1.6177039E+002
  0
LINE
  8
104
  6
CONTINUOUS
 62
40
 10
9.8476834E+001
 20
1.6177039E+002
 11
9.8476834E+001
 21
1.5677039E+002
  0
LINE
  8
104
  6
CONTINUOUS
 62
40
 10
9.5976834E+001
 20
1.7027039E+002
 11
9.8476834E+001
 21
1.7277039E+002
  0
LINE
  8
104
  6
CONTINUOUS
 62
40
 10
9.8476834E+001
 20
1.7277039E+002
 11
1.0097683E+002
 21
1.7277039E+002
  0
LINE
  8
104
  6
CONTINUOUS
 62
40
 10
9.8476834E+001
 20
1.7777039E+002
 11
9.8476834E+001
 21
1.7277039E+002
  0
LINE
  8
104
  6
CONTINUOUS
 62
40
 10
9.5976834E+001
 20
1.8027039E+002
 11
9.8476834E+001
 21
1.7777039E+002
  0
LINE
  8
104
  6
CONTINUOUS
 62
40
 10
9.8476834E+001
 20
1.7777039E+002
 11
1.0097683E+002
 21
1.7777039E+002
  0
LINE
  8
104
  6
CONTINUOUS
 62
40
 10
9.5976834E+001
 20
2.1227039E+002
 11
1.0097683E+002
 21
2.1227039E+002
  0
LINE
  8
104
  6
CONTINUOUS
 62
40
 10
9.5976834E+001
 20
1.4427039E+002
 11
1.0097683E+002
 21
1.4427039E+002
  0
LINE
  8
204
  6
CONTINUOUS
 62
150
 10
9.5976833E+001
 20
1.4427039E+002
 11
9.5976833E+001
 21
1.4477031E+002
  0
LINE
  8
104
  6
CONTINUOUS
 62
40
 10
9.5976834E+001
 20
1.4427039E+002
 11
9.5976834E+001
 21
2.1242039E+002
  0
LINE
  8
106
  6
CENTERLINE
 62
1
 10
9.3013442E+001
 20
1.5927039E+002
 11
1.0340329E+002
 21
1.5927039E+002
  0
LINE
  8
106
  6
CENTERLINE
 62
1
 10
9.383124E+001
 20
1.8627039E+002
 11
1.0340329E+002
 21
1.8627039E+002
  0
INSERT
  2
M5NEW01NEW01
  8
109
 10
1.0097683E+002
 20
1.5927039E+002
  0
INSERT
  2
M5NEW02NEW01
  8
109
 10
1.0097683E+002
 20
1.7527039E+002
  0
LINE
  8
104
  6
CONTINUOUS
 62
40
 10
9.5976834E+001
 20
1.8127039E+002
 11
9.8476834E+001
 21
1.8377039E+002
  0
LINE
  8
104
  6
CONTINUOUS
 62
40
 10
9.8476834E+001
 20
1.8377039E+002
 11
1.0097683E+002
 21
1.8377039E+002
  0
LINE
  8
104
  6
CONTINUOUS
 62
40
 10
9.8476834E+001
 20
1.8877039E+002
 11
9.8476834E+001
 21
1.8377039E+002
  0
LINE
  8
104
  6
CONTINUOUS
 62
40
 10
9.5976834E+001
 20
1.9127039E+002
 11
9.8476834E+001
 21
1.8877039E+002
  0
LINE
  8
104
  6
CONTINUOUS
 62
40
 10
9.8476834E+001
 20
1.8877039E+002
 11
1.0097683E+002
 21
1.8877039E+002
  0
LINE
  8
104
  6
CONTINUOUS
 62
40
 10
9.5976834E+001
 20
1.9727039E+002
 11
9.8476834E+001
 21
1.9977039E+002
  0
LINE
  8
104
  6
CONTINUOUS
 62
40
 10
9.8476834E+001
 20
1.9977039E+002
 11
1.0097683E+002
 21
1.9977039E+002
  0
LINE
  8
104
  6
CONTINUOUS
 62
40
 10
9.8476834E+001
 20
2.0477039E+002
 11
9.8476834E+001
 21
1.9977039E+002
  0
LINE
  8
104
  6
CONTINUOUS
 62
40
 10
9.5976834E+001
 20
2.0727039E+002
 11
9.8476834E+001
 21
2.0477039E+002
  0
LINE
  8
104
  6
CONTINUOUS
 62
40
 10
9.8476834E+001
 20
2.0477039E+002
 11
1.0097683E+002
 21
2.0477039E+002
  0
LINE
  8
106
  6
CENTERLINE
 62
1
 10
9.383124E+001
 20
2.0227039E+002
 11
1.0340329E+002
 21
2.0227039E+002
  0
LINE
  8
106
  6
CENTERLINE
 62
1
 10
9.383124E+001
 20
1.9427039E+002
 11
1.0340329E+002
 21
1.9427039E+002
  0
LINE
  8
MED-1
  6
CONTINUOUS
 62
40
 10
9.3976834E+001
 20
2.4827039E+002
 11
9.0740624E+001
 21
2.4827039E+002
  0
LINE
  8
MED-1
  6
CONTINUOUS
 62
40
 10
9.0740624E+001
 20
2.4827039E+002
 11
8.9527564E+001
 21
2.4827039E+002
  0
LINE
  8
MED-1
  6
CONTINUOUS
 62
40
 10
8.9527564E+001
 20
2.4827039E+002
 11
7.7911484E+001
 21
2.4827039E+002
  0
LINE
  8
MED-1
  6
CONTINUOUS
 62
40
 10
7.7911484E+001
 20
2.4827039E+002
 11
7.6476834E+001
 21
2.4827039E+002
  0
LINE
  8
MED-1
  6
CONTINUOUS
 62
40
 10
7.6476834E+001
 20
2.3227039E+002
 11
7.7911484E+001
 21
2.3227039E+002
  0
LINE
  8
MED-1
  6
CONTINUOUS
 62
40
 10
7.7911484E+001
 20
2.3227039E+002
 11
8.9527564E+001
 21
2.3227039E+002
  0
LINE
  8
MED-1
  6
CONTINUOUS
 62
40
 10
8.9527564E+001
 20
2.3227039E+002
 11
9.0740624E+001
 21
2.3227039E+002
  0
LINE
  8
MED-1
  6
CONTINUOUS
 62
40
 10
9.3976834E+001
 20
2.3227039E+002
 11
9.0740624E+001
 21
2.3227039E+002
  0
LINE
  8
MED-1
  6
CONTINUOUS
 62
40
 10
9.0740624E+001
 20
2.3427039E+002
 11
9.3976834E+001
 21
2.3427039E+002
  0
LINE
  8
MED-1
  6
CONTINUOUS
 62
40
 10
9.0740624E+001
 20
2.3427039E+002
 11
8.9527564E+001
 21
2.3427039E+002
  0
LINE
  8
MED-1
  6
CONTINUOUS
 62
40
 10
8.9527564E+001
 20
2.3427039E+002
 11
7.7911484E+001
 21
2.3427039E+002
  0
LINE
  8
MED-1
  6
CONTINUOUS
 62
40
 10
7.7911484E+001
 20
2.3427039E+002
 11
7.6476834E+001
 21
2.3427039E+002
  0
LINE
  8
MED-1
  6
CONTINUOUS
 62
40
 10
7.6476834E+001
 20
2.4627039E+002
 11
7.7911484E+001
 21
2.4627039E+002
  0
LINE
  8
MED-1
  6
CONTINUOUS
 62
40
 10
7.7911484E+001
 20
2.4627039E+002
 11
8.9527564E+001
 21
2.4627039E+002
  0
LINE
  8
MED-1
  6
CONTINUOUS
 62
40
 10
8.9527564E+001
 20
2.4627039E+002
 11
9.0740624E+001
 21
2.4627039E+002
  0
LINE
  8
MED-1
  6
CONTINUOUS
 62
40
 10
9.3976834E+001
 20
2.4627039E+002
 11
9.0740624E+001
 21
2.4627039E+002
  0
ARC
  8
MED-1
  6
CONTINUOUS
 62
40
 10
9.3976834E+001
 20
2.4627039E+002
 40
2.0000001
 50
0.0
 51
9.0E+001
  0
ARC
  8
MED-1
  6
CONTINUOUS
 62
40
 10
9.3976834E+001
 20
2.3427039E+002
 40
1.9999999
 50
2.7E+002
 51
3.6E+002
  0
LINE
  8
MED-1
  6
CONTINUOUS
 62
40
 10
9.3976834E+001
 20
2.3427039E+002
 11
9.3976834E+001
 21
2.4627039E+002
  0
LINE
  8
MED-1
  6
CONTINUOUS
 62
40
 10
9.5976834E+001
 20
2.4627039E+002
 11
9.5976834E+001
 21
2.3427039E+002
  0
LINE
  8
MED-1
  6
CONTINUOUS
 62
40
 10
7.6476834E+001
 20
2.4627039E+002
 11
7.6476834E+001
 21
2.4827039E+002
  0
LINE
  8
MED-1
  6
CONTINUOUS
 62
40
 10
7.6476834E+001
 20
2.3227039E+002
 11
7.6476834E+001
 21
2.3427039E+002
  0
CIRCLE
  8
MED-1
  6
CONTINUOUS
 62
40
 10
6.6976834E+001
 20
2.4027039E+002
 40
3.5
  0
ARC
  8
MED-1
  6
CONTINUOUS
 62
40
 10
8.3976834E+001
 20
2.4368706E+002
 40
6.0833332
 50
4.888791E+001
 51
9.0E+001
  0
ARC
  8
MED-1
  6
CONTINUOUS
 62
40
 10
8.3976834E+001
 20
2.4368706E+002
 40
6.0833333
 50
9.0E+001
 51
1.3111209E+002
  0
LINE
  8
MED-1
  6
CONTINUOUS
 62
40
 10
8.8976834E+001
 20
2.3452039E+002
 11
7.8976834E+001
 21
2.3452039E+002
  0
LINE
  8
MED-1
  6
CONTINUOUS
 62
40
 10
7.8976834E+001
 20
2.4602039E+002
 11
8.8976834E+001
 21
2.4602039E+002
  0
LINE
  8
MED-1
  6
CONTINUOUS
 62
40
 10
8.8976834E+001
 20
2.4602039E+002
 11
8.8976844E+001
 21
2.457704E+002
  0
LINE
  8
MED-1
  6
CONTINUOUS
 62
40
 10
8.8976844E+001
 20
2.3477037E+002
 11
8.8976834E+001
 21
2.3452039E+002
  0
LINE
  8
MED-1
  6
CONTINUOUS
 62
40
 10
7.8976834E+001
 20
2.3452039E+002
 11
7.8976844E+001
 21
2.3477037E+002
  0
LINE
  8
MED-1
  6
CONTINUOUS
 62
40
 10
7.8976844E+001
 20
2.457704E+002
 11
7.8976834E+001
 21
2.4602039E+002
  0
ARC
  8
MED-1
  6
CONTINUOUS
 62
40
 10
6.6976834E+001
 20
2.4027039E+002
 40
5.5
 50
9.0E+001
 51
1.8E+002
  0
ARC
  8
MED-1
  6
CONTINUOUS
 62
40
 10
6.6976834E+001
 20
2.4027039E+002
 40
5.5
 50
1.8E+002
 51
2.7E+002
  0
LINE
  8
MED-1
  6
CONTINUOUS
 62
40
 10
7.8772024E+001
 20
2.4577039E+002
 11
9.1476834E+001
 21
2.4577039E+002
  0
LINE
  8
MED-1
  6
CONTINUOUS
 62
40
 10
7.8772024E+001
 20
2.4577039E+002
 11
7.7037084E+001
 21
2.4577039E+002
  0
LINE
  8
MED-1
  6
CONTINUOUS
 62
40
 10
7.7037084E+001
 20
2.4577039E+002
 11
6.6976834E+001
 21
2.4577039E+002
  0
LINE
  8
MED-1
  6
CONTINUOUS
 62
40
 10
6.6976834E+001
 20
2.3477039E+002
 11
7.7037084E+001
 21
2.3477039E+002
  0
LINE
  8
MED-1
  6
CONTINUOUS
 62
40
 10
7.7037084E+001
 20
2.3477039E+002
 11
7.8772024E+001
 21
2.3477039E+002
  0
LINE
  8
MED-1
  6
CONTINUOUS
 62
40
 10
9.1476834E+001
 20
2.3477039E+002
 11
7.8772024E+001
 21
2.3477039E+002
  0
LINE
  8
MED-1
  6
CONTINUOUS
 62
40
 10
7.8772024E+001
 20
2.3477039E+002
 11
7.8772024E+001
 21
2.4577039E+002
  0
LINE
  8
MED-1
  6
CONTINUOUS
 62
40
 10
9.1476834E+001
 20
2.4577039E+002
 11
9.1476844E+001
 21
2.445204E+002
  0
LINE
  8
MED-1
  6
CONTINUOUS
 62
40
 10
9.1476834E+001
 20
2.3602039E+002
 11
9.1476834E+001
 21
2.3477039E+002
  0
LINE
  8
MED-1
  6
CONTINUOUS
 62
40
 10
5.6476834E+001
 20
2.3749275E+002
 11
5.6477084E+001
 21
2.3673743E+002
  0
LINE
  8
MED-1
  6
CONTINUOUS
 62
40
 10
5.6476834E+001
 20
2.3749275E+002
 11
5.6476834E+001
 21
2.375086E+002
  0
LINE
  8
MED-1
  6
CONTINUOUS
 62
40
 10
5.6476834E+001
 20
2.4303219E+002
 11
5.6476834E+001
 21
2.375086E+002
  0
LINE
  8
MED-1
  6
CONTINUOUS
 62
40
 10
5.6476834E+001
 20
2.4377065E+002
 11
5.6476834E+001
 21
2.4309688E+002
  0
LINE
  8
MED-1
  6
CONTINUOUS
 62
40
 10
5.6476834E+001
 20
2.4303219E+002
 11
5.6476834E+001
 21
2.4309688E+002
  0
LINE
  8
MED-1
  6
CONTINUOUS
 62
40
 10
5.6476834E+001
 20
2.4394569E+002
 11
5.6476834E+001
 21
2.4377065E+002
  0
LINE
  8
MED-1
  6
CONTINUOUS
 62
40
 10
5.9676824E+001
 20
2.3552036E+002
 11
5.9676824E+001
 21
2.3625861E+002
  0
LINE
  8
MED-1
  6
CONTINUOUS
 62
40
 10
6.4204194E+001
 20
2.3552039E+002
 11
6.3921204E+001
 21
2.3552039E+002
  0
LINE
  8
MED-1
  6
CONTINUOUS
 62
40
 10
6.3921204E+001
 20
2.3552039E+002
 11
6.3638274E+001
 21
2.3552039E+002
  0
LINE
  8
MED-1
  6
CONTINUOUS
 62
40
 10
6.3638274E+001
 20
2.3552039E+002
 11
6.3355454E+001
 21
2.3552039E+002
  0
LINE
  8
MED-1
  6
CONTINUOUS
 62
40
 10
6.3355454E+001
 20
2.3552039E+002
 11
6.3072354E+001
 21
2.3552039E+002
  0
LINE
  8
MED-1
  6
CONTINUOUS
 62
40
 10
6.3072354E+001
 20
2.3552039E+002
 11
6.2788824E+001
 21
2.3552039E+002
  0
LINE
  8
MED-1
  6
CONTINUOUS
 62
40
 10
6.2788824E+001
 20
2.3552039E+002
 11
6.2506434E+001
 21
2.3552039E+002
  0
LINE
  8
MED-1
  6
CONTINUOUS
 62
40
 10
6.2506434E+001
 20
2.3552039E+002
 11
6.2225734E+001
 21
2.3552039E+002
  0
LINE
  8
MED-1
  6
CONTINUOUS
 62
40
 10
6.2225734E+001
 20
2.3552039E+002
 11
6.1940514E+001
 21
2.3552039E+002
  0
LINE
  8
MED-1
  6
CONTINUOUS
 62
40
 10
6.1940514E+001
 20
2.3552039E+002
 11
6.1648624E+001
 21
2.3552039E+002
  0
LINE
  8
MED-1
  6
CONTINUOUS
 62
40
 10
6.1648624E+001
 20
2.3552039E+002
 11
6.1374594E+001
 21
2.3552038E+002
  0
LINE
  8
MED-1
  6
CONTINUOUS
 62
40
 10
6.1374594E+001
 20
2.3552038E+002
 11
6.1126844E+001
 21
2.3552038E+002
  0
LINE
  8
MED-1
  6
CONTINUOUS
 62
40
 10
6.1126844E+001
 20
2.3552038E+002
 11
6.0808664E+001
 21
2.3552038E+002
  0
LINE
  8
MED-1
  6
CONTINUOUS
 62
40
 10
6.0808664E+001
 20
2.3552038E+002
 11
6.0318604E+001
 21
2.3552037E+002
  0
LINE
  8
MED-1
  6
CONTINUOUS
 62
40
 10
6.0318604E+001
 20
2.3552037E+002
 11
5.9676824E+001
 21
2.3552036E+002
  0
LINE
  8
MED-1
  6
CONTINUOUS
 62
40
 10
6.3214444E+001
 20
2.362586E+002
 11
5.9676824E+001
 21
2.3625861E+002
  0
LINE
  8
MED-1
  6
CONTINUOUS
 62
40
 10
5.6600304E+001
 20
2.3665131E+002
 11
5.6604234E+001
 21
2.3665595E+002
  0
ARC
  8
MED-1
  6
CONTINUOUS
 62
40
 10
6.7591669E+001
 20
2.2732163E+002
 40
1.441712E+001
 50
1.3958391E+002
 51
1.3965059E+002
  0
LINE
  8
MED-1
  6
CONTINUOUS
 62
40
 10
5.6615104E+001
 20
2.3666873E+002
 11
5.6633004E+001
 21
2.3668979E+002
  0
LINE
  8
MED-1
  6
CONTINUOUS
 62
40
 10
5.6633004E+001
 20
2.3668979E+002
 11
5.6658924E+001
 21
2.3672029E+002
  0
LINE
  8
MED-1
  6
CONTINUOUS
 62
40
 10
5.6658924E+001
 20
2.3672029E+002
 11
5.6693434E+001
 21
2.3676088E+002
  0
LINE
  8
MED-1
  6
CONTINUOUS
 62
40
 10
5.6693434E+001
 20
2.3676088E+002
 11
5.6730114E+001
 21
2.3680403E+002
  0
LINE
  8
MED-1
  6
CONTINUOUS
 62
40
 10
5.6730114E+001
 20
2.3680403E+002
 11
5.6766884E+001
 21
2.3684729E+002
  0
LINE
  8
MED-1
  6
CONTINUOUS
 62
40
 10
5.6766884E+001
 20
2.3684729E+002
 11
5.6826044E+001
 21
2.3691689E+002
  0
LINE
  8
MED-1
  6
CONTINUOUS
 62
40
 10
5.6826044E+001
 20
2.3691689E+002
 11
5.6931554E+001
 21
2.3704101E+002
  0
LINE
  8
MED-1
  6
CONTINUOUS
 62
40
 10
5.6931554E+001
 20
2.3704101E+002
 11
5.7078464E+001
 21
2.3721382E+002
  0
LINE
  8
MED-1
  6
CONTINUOUS
 62
40
 10
5.9676824E+001
 20
2.3552036E+002
 11
5.9503884E+001
 21
2.3552345E+002
  0
ARC
  8
MED-1
  6
CONTINUOUS
 62
40
 10
5.9679343E+001
 20
2.4056328E+002
 40
5.0428806
 50
2.6606087E+002
 51
2.6800608E+002
  0
ARC
  8
MED-1
  6
CONTINUOUS
 62
40
 10
5.9675259E+001
 20
2.4039107E+002
 40
4.8708089
 50
2.6397496E+002
 51
2.6596964E+002
  0
ARC
  8
MED-1
  6
CONTINUOUS
 62
40
 10
5.9663047E+001
 20
2.4028363E+002
 40
4.7626796
 50
2.6196142E+002
 51
2.639854E+002
  0
ARC
  8
MED-1
  6
CONTINUOUS
 62
40
 10
5.9661931E+001
 20
2.4024564E+002
 40
4.7249057
 50
2.5988441E+002
 51
2.6191039E+002
  0
ARC
  8
MED-1
  6
CONTINUOUS
 62
40
 10
5.9654347E+001
 20
2.4022147E+002
 40
4.6997785
 50
2.5789897E+002
 51
2.5992367E+002
  0
ARC
  8
MED-1
  6
CONTINUOUS
 62
40
 10
5.9659597E+001
 20
2.4022533E+002
 40
4.7046604
 50
2.5583385E+002
 51
2.5784633E+002
  0
ARC
  8
MED-1
  6
CONTINUOUS
 62
40
 10
5.9647652E+001
 20
2.401823E+002
 40
4.6600159
 50
2.5381979E+002
 51
2.5584678E+002
  0
ARC
  8
MED-1
  6
CONTINUOUS
 62
40
 10
5.9632059E+001
 20
2.4011399E+002
 40
4.5900692
 50
2.5171292E+002
 51
2.5376911E+002
  0
ARC
  8
MED-1
  6
CONTINUOUS
 62
40
 10
5.9665342E+001
 20
2.4025387E+002
 40
4.7333367
 50
2.4987768E+002
 51
2.5186164E+002
  0
ARC
  8
MED-1
  6
CONTINUOUS
 62
40
 10
5.9795633E+001
 20
2.4060509E+002
 40
5.1079465
 50
2.480334E+002
 51
2.4986077E+002
  0
ARC
  8
MED-1
  6
CONTINUOUS
 62
40
 10
5.9660947E+001
 20
2.4020532E+002
 40
4.6868783
 50
2.4570623E+002
 51
2.4773225E+002
  0
ARC
  8
MED-1
  6
CONTINUOUS
 62
40
 10
5.9370485E+001
 20
2.3954438E+002
 40
3.9649732
 50
2.4314489E+002
 51
2.456025E+002
  0
ARC
  8
MED-1
  6
CONTINUOUS
 62
40
 10
5.9735684E+001
 20
2.4044948E+002
 40
4.9381325
 50
2.4225205E+002
 51
2.4410858E+002
  0
ARC
  8
MED-1
  6
CONTINUOUS
 62
40
 10
6.3911568E+001
 20
2.484479E+002
 40
1.3961015E+001
 50
2.4177296E+002
 51
2.4236799E+002
  0
ARC
  8
MED-1
  6
CONTINUOUS
 62
40
 10
5.9372454E+001
 20
2.3961715E+002
 40
4.0374599
 50
2.3658323E+002
 51
2.392557E+002
  0
ARC
  8
MED-1
  6
CONTINUOUS
 62
40
 10
5.9153157E+001
 20
2.3930932E+002
 40
3.6597724
 50
2.3219282E+002
 51
2.3679483E+002
  0
ARC
  8
MED-1
  6
CONTINUOUS
 62
40
 10
6.2842931E+001
 20
2.4460114E+002
 40
1.0107922E+001
 50
2.3185911E+002
 51
2.3405639E+002
  0
LINE
  8
MED-1
  6
CONTINUOUS
 62
40
 10
5.9676824E+001
 20
2.3625861E+002
 11
5.9530764E+001
 21
2.3626121E+002
  0
ARC
  8
MED-1
  6
CONTINUOUS
 62
40
 10
5.9678496E+001
 20
2.4051638E+002
 40
4.2577323
 50
2.6606572E+002
 51
2.6801159E+002
  0
ARC
  8
MED-1
  6
CONTINUOUS
 62
40
 10
5.9675359E+001
 20
2.4037089E+002
 40
4.1123802
 50
2.6397486E+002
 51
2.6597025E+002
  0
ARC
  8
MED-1
  6
CONTINUOUS
 62
40
 10
5.9664694E+001
 20
2.4028021E+002
 40
4.0210735
 50
2.6196568E+002
 51
2.6399035E+002
  0
ARC
  8
MED-1
  6
CONTINUOUS
 62
40
 10
5.9664003E+001
 20
2.4024829E+002
 40
3.9893757
 50
2.598849E+002
 51
2.6191145E+002
  0
ARC
  8
MED-1
  6
CONTINUOUS
 62
40
 10
5.9657771E+001
 20
2.4022836E+002
 40
3.9686668
 50
2.5789778E+002
 51
2.5992295E+002
  0
ARC
  8
MED-1
  6
CONTINUOUS
 62
40
 10
5.9662002E+001
 20
2.4023147E+002
 40
3.9725872
 50
2.5583462E+002
 51
2.5784749E+002
  0
ARC
  8
MED-1
  6
CONTINUOUS
 62
40
 10
5.9652111E+001
 20
2.4019534E+002
 40
3.9351377
 50
2.5381821E+002
 51
2.5584552E+002
  0
ARC
  8
MED-1
  6
CONTINUOUS
 62
40
 10
5.9638749E+001
 20
2.4013806E+002
 40
3.8764107
 50
2.5171554E+002
 51
2.5377197E+002
  0
ARC
  8
MED-1
  6
CONTINUOUS
 62
40
 10
5.966725E+001
 20
2.4025602E+002
 40
3.9973634
 50
2.49874E+002
 51
2.5185808E+002
  0
ARC
  8
MED-1
  6
CONTINUOUS
 62
40
 10
5.9777011E+001
 20
2.4055333E+002
 40
4.3142848
 50
2.4803655E+002
 51
2.4986391E+002
  0
ARC
  8
MED-1
  6
CONTINUOUS
 62
40
 10
5.9663328E+001
 20
2.4021522E+002
 40
3.958255
 50
2.4570611E+002
 51
2.4773223E+002
  0
ARC
  8
MED-1
  6
CONTINUOUS
 62
40
 10
5.9417847E+001
 20
2.3965666E+002
 40
3.3481617
 50
2.4314436E+002
 51
2.456024E+002
  0
ARC
  8
MED-1
  6
CONTINUOUS
 62
40
 10
5.9726172E+001
 20
2.404207E+002
 40
4.1696748
 50
2.4225052E+002
 51
2.4410739E+002
  0
ARC
  8
MED-1
  6
CONTINUOUS
 62
40
 10
6.3255243E+001
 20
2.4718048E+002
 40
1.1795207E+001
 50
2.4177318E+002
 51
2.4236806E+002
  0
ARC
  8
MED-1
  6
CONTINUOUS
 62
40
 10
5.941915E+001
 20
2.3971752E+002
 40
3.4086908
 50
2.3658113E+002
 51
2.3925458E+002
  0
ARC
  8
MED-1
  6
CONTINUOUS
 62
40
 10
5.9233976E+001
 20
2.3945731E+002
 40
3.0895375
 50
2.3218539E+002
 51
2.367897E+002
  0
ARC
  8
MED-1
  6
CONTINUOUS
 62
40
 10
6.2349088E+001
 20
2.4392429E+002
 40
8.532872
 50
2.3185275E+002
 51
2.3405113E+002
  0
LINE
  8
MED-1
  6
CONTINUOUS
 62
40
 10
5.6600304E+001
 20
2.3665131E+002
 11
5.6589004E+001
 21
2.3666083E+002
  0
ARC
  8
MED-1
  6
CONTINUOUS
 62
40
 10
5.560562E+001
 20
2.3548143E+002
 40
1.5355867
 50
5.0178631E+001
 51
5.0696498E+001
  0
ARC
  8
MED-1
  6
CONTINUOUS
 62
40
 10
5.5787953E+001
 20
2.3570031E+002
 40
1.2507263
 50
5.0808572E+001
 51
5.140246E+001
  0
ARC
  8
MED-1
  6
CONTINUOUS
 62
40
 10
5.5924238E+001
 20
2.3586934E+002
 40
1.0336027
 50
5.1461535E+001
 51
5.2133791E+001
  0
ARC
  8
MED-1
  6
CONTINUOUS
 62
40
 10
5.6013391E+001
 20
2.3598313E+002
 40
8.8904782E-001
 50
5.2168206E+001
 51
5.2898169E+001
  0
ARC
  8
MED-1
  6
CONTINUOUS
 62
40
 10
5.6081586E+001
 20
2.3607196E+002
 40
7.7705764E-001
 50
5.2957234E+001
 51
5.3736617E+001
  0
ARC
  8
MED-1
  6
CONTINUOUS
 62
40
 10
5.6127627E+001
 20
2.3613265E+002
 40
7.008952E-001
 50
5.3837084E+001
 51
5.4639992E+001
  0
ARC
  8
MED-1
  6
CONTINUOUS
 62
40
 10
5.6207066E+001
 20
2.3624254E+002
 40
5.6530546E-001
 50
5.4760529E+001
 51
5.5700719E+001
  0
ARC
  8
MED-1
  6
CONTINUOUS
 62
40
 10
5.6283019E+001
 20
2.3635159E+002
 40
4.3241601E-001
 50
5.5871809E+001
 51
5.7037154E+001
  0
ARC
  8
MED-1
  6
CONTINUOUS
 62
40
 10
5.6276462E+001
 20
2.3634619E+002
 40
4.405232E-001
 50
5.6703906E+001
 51
5.7729603E+001
  0
ARC
  8
MED-1
  6
CONTINUOUS
 62
40
 10
5.6112875E+001
 20
2.3608835E+002
 40
7.4587689E-001
 50
5.7679239E+001
 51
5.8203133E+001
  0
ARC
  8
MED-1
  6
CONTINUOUS
 62
40
 10
5.634811E+001
 20
2.3645477E+002
 40
3.1058211E-001
 50
5.9469723E+001
 51
6.0913372E+001
  0
ARC
  8
MED-1
  6
CONTINUOUS
 62
40
 10
5.6381814E+001
 20
2.3651426E+002
 40
2.4220825E-001
 50
6.1039162E+001
 51
6.3638087E+001
  0
ARC
  8
MED-1
  6
CONTINUOUS
 62
40
 10
5.624826E+001
 20
2.3626519E+002
 40
5.2475653E-001
 50
6.2647841E+001
 51
6.4147429E+001
  0
LINE
  8
MED-1
  6
CONTINUOUS
 62
40
 10
5.7078464E+001
 20
2.3721382E+002
 11
5.7051554E+001
 21
2.3723605E+002
  0
ARC
  8
MED-1
  6
CONTINUOUS
 62
40
 10
5.6226116E+001
 20
2.362102E+002
 40
1.3167097
 50
5.1178618E+001
 51
5.2685371E+001
  0
ARC
  8
MED-1
  6
CONTINUOUS
 62
40
 10
5.6249118E+001
 20
2.3623779E+002
 40
1.2808214
 50
5.2755471E+001
 51
5.4292063E+001
  0
ARC
  8
MED-1
  6
CONTINUOUS
 62
40
 10
5.6262654E+001
 20
2.3625745E+002
 40
1.2569586
 50
5.4270085E+001
 51
5.5825653E+001
  0
ARC
  8
MED-1
  6
CONTINUOUS
 62
40
 10
5.6269725E+001
 20
2.3626588E+002
 40
1.2460141
 50
5.5876972E+001
 51
5.7436414E+001
  0
ARC
  8
MED-1
  6
CONTINUOUS
 62
40
 10
5.6273744E+001
 20
2.3627321E+002
 40
1.2376739
 50
5.7410602E+001
 51
5.897135E+001
  0
ARC
  8
MED-1
  6
CONTINUOUS
 62
40
 10
5.6275293E+001
 20
2.362741E+002
 40
1.236113
 50
5.9011565E+001
 51
6.0566537E+001
  0
ARC
  8
MED-1
  6
CONTINUOUS
 62
40
 10
5.6283273E+001
 20
2.3628797E+002
 40
1.2201121
 50
6.0572852E+001
 51
6.214333E+001
  0
ARC
  8
MED-1
  6
CONTINUOUS
 62
40
 10
5.6295256E+001
 20
2.3630889E+002
 40
1.1960163
 50
6.2182556E+001
 51
6.3781316E+001
  0
ARC
  8
MED-1
  6
CONTINUOUS
 62
40
 10
5.6280852E+001
 20
2.3628495E+002
 40
1.2238562
 50
6.3671434E+001
 51
6.5223549E+001
  0
ARC
  8
MED-1
  6
CONTINUOUS
 62
40
 10
5.6247189E+001
 20
2.3621088E+002
 40
1.30522
 50
6.5244604E+001
 51
6.6688969E+001
  0
ARC
  8
MED-1
  6
CONTINUOUS
 62
40
 10
5.6290212E+001
 20
2.3629987E+002
 40
1.2064724
 50
6.6892865E+001
 51
6.8477617E+001
  0
ARC
  8
MED-1
  6
CONTINUOUS
 62
40
 10
5.6351549E+001
 20
2.3645257E+002
 40
1.0419151
 50
6.8534757E+001
 51
7.0412085E+001
  0
ARC
  8
MED-1
  6
CONTINUOUS
 62
40
 10
5.6250189E+001
 20
2.3621746E+002
 40
1.297506
 50
6.9675794E+001
 51
7.1091114E+001
  0
ARC
  8
MED-1
  6
CONTINUOUS
 62
40
 10
5.5498554E+001
 20
2.3403784E+002
 40
3.6030852
 50
7.1015803E+001
 51
7.1476784E+001
  0
ARC
  8
MED-1
  6
CONTINUOUS
 62
40
 10
5.6339333E+001
 20
2.3643711E+002
 40
1.0615833
 50
7.3366259E+001
 51
7.5380008E+001
  0
ARC
  8
MED-1
  6
CONTINUOUS
 62
40
 10
5.636769E+001
 20
2.3655382E+002
 40
9.4149625E-001
 50
7.5257102E+001
 51
7.8770034E+001
  0
ARC
  8
MED-1
  6
CONTINUOUS
 62
40
 10
5.5994801E+001
 20
2.3499564E+002
 40
2.5432237
 50
7.7366389E+001
 51
7.9073593E+001
  0
LINE
  8
MED-1
  6
CONTINUOUS
 62
40
 10
5.6476864E+001
 20
2.3677036E+002
 11
3.7651753E+001
 21
2.3677036E+002
  0
LINE
  8
MED-1
  6
CONTINUOUS
 62
40
 10
3.680564E+001
 20
2.4377035E+002
 11
5.6476834E+001
 21
2.4377065E+002
  0
LINE
  8
MED-1
  6
CONTINUOUS
 62
40
 10
5.6476864E+001
 20
2.4309686E+002
 11
5.6496614E+001
 21
2.4310372E+002
  0
ARC
  8
MED-1
  6
CONTINUOUS
 62
40
 10
5.6073446E+001
 20
2.4429005E+002
 40
1.2595459
 50
2.8963145E+002
 51
2.9058286E+002
  0
ARC
  8
MED-1
  6
CONTINUOUS
 62
40
 10
5.6067486E+001
 20
2.4430394E+002
 40
1.2746414
 50
2.9061423E+002
 51
2.9155512E+002
  0
ARC
  8
MED-1
  6
CONTINUOUS
 62
40
 10
5.607164E+001
 20
2.4429463E+002
 40
1.2644526
 50
2.9153509E+002
 51
2.9248424E+002
  0
ARC
  8
MED-1
  6
CONTINUOUS
 62
40
 10
5.608498E+001
 20
2.4425985E+002
 40
1.22722
 50
2.9252969E+002
 51
2.9350872E+002
  0
ARC
  8
MED-1
  6
CONTINUOUS
 62
40
 10
5.6088967E+001
 20
2.4425077E+002
 40
1.2173006
 50
2.9350717E+002
 51
2.9449539E+002
  0
ARC
  8
MED-1
  6
CONTINUOUS
 62
40
 10
5.6084298E+001
 20
2.4426008E+002
 40
1.2277111
 50
2.9451348E+002
 51
2.9549395E+002
  0
ARC
  8
MED-1
  6
CONTINUOUS
 62
40
 10
5.6087627E+001
 20
2.4425228E+002
 40
1.2192352
 50
2.9551056E+002
 51
2.965009E+002
  0
ARC
  8
MED-1
  6
CONTINUOUS
 62
40
 10
5.6099187E+001
 20
2.4422832E+002
 40
1.1926387
 50
2.9651741E+002
 51
2.9753347E+002
  0
ARC
  8
MED-1
  6
CONTINUOUS
 62
40
 10
5.6085996E+001
 20
2.4425672E+002
 40
1.223919
 50
2.9746652E+002
 51
2.9845499E+002
  0
ARC
  8
MED-1
  6
CONTINUOUS
 62
40
 10
5.604624E+001
 20
2.4432891E+002
 40
1.3063256
 50
2.984795E+002
 51
2.9940221E+002
  0
ARC
  8
MED-1
  6
CONTINUOUS
 62
40
 10
5.6094847E+001
 20
2.4423653E+002
 40
1.2019925
 50
2.9954533E+002
 51
3.005675E+002
  0
ARC
  8
MED-1
  6
CONTINUOUS
 62
40
 10
5.6180979E+001
 20
2.4408918E+002
 40
1.0313174
 50
3.0061046E+002
 51
3.0183443E+002
  0
ARC
  8
MED-1
  6
CONTINUOUS
 62
40
 10
5.6054983E+001
 20
2.443121E+002
 40
1.2872044
 50
3.0136535E+002
 51
3.0228792E+002
  0
ARC
  8
MED-1
  6
CONTINUOUS
 62
40
 10
5.4861519E+001
 20
2.4620809E+002
 40
3.5275486
 50
3.0222512E+002
 51
3.0252995E+002
  0
ARC
  8
MED-1
  6
CONTINUOUS
 62
40
 10
5.6168388E+001
 20
2.4411756E+002
 40
1.0624782
 50
3.037341E+002
 51
3.0504502E+002
  0
ARC
  8
MED-1
  6
CONTINUOUS
 62
40
 10
5.6227476E+001
 20
2.4403583E+002
 40
9.6163213E-001
 50
3.0495919E+002
 51
3.0720721E+002
  0
ARC
  8
MED-1
  6
CONTINUOUS
 62
40
 10
5.5256815E+001
 20
2.4538274E+002
 40
2.6216747
 50
3.0630252E+002
 51
3.0738644E+002
  0
LINE
  8
MED-1
  6
CONTINUOUS
 62
40
 10
5.6848664E+001
 20
2.4329967E+002
 11
5.6965704E+001
 21
2.4338958E+002
  0
ARC
  8
MED-1
  6
CONTINUOUS
 62
40
 10
5.9662621E+001
 20
2.3976009E+002
 40
4.52179
 50
1.2476158E+002
 51
1.2661441E+002
  0
ARC
  8
MED-1
  6
CONTINUOUS
 62
40
 10
5.9577418E+001
 20
2.3987124E+002
 40
4.3818995
 50
1.2277968E+002
 51
1.2467501E+002
  0
ARC
  8
MED-1
  6
CONTINUOUS
 62
40
 10
5.9529346E+001
 20
2.3994803E+002
 40
4.2913134
 50
1.2087379E+002
 51
1.2279511E+002
  0
ARC
  8
MED-1
  6
CONTINUOUS
 62
40
 10
5.9507954E+001
 20
2.3997596E+002
 40
4.2563626
 50
1.1889484E+002
 51
1.2081958E+002
  0
ARC
  8
MED-1
  6
CONTINUOUS
 62
40
 10
5.9499596E+001
 20
2.3999664E+002
 40
4.2342209
 50
1.1700678E+002
 51
1.1893104E+002
  0
ARC
  8
MED-1
  6
CONTINUOUS
 62
40
 10
5.9498183E+001
 20
2.399916E+002
 40
4.2380728
 50
1.1504523E+002
 51
1.169588E+002
  0
ARC
  8
MED-1
  6
CONTINUOUS
 62
40
 10
5.9480765E+001
 20
2.4002947E+002
 40
4.196385
 50
1.131201E+002
 51
1.1504871E+002
  0
ARC
  8
MED-1
  6
CONTINUOUS
 62
40
 10
5.945189E+001
 20
2.4008974E+002
 40
4.1296255
 50
1.1112132E+002
 51
1.1307995E+002
  0
ARC
  8
MED-1
  6
CONTINUOUS
 62
40
 10
5.9506064E+001
 20
2.3997686E+002
 40
4.254451
 50
1.093624E+002
 51
1.1125412E+002
  0
ARC
  8
MED-1
  6
CONTINUOUS
 62
40
 10
5.9614209E+001
 20
2.3966525E+002
 40
4.5842867
 50
1.0760138E+002
 51
1.0934639E+002
  0
ARC
  8
MED-1
  6
CONTINUOUS
 62
40
 10
5.9479214E+001
 20
2.4002099E+002
 40
4.2044368
 50
1.0537832E+002
 51
1.0731379E+002
  0
ARC
  8
MED-1
  6
CONTINUOUS
 62
40
 10
5.9301544E+001
 20
2.4064286E+002
 40
3.5577185
 50
1.0292874E+002
 51
1.0527537E+002
  0
ARC
  8
MED-1
  6
CONTINUOUS
 62
40
 10
5.9566007E+001
 20
2.398112E+002
 40
4.4280525
 50
1.0208281E+002
 51
1.0385629E+002
  0
ARC
  8
MED-1
  6
CONTINUOUS
 62
40
 10
6.1274401E+001
 20
2.3193871E+002
 40
1.2483768E+001
 50
1.0161676E+002
 51
1.021867E+002
  0
ARC
  8
MED-1
  6
CONTINUOUS
 62
40
 10
5.9339814E+001
 20
2.4059624E+002
 40
3.6171989
 50
9.6661872E+001
 51
9.9214096E+001
  0
ARC
  8
MED-1
  6
CONTINUOUS
 62
40
 10
5.931087E+001
 20
2.4094099E+002
 40
3.2714371
 50
9.2458936E+001
 51
9.6858818E+001
  0
ARC
  8
MED-1
  6
CONTINUOUS
 62
40
 10
5.983647E+001
 20
2.3522385E+002
 40
9.0102017
 50
9.2133274E+001
 51
9.4238674E+001
  0
LINE
  8
MED-1
  6
CONTINUOUS
 62
40
 10
5.9501074E+001
 20
2.4422781E+002
 11
5.9729984E+001
 21
2.4422784E+002
  0
LINE
  8
MED-1
  6
CONTINUOUS
 62
40
 10
5.9729984E+001
 20
2.4422784E+002
 11
5.9958854E+001
 21
2.4422792E+002
  0
LINE
  8
MED-1
  6
CONTINUOUS
 62
40
 10
5.9958854E+001
 20
2.4422792E+002
 11
6.0187624E+001
 21
2.4422805E+002
  0
LINE
  8
MED-1
  6
CONTINUOUS
 62
40
 10
6.0187624E+001
 20
2.4422805E+002
 11
6.0416634E+001
 21
2.4422822E+002
  0
LINE
  8
MED-1
  6
CONTINUOUS
 62
40
 10
6.0416634E+001
 20
2.4422822E+002
 11
6.0645984E+001
 21
2.4422844E+002
  0
LINE
  8
MED-1
  6
CONTINUOUS
 62
40
 10
6.0645984E+001
 20
2.4422844E+002
 11
6.0874404E+001
 21
2.4422871E+002
  0
LINE
  8
MED-1
  6
CONTINUOUS
 62
40
 10
6.0874404E+001
 20
2.4422871E+002
 11
6.1101464E+001
 21
2.4422901E+002
  0
LINE
  8
MED-1
  6
CONTINUOUS
 62
40
 10
6.1101464E+001
 20
2.4422901E+002
 11
6.1332174E+001
 21
2.4422936E+002
  0
LINE
  8
MED-1
  6
CONTINUOUS
 62
40
 10
6.1332174E+001
 20
2.4422936E+002
 11
6.1568274E+001
 21
2.4422977E+002
  0
LINE
  8
MED-1
  6
CONTINUOUS
 62
40
 10
6.1568274E+001
 20
2.4422977E+002
 11
6.1789944E+001
 21
2.4423018E+002
  0
LINE
  8
MED-1
  6
CONTINUOUS
 62
40
 10
6.1789944E+001
 20
2.4423018E+002
 11
6.1990344E+001
 21
2.4423058E+002
  0
LINE
  8
MED-1
  6
CONTINUOUS
 62
40
 10
6.1990344E+001
 20
2.4423058E+002
 11
6.2247714E+001
 21
2.4423116E+002
  0
LINE
  8
MED-1
  6
CONTINUOUS
 62
40
 10
6.2247714E+001
 20
2.4423116E+002
 11
6.2644114E+001
 21
2.4423217E+002
  0
LINE
  8
MED-1
  6
CONTINUOUS
 62
40
 10
6.2644114E+001
 20
2.4423217E+002
 11
6.3163244E+001
 21
2.4423355E+002
  0
LINE
  8
MED-1
  6
CONTINUOUS
 62
40
 10
5.6476864E+001
 20
2.4377063E+002
 11
5.6497234E+001
 21
2.4374482E+002
  0
LINE
  8
MED-1
  6
CONTINUOUS
 62
40
 10
5.6497234E+001
 20
2.4374482E+002
 11
5.6519524E+001
 21
2.4371658E+002
  0
LINE
  8
MED-1
  6
CONTINUOUS
 62
40
 10
5.6519524E+001
 20
2.4371658E+002
 11
5.6543684E+001
 21
2.4368598E+002
  0
LINE
  8
MED-1
  6
CONTINUOUS
 62
40
 10
5.6543684E+001
 20
2.4368598E+002
 11
5.6570464E+001
 21
2.4365206E+002
  0
LINE
  8
MED-1
  6
CONTINUOUS
 62
40
 10
5.6570464E+001
 20
2.4365206E+002
 11
5.6600204E+001
 21
2.4361439E+002
  0
LINE
  8
MED-1
  6
CONTINUOUS
 62
40
 10
5.6600204E+001
 20
2.4361439E+002
 11
5.6629324E+001
 21
2.435775E+002
  0
LINE
  8
MED-1
  6
CONTINUOUS
 62
40
 10
5.6629324E+001
 20
2.435775E+002
 11
5.6656664E+001
 21
2.4354287E+002
  0
LINE
  8
MED-1
  6
CONTINUOUS
 62
40
 10
5.6656664E+001
 20
2.4354287E+002
 11
5.6695674E+001
 21
2.4349346E+002
  0
LINE
  8
MED-1
  6
CONTINUOUS
 62
40
 10
5.6695674E+001
 20
2.4349346E+002
 11
5.6760634E+001
 21
2.4341117E+002
  0
LINE
  8
MED-1
  6
CONTINUOUS
 62
40
 10
5.6760634E+001
 20
2.4341117E+002
 11
5.6848664E+001
 21
2.4329967E+002
  0
LINE
  8
MED-1
  6
CONTINUOUS
 62
40
 10
5.9503794E+001
 20
2.4496606E+002
 11
5.9501074E+001
 21
2.4422781E+002
  0
ARC
  8
MED-1
  6
CONTINUOUS
 62
40
 10
5.9503784E+001
 20
2.3996604E+002
 40
5.0
 50
8.999989E+001
 51
1.2725694E+002
  0
LINE
  8
MED-1
  6
CONTINUOUS
 62
40
 10
5.9503794E+001
 20
2.4496606E+002
 11
6.4140904E+001
 21
2.4498288E+002
  0
LINE
  8
MED-1
  6
CONTINUOUS
 62
40
 10
1.0997683E+002
 20
2.4027039E+002
 11
1.0997683E+002
 21
2.4247039E+002
  0
LINE
  8
MED-1
  6
CONTINUOUS
 62
40
 10
1.0997683E+002
 20
2.3807039E+002
 11
1.0997683E+002
 21
2.4027039E+002
  0
LINE
  8
MED-1
  6
CONTINUOUS
 62
40
 10
9.0676834E+001
 20
2.4027039E+002
 11
9.0676834E+001
 21
2.3632039E+002
  0
LINE
  8
MED-1
  6
CONTINUOUS
 62
40
 10
9.0676834E+001
 20
2.4422039E+002
 11
9.0676834E+001
 21
2.4027039E+002
  0
LINE
  8
MED-1
  6
CONTINUOUS
 62
40
 10
1.0997686E+002
 20
2.3807038E+002
 11
1.0967679E+002
 21
2.3777039E+002
  0
LINE
  8
MED-1
  6
CONTINUOUS
 62
40
 10
1.0967679E+002
 20
2.4027039E+002
 11
1.0967679E+002
 21
2.3777039E+002
  0
LINE
  8
MED-1
  6
CONTINUOUS
 62
40
 10
1.0967679E+002
 20
2.4277038E+002
 11
1.0967679E+002
 21
2.4027039E+002
  0
LINE
  8
MED-1
  6
CONTINUOUS
 62
40
 10
1.0967679E+002
 20
2.4277038E+002
 11
1.0997686E+002
 21
2.4247039E+002
  0
LINE
  8
MED-1
  6
CONTINUOUS
 62
40
 10
9.0976824E+001
 20
2.4027039E+002
 11
9.0976824E+001
 21
2.445204E+002
  0
LINE
  8
MED-1
  6
CONTINUOUS
 62
40
 10
9.0976824E+001
 20
2.3602037E+002
 11
9.0976824E+001
 21
2.4027039E+002
  0
LINE
  8
MED-1
  6
CONTINUOUS
 62
40
 10
9.0976824E+001
 20
2.445204E+002
 11
9.3976844E+001
 21
2.445204E+002
  0
LINE
  8
MED-1
  6
CONTINUOUS
 62
40
 10
9.3976844E+001
 20
2.3602037E+002
 11
9.0976824E+001
 21
2.3602037E+002
  0
LINE
  8
MED-1
  6
CONTINUOUS
 62
40
 10
1.0967679E+002
 20
2.3777039E+002
 11
9.5976824E+001
 21
2.3777039E+002
  0
LINE
  8
MED-1
  6
CONTINUOUS
 62
40
 10
9.5976824E+001
 20
2.4277038E+002
 11
1.0967679E+002
 21
2.4277038E+002
  0
LINE
  8
MED-1
  6
CONTINUOUS
 62
40
 10
9.0976824E+001
 20
2.3602037E+002
 11
9.0958904E+001
 21
2.3602089E+002
  0
ARC
  8
MED-1
  6
CONTINUOUS
 62
40
 10
9.0975451E+001
 20
2.3630081E+002
 40
2.8041036E-001
 50
2.6288609E+002
 51
2.6661708E+002
  0
ARC
  8
MED-1
  6
CONTINUOUS
 62
40
 10
9.0977956E+001
 20
2.3632532E+002
 40
3.0503748E-001
 50
2.5947651E+002
 51
2.6298923E+002
  0
ARC
  8
MED-1
  6
CONTINUOUS
 62
40
 10
9.0980094E+001
 20
2.3633715E+002
 40
3.1706532E-001
 50
2.5604193E+002
 51
2.5948726E+002
  0
ARC
  8
MED-1
  6
CONTINUOUS
 62
40
 10
9.0979015E+001
 20
2.3632711E+002
 40
3.0705904E-001
 50
2.5216189E+002
 51
2.5578516E+002
  0
ARC
  8
MED-1
  6
CONTINUOUS
 62
40
 10
9.0978339E+001
 20
2.3632493E+002
 40
3.047772E-001
 50
2.4845281E+002
 51
2.5215739E+002
  0
ARC
  8
MED-1
  6
CONTINUOUS
 62
40
 10
9.0979219E+001
 20
2.3632528E+002
 40
3.0542888E-001
 50
2.4457189E+002
 51
2.4832358E+002
  0
ARC
  8
MED-1
  6
CONTINUOUS
 62
40
 10
9.0979451E+001
 20
2.3632601E+002
 40
3.061851E-001
 50
2.4080823E+002
 51
2.44591E+002
  0
ARC
  8
MED-1
  6
CONTINUOUS
 62
40
 10
9.0979081E+001
 20
2.3632345E+002
 40
3.0377374E-001
 50
2.3678381E+002
 51
2.4063388E+002
  0
ARC
  8
MED-1
  6
CONTINUOUS
 62
40
 10
9.0978955E+001
 20
2.3632386E+002
 40
3.0404515E-001
 50
2.3297367E+002
 51
2.368458E+002
  0
ARC
  8
MED-1
  6
CONTINUOUS
 62
40
 10
9.0979689E+001
 20
2.3632367E+002
 40
3.0433578E-001
 50
2.2895445E+002
 51
2.3284168E+002
  0
ARC
  8
MED-1
  6
CONTINUOUS
 62
40
 10
9.0978306E+001
 20
2.3632227E+002
 40
3.0237185E-001
 50
2.2505287E+002
 51
2.289779E+002
  0
ARC
  8
MED-1
  6
CONTINUOUS
 62
40
 10
9.0975095E+001
 20
2.3631798E+002
 40
2.9706876E-001
 50
2.2090882E+002
 51
2.2490687E+002
  0
ARC
  8
MED-1
  6
CONTINUOUS
 62
40
 10
9.097799E+001
 20
2.3632202E+002
 40
3.0190478E-001
 50
2.1721574E+002
 51
2.2112838E+002
  0
ARC
  8
MED-1
  6
CONTINUOUS
 62
40
 10
9.0989728E+001
 20
2.3633059E+002
 40
3.1643519E-001
 50
2.1346611E+002
 51
2.1716585E+002
  0
ARC
  8
MED-1
  6
CONTINUOUS
 62
40
 10
9.0973806E+001
 20
2.3631756E+002
 40
2.9597588E-001
 50
2.090856E+002
 51
2.13062E+002
  0
ARC
  8
MED-1
  6
CONTINUOUS
 62
40
 10
9.0943059E+001
 20
2.3629985E+002
 40
2.604978E-001
 50
2.0440849E+002
 51
2.0896885E+002
  0
ARC
  8
MED-1
  6
CONTINUOUS
 62
40
 10
9.0983041E+001
 20
2.3632694E+002
 40
3.0821103E-001
 50
2.0230605E+002
 51
2.0592388E+002
  0
ARC
  8
MED-1
  6
CONTINUOUS
 62
40
 10
9.1264949E+001
 20
2.3644526E+002
 40
6.1393744E-001
 50
2.0089688E+002
 51
2.0253636E+002
  0
ARC
  8
MED-1
  6
CONTINUOUS
 62
40
 10
9.0944036E+001
 20
2.3630387E+002
 40
2.6428833E-001
 50
1.9239051E+002
 51
1.970723E+002
  0
ARC
  8
MED-1
  6
CONTINUOUS
 62
40
 10
9.0916672E+001
 20
2.3629878E+002
 40
2.3647093E-001
 50
1.8481037E+002
 51
1.9260881E+002
  0
ARC
  8
MED-1
  6
CONTINUOUS
 62
40
 10
9.126663E+001
 20
2.3635925E+002
 40
5.9107578E-001
 50
1.8377179E+002
 51
1.8780825E+002
  0
LINE
  8
MED-1
  6
CONTINUOUS
 62
40
 10
9.0676834E+001
 20
2.442204E+002
 11
9.0677354E+001
 21
2.4423833E+002
  0
ARC
  8
MED-1
  6
CONTINUOUS
 62
40
 10
9.0957194E+001
 20
2.4422194E+002
 40
2.8031978E-001
 50
1.7291684E+002
 51
1.7664884E+002
  0
ARC
  8
MED-1
  6
CONTINUOUS
 62
40
 10
9.0981523E+001
 20
2.4421929E+002
 40
3.0479065E-001
 50
1.6947134E+002
 51
1.7298505E+002
  0
ARC
  8
MED-1
  6
CONTINUOUS
 62
40
 10
9.0993519E+001
 20
2.4421715E+002
 40
3.1697531E-001
 50
1.6604144E+002
 51
1.6948775E+002
  0
ARC
  8
MED-1
  6
CONTINUOUS
 62
40
 10
9.0983473E+001
 20
2.4421839E+002
 40
3.0692865E-001
 50
1.6218975E+002
 51
1.6581405E+002
  0
ARC
  8
MED-1
  6
CONTINUOUS
 62
40
 10
9.0981292E+001
 20
2.4421891E+002
 40
3.0469277E-001
 50
1.5845229E+002
 51
1.621579E+002
  0
ARC
  8
MED-1
  6
CONTINUOUS
 62
40
 10
9.0981492E+001
 20
2.4421819E+002
 40
3.0514626E-001
 50
1.5458622E+002
 51
1.5833891E+002
  0
ARC
  8
MED-1
  6
CONTINUOUS
 62
40
 10
9.0982529E+001
 20
2.4421765E+002
 40
3.0631231E-001
 50
1.5079557E+002
 51
1.545793E+002
  0
ARC
  8
MED-1
  6
CONTINUOUS
 62
40
 10
9.0979829E+001
 20
2.4421833E+002
 40
3.0362669E-001
 50
1.4680736E+002
 51
1.5065832E+002
  0
ARC
  8
MED-1
  6
CONTINUOUS
 62
40
 10
9.0980245E+001
 20
2.4421816E+002
 40
3.0406722E-001
 50
1.4295045E+002
 51
1.4682339E+002
  0
ARC
  8
MED-1
  6
CONTINUOUS
 62
40
 10
9.0980062E+001
 20
2.4421772E+002
 40
3.0418661E-001
 50
1.3897564E+002
 51
1.4286358E+002
  0
ARC
  8
MED-1
  6
CONTINUOUS
 62
40
 10
9.0978523E+001
 20
2.4421894E+002
 40
3.0222153E-001
 50
1.3503372E+002
 51
1.3895931E+002
  0
ARC
  8
MED-1
  6
CONTINUOUS
 62
40
 10
9.0974536E+001
 20
2.4422215E+002
 40
2.9713827E-001
 50
1.3092888E+002
 51
1.349273E+002
  0
ARC
  8
MED-1
  6
CONTINUOUS
 62
40
 10
9.0978444E+001
 20
2.442191E+002
 40
3.0199921E-001
 50
1.2719806E+002
 51
1.3111096E+002
  0
ARC
  8
MED-1
  6
CONTINUOUS
 62
40
 10
9.0987022E+001
 20
2.4420751E+002
 40
3.164215E-001
 50
1.2346603E+002
 51
1.2716593E+002
  0
ARC
  8
MED-1
  6
CONTINUOUS
 62
40
 10
9.0973996E+001
 20
2.4422357E+002
 40
2.9585019E-001
 50
1.1909999E+002
 51
1.2307642E+002
  0
ARC
  8
MED-1
  6
CONTINUOUS
 62
40
 10
9.0956291E+001
 20
2.4425403E+002
 40
2.6061959E-001
 50
1.1439616E+002
 51
1.1895635E+002
  0
ARC
  8
MED-1
  6
CONTINUOUS
 62
40
 10
9.0983397E+001
 20
2.4421416E+002
 40
3.0823548E-001
 50
1.1230619E+002
 51
1.1592374E+002
  0
ARC
  8
MED-1
  6
CONTINUOUS
 62
40
 10
9.1101731E+001
 20
2.4393222E+002
 40
6.1400079E-001
 50
1.1089696E+002
 51
1.1253627E+002
  0
ARC
  8
MED-1
  6
CONTINUOUS
 62
40
 10
9.0960327E+001
 20
2.4425303E+002
 40
2.6443979E-001
 50
1.0238406E+002
 51
1.0706526E+002
  0
ARC
  8
MED-1
  6
CONTINUOUS
 62
40
 10
9.0955241E+001
 20
2.4428051E+002
 40
2.3651374E-001
 50
9.4811077E+001
 51
1.0260811E+002
  0
ARC
  8
MED-1
  6
CONTINUOUS
 62
40
 10
9.1015862E+001
 20
2.4393047E+002
 40
5.9122232E-001
 50
9.3785931E+001
 51
9.7821489E+001
  0
LINE
  8
104
  6
CONTINUOUS
 62
1
 10
1.0997683E+002
 20
2.4247042E+002
 11
9.5976834E+001
 21
2.4247042E+002
  0
LINE
  8
104
  6
CONTINUOUS
 62
1
 10
1.0997683E+002
 20
2.3807035E+002
 11
9.5976834E+001
 21
2.3807035E+002
  0
ARC
  8
MED-1
  6
CONTINUOUS
 62
40
 10
8.3976834E+001
 20
2.3685373E+002
 40
6.0833333
 50
2.7E+002
 51
3.1111209E+002
  0
ARC
  8
MED-1
  6
CONTINUOUS
 62
40
 10
8.3976834E+001
 20
2.3685373E+002
 40
6.0833332
 50
2.2888791E+002
 51
2.7E+002
  0
LINE
  8
106
  6
CENTERLINE
 62
1
 10
1.1443124E+002
 20
2.4027039E+002
 11
3.7017172E+001
 21
2.4027039E+002
  0
INSERT
  2
*XH59
  8
108
 10
1.0054164E+002
 20
1.6220558E+002
  0
INSERT
  2
*XH60
  8
108
 10
1.0027693E+002
 20
1.449703E+002
  0
INSERT
  2
*XH61
  8
108
 10
1.0088184E+002
 20
1.8886539E+002
  0
INSERT
  2
*XH62
  8
108
 10
9.9675655E+001
 20
1.7917393E+002
  0
INSERT
  2
*XH63
  8
108
 10
1.0039655E+002
 20
2.0535067E+002
  0
POINT
  8
Drafting_Hidden_Entities
  6
CONTINUOUS
 62
1
 10
0.0
 20
0.0
  0
ENDBLK
  0
BLOCK
  2
2NEW01
 10
0.0
 20
0.0
 70
0
  0
LINE
  8
106
  6
CENTERLINE
 62
1
 10
8.4752893E+001
 20
2.963546E+001
 11
7.3002893E+001
 21
2.963546E+001
  0
LINE
  8
MED-1
  6
CONTINUOUS
 62
40
 10
1.5753423E+001
 20
3.1641E-001
 11
1.5753423E+001
 21
1.363547E+001
  0
LINE
  8
MED-1
  6
CONTINUOUS
 62
40
 10
-6.082647
 20
1.363546E+001
 11
-6.246577
 21
1.363546E+001
  0
LINE
  8
MED-1
  6
CONTINUOUS
 62
40
 10
-5.838927
 20
1.363547E+001
 11
-6.082647
 21
1.363546E+001
  0
LINE
  8
MED-1
  6
CONTINUOUS
 62
40
 10
-6.246577
 20
1.363546E+001
 11
-6.246577
 21
3.1641E-001
  0
LINE
  8
MED-1
  6
CONTINUOUS
 62
40
 10
-5.838927
 20
1.963546E+001
 11
-5.838927
 21
1.363547E+001
  0
LINE
  8
MED-1
  6
CONTINUOUS
 62
40
 10
5.8338873E+001
 20
1.963546E+001
 11
5.8338873E+001
 21
1.363546E+001
  0
LINE
  8
MED-1
  6
CONTINUOUS
 62
40
 10
-5.838927
 20
1.963546E+001
 11
3.6673093E+001
 21
1.963546E+001
  0
LINE
  8
MED-1
  6
CONTINUOUS
 62
40
 10
3.6673093E+001
 20
1.363546E+001
 11
-5.838927
 21
1.363547E+001
  0
LINE
  8
MED-1
  6
CONTINUOUS
 62
40
 10
3.6673093E+001
 20
1.363546E+001
 11
3.6673093E+001
 21
1.963546E+001
  0
LINE
  8
MED-1
  6
CONTINUOUS
 62
40
 10
3.6673093E+001
 20
1.963546E+001
 11
3.7966113E+001
 21
1.963546E+001
  0
LINE
  8
MED-1
  6
CONTINUOUS
 62
40
 10
3.7966113E+001
 20
1.363546E+001
 11
3.6673093E+001
 21
1.363546E+001
  0
LINE
  8
MED-1
  6
CONTINUOUS
 62
40
 10
3.7966113E+001
 20
1.963546E+001
 11
5.8338873E+001
 21
1.963546E+001
  0
LINE
  8
MED-1
  6
CONTINUOUS
 62
40
 10
5.8338873E+001
 20
1.363546E+001
 11
3.7966113E+001
 21
1.363546E+001
  0
LINE
  8
MED-1
  6
CONTINUOUS
 62
40
 10
4.2752883E+001
 20
2.263547E+001
 11
4.2752883E+001
 21
1.963544E+001
  0
LINE
  8
MED-1
  6
CONTINUOUS
 62
40
 10
5.2752873E+001
 20
1.963544E+001
 11
5.2752873E+001
 21
2.263547E+001
  0
ARC
  8
MED-1
  6
CONTINUOUS
 62
40
 10
4.7752893E+001
 20
2.77776E+001
 40
1.5E+001
 50
2.7E+002
 51
2.8947122E+002
  0
ARC
  8
MED-1
  6
CONTINUOUS
 62
40
 10
4.7752893E+001
 20
2.77776E+001
 40
1.5E+001
 50
2.5052878E+002
 51
2.7E+002
  0
LINE
  8
MED-1
  6
CONTINUOUS
 62
40
 10
5.7752893E+001
 20
3.433546E+001
 11
5.7752893E+001
 21
2.863549E+001
  0
LINE
  8
MED-1
  6
CONTINUOUS
 62
40
 10
3.7752893E+001
 20
2.853546E+001
 11
3.7752893E+001
 21
3.433546E+001
  0
ARC
  8
MED-1
  6
CONTINUOUS
 62
40
 10
4.0052893E+001
 20
3.433546E+001
 40
2.3
 50
9.0E+001
 51
1.8E+002
  0
ARC
  8
MED-1
  6
CONTINUOUS
 62
40
 10
5.5452893E+001
 20
3.433546E+001
 40
2.3000001
 50
0.0
 51
9.0E+001
  0
LINE
  8
MED-1
  6
CONTINUOUS
 62
40
 10
4.0052893E+001
 20
3.663546E+001
 11
5.5452893E+001
 21
3.663546E+001
  0
LINE
  8
MED-1
  6
CONTINUOUS
 62
40
 10
3.7752893E+001
 20
2.853546E+001
 11
5.7752893E+001
 21
2.853546E+001
  0
LINE
  8
MED-1
  6
CONTINUOUS
 62
40
 10
5.7752893E+001
 20
3.433546E+001
 11
3.7752893E+001
 21
3.433546E+001
  0
LINE
  8
MED-1
  6
CONTINUOUS
 62
40
 10
5.7752893E+001
 20
2.863549E+001
 11
3.7752893E+001
 21
2.863546E+001
  0
LINE
  8
MED-1
  6
CONTINUOUS
 62
40
 10
3.8752893E+001
 20
2.263546E+001
 11
5.6752893E+001
 21
2.263546E+001
  0
LINE
  8
MED-1
  6
CONTINUOUS
 62
40
 10
5.3617193E+001
 20
3.673546E+001
 11
4.1888593E+001
 21
3.673546E+001
  0
LINE
  8
MED-1
  6
CONTINUOUS
 62
40
 10
5.7752893E+001
 20
2.363546E+001
 11
5.6752893E+001
 21
2.263546E+001
  0
LINE
  8
MED-1
  6
CONTINUOUS
 62
40
 10
3.7752913E+001
 20
2.363546E+001
 11
3.8752893E+001
 21
2.263546E+001
  0
LINE
  8
MED-1
  6
CONTINUOUS
 62
40
 10
5.7752893E+001
 20
2.363546E+001
 11
3.7752913E+001
 21
2.363546E+001
  0
LINE
  8
MED-1
  6
CONTINUOUS
 62
40
 10
5.7752893E+001
 20
2.863549E+001
 11
5.7752893E+001
 21
2.363546E+001
  0
LINE
  8
MED-1
  6
CONTINUOUS
 62
40
 10
3.7752893E+001
 20
2.853546E+001
 11
3.7752913E+001
 21
2.363546E+001
  0
ARC
  8
MED-1
  6
CONTINUOUS
 62
40
 10
4.7752893E+001
 20
2.863546E+001
 40
1.0E+001
 50
5.4095932E+001
 51
9.0E+001
  0
ARC
  8
MED-1
  6
CONTINUOUS
 62
40
 10
4.7752893E+001
 20
2.863546E+001
 40
1.0E+001
 50
9.0E+001
 51
1.2590407E+002
  0
LINE
  8
MED-1
  6
CONTINUOUS
 62
40
 10
4.3752873E+001
 20
3.673544E+001
 11
4.3752893E+001
 21
3.663546E+001
  0
LINE
  8
MED-1
  6
CONTINUOUS
 62
40
 10
5.1752883E+001
 20
3.673544E+001
 11
5.1752893E+001
 21
3.663546E+001
  0
LINE
  8
MED-1
  6
CONTINUOUS
 62
40
 10
8.4752893E+001
 20
2.363546E+001
 11
8.4752893E+001
 21
2.163546E+001
  0
LINE
  8
MED-1
  6
CONTINUOUS
 62
40
 10
8.4752893E+001
 20
3.763546E+001
 11
8.4752893E+001
 21
3.563546E+001
  0
LINE
  8
MED-1
  6
CONTINUOUS
 62
40
 10
8.4752893E+001
 20
3.563546E+001
 11
8.4752893E+001
 21
2.363546E+001
  0
LINE
  8
MED-1
  6
CONTINUOUS
 62
40
 10
2.6752893E+001
 20
2.163546E+001
 11
2.6752893E+001
 21
2.363546E+001
  0
LINE
  8
MED-1
  6
CONTINUOUS
 62
40
 10
2.6752893E+001
 20
2.363546E+001
 11
2.6752893E+001
 21
3.563546E+001
  0
LINE
  8
MED-1
  6
CONTINUOUS
 62
40
 10
2.6752893E+001
 20
3.563546E+001
 11
2.6752893E+001
 21
3.763546E+001
  0
LINE
  8
MED-1
  6
CONTINUOUS
 62
40
 10
8.3784403E+001
 20
3.763546E+001
 11
8.4752893E+001
 21
3.763546E+001
  0
LINE
  8
MED-1
  6
CONTINUOUS
 62
40
 10
2.6752893E+001
 20
3.763546E+001
 11
2.7370583E+001
 21
3.763546E+001
  0
LINE
  8
MED-1
  6
CONTINUOUS
 62
40
 10
2.7370583E+001
 20
3.763546E+001
 11
4.3341363E+001
 21
3.763546E+001
  0
LINE
  8
MED-1
  6
CONTINUOUS
 62
40
 10
4.3341363E+001
 20
3.763546E+001
 11
4.3393993E+001
 21
3.763546E+001
  0
LINE
  8
MED-1
  6
CONTINUOUS
 62
40
 10
5.2111793E+001
 20
3.763546E+001
 11
8.3784403E+001
 21
3.763546E+001
  0
LINE
  8
MED-1
  6
CONTINUOUS
 62
40
 10
8.4752893E+001
 20
2.163546E+001
 11
8.3784403E+001
 21
2.163546E+001
  0
LINE
  8
MED-1
  6
CONTINUOUS
 62
40
 10
8.3784403E+001
 20
2.163546E+001
 11
5.2752893E+001
 21
2.163546E+001
  0
LINE
  8
MED-1
  6
CONTINUOUS
 62
40
 10
4.2752893E+001
 20
2.163546E+001
 11
2.7370583E+001
 21
2.163546E+001
  0
LINE
  8
MED-1
  6
CONTINUOUS
 62
40
 10
2.7370583E+001
 20
2.163546E+001
 11
2.6752893E+001
 21
2.163546E+001
  0
LINE
  8
MED-1
  6
CONTINUOUS
 62
40
 10
8.3784403E+001
 20
2.363546E+001
 11
8.4752893E+001
 21
2.363546E+001
  0
LINE
  8
MED-1
  6
CONTINUOUS
 62
40
 10
2.6752893E+001
 20
2.363546E+001
 11
2.7370583E+001
 21
2.363546E+001
  0
LINE
  8
MED-1
  6
CONTINUOUS
 62
40
 10
2.7370583E+001
 20
2.363546E+001
 11
3.7752913E+001
 21
2.363546E+001
  0
LINE
  8
MED-1
  6
CONTINUOUS
 62
40
 10
5.7752893E+001
 20
2.363546E+001
 11
8.3784403E+001
 21
2.363546E+001
  0
LINE
  8
MED-1
  6
CONTINUOUS
 62
40
 10
8.4752893E+001
 20
3.563546E+001
 11
8.3784403E+001
 21
3.563546E+001
  0
LINE
  8
MED-1
  6
CONTINUOUS
 62
40
 10
8.3784403E+001
 20
3.563546E+001
 11
5.7293603E+001
 21
3.563544E+001
  0
LINE
  8
MED-1
  6
CONTINUOUS
 62
40
 10
3.8212153E+001
 20
3.563544E+001
 11
2.7370583E+001
 21
3.563546E+001
  0
LINE
  8
MED-1
  6
CONTINUOUS
 62
40
 10
2.7370583E+001
 20
3.563546E+001
 11
2.6752893E+001
 21
3.563546E+001
  0
LINE
  8
MED-1
  6
CONTINUOUS
 62
40
 10
6.9252893E+001
 20
3.263546E+001
 11
7.5242493E+001
 21
3.263546E+001
  0
ARC
  8
MED-1
  6
CONTINUOUS
 62
40
 10
6.9252893E+001
 20
2.963546E+001
 40
3.0000001
 50
9.0E+001
 51
2.7E+002
  0
LINE
  8
MED-1
  6
CONTINUOUS
 62
40
 10
7.5242493E+001
 20
2.663546E+001
 11
6.9252893E+001
 21
2.663546E+001
  0
ARC
  8
MED-1
  6
CONTINUOUS
 62
40
 10
4.7752893E+001
 20
3.305213E+001
 40
6.0833333
 50
5.6898288E+001
 51
9.0E+001
  0
ARC
  8
MED-1
  6
CONTINUOUS
 62
40
 10
4.7752893E+001
 20
3.305213E+001
 40
6.0833333
 50
9.0E+001
 51
1.2310337E+002
  0
CIRCLE
  8
MED-1
  6
CONTINUOUS
 62
40
 10
3.3252893E+001
 20
2.963546E+001
 40
4.25
  0
LINE
  8
MED-1
  6
CONTINUOUS
 62
40
 10
3.4002913E+001
 20
3.188543E+001
 11
3.4002913E+001
 21
3.038544E+001
  0
LINE
  8
MED-1
  6
CONTINUOUS
 62
40
 10
3.2502863E+001
 20
3.188543E+001
 11
3.4002913E+001
 21
3.188543E+001
  0
LINE
  8
MED-1
  6
CONTINUOUS
 62
40
 10
3.2502863E+001
 20
3.038544E+001
 11
3.2502863E+001
 21
3.188543E+001
  0
LINE
  8
MED-1
  6
CONTINUOUS
 62
40
 10
3.1002873E+001
 20
3.038544E+001
 11
3.2502863E+001
 21
3.038544E+001
  0
LINE
  8
MED-1
  6
CONTINUOUS
 62
40
 10
3.1002873E+001
 20
2.888545E+001
 11
3.1002873E+001
 21
3.038544E+001
  0
LINE
  8
MED-1
  6
CONTINUOUS
 62
40
 10
3.2502863E+001
 20
2.888545E+001
 11
3.1002873E+001
 21
2.888545E+001
  0
LINE
  8
MED-1
  6
CONTINUOUS
 62
40
 10
3.2502863E+001
 20
2.738546E+001
 11
3.2502863E+001
 21
2.888545E+001
  0
LINE
  8
MED-1
  6
CONTINUOUS
 62
40
 10
3.4002913E+001
 20
2.738546E+001
 11
3.2502863E+001
 21
2.738546E+001
  0
LINE
  8
MED-1
  6
CONTINUOUS
 62
40
 10
3.4002913E+001
 20
2.888545E+001
 11
3.4002913E+001
 21
2.738546E+001
  0
LINE
  8
MED-1
  6
CONTINUOUS
 62
40
 10
3.5502903E+001
 20
2.888545E+001
 11
3.4002913E+001
 21
2.888545E+001
  0
LINE
  8
MED-1
  6
CONTINUOUS
 62
40
 10
3.5502903E+001
 20
3.038544E+001
 11
3.5502903E+001
 21
2.888545E+001
  0
LINE
  8
MED-1
  6
CONTINUOUS
 62
40
 10
3.4002913E+001
 20
3.038544E+001
 11
3.5502903E+001
 21
3.038544E+001
  0
CIRCLE
  8
MED-1
  6
CONTINUOUS
 62
40
 10
7.8252893E+001
 20
2.963546E+001
 40
4.25
  0
LINE
  8
MED-1
  6
CONTINUOUS
 62
40
 10
7.9002893E+001
 20
3.188543E+001
 11
7.9002893E+001
 21
3.038544E+001
  0
LINE
  8
MED-1
  6
CONTINUOUS
 62
40
 10
7.7502903E+001
 20
3.188543E+001
 11
7.9002893E+001
 21
3.188543E+001
  0
LINE
  8
MED-1
  6
CONTINUOUS
 62
40
 10
7.7502903E+001
 20
3.038544E+001
 11
7.7502903E+001
 21
3.188543E+001
  0
LINE
  8
MED-1
  6
CONTINUOUS
 62
40
 10
7.6002913E+001
 20
3.038544E+001
 11
7.7502903E+001
 21
3.038544E+001
  0
LINE
  8
MED-1
  6
CONTINUOUS
 62
40
 10
7.6002913E+001
 20
2.888545E+001
 11
7.6002913E+001
 21
3.038544E+001
  0
LINE
  8
MED-1
  6
CONTINUOUS
 62
40
 10
7.7502903E+001
 20
2.888545E+001
 11
7.6002913E+001
 21
2.888545E+001
  0
LINE
  8
MED-1
  6
CONTINUOUS
 62
40
 10
7.7502903E+001
 20
2.738546E+001
 11
7.7502903E+001
 21
2.888545E+001
  0
LINE
  8
MED-1
  6
CONTINUOUS
 62
40
 10
7.9002893E+001
 20
2.738546E+001
 11
7.7502903E+001
 21
2.738546E+001
  0
LINE
  8
MED-1
  6
CONTINUOUS
 62
40
 10
7.9002893E+001
 20
2.888545E+001
 11
7.9002893E+001
 21
2.738546E+001
  0
LINE
  8
MED-1
  6
CONTINUOUS
 62
40
 10
8.0502883E+001
 20
2.888545E+001
 11
7.9002893E+001
 21
2.888545E+001
  0
LINE
  8
MED-1
  6
CONTINUOUS
 62
40
 10
8.0502883E+001
 20
3.038544E+001
 11
8.0502883E+001
 21
2.888545E+001
  0
LINE
  8
MED-1
  6
CONTINUOUS
 62
40
 10
7.9002893E+001
 20
3.038544E+001
 11
8.0502883E+001
 21
3.038544E+001
  0
LINE
  8
MED-1
  6
CONTINUOUS
 62
40
 10
-7.0961097E+001
 20
-6.407906E+001
 11
-7.0975067E+001
 21
-6.407906E+001
  0
LINE
  8
MED-1
  6
CONTINUOUS
 62
40
 10
1.5948191E+002
 20
-6.407906E+001
 11
1.5946794E+002
 21
-6.407906E+001
  0
LINE
  8
MED-1
  6
CONTINUOUS
 62
40
 10
1.5946794E+002
 20
-6.407906E+001
 11
-7.0961097E+001
 21
-6.407906E+001
  0
LINE
  8
MED-1
  6
CONTINUOUS
 62
40
 10
-7.0975067E+001
 20
-2.50002
 11
-7.0961097E+001
 21
-2.50002
  0
LINE
  8
MED-1
  6
CONTINUOUS
 62
40
 10
-7.0961097E+001
 20
-2.50002
 11
1.5946794E+002
 21
-2.50002
  0
LINE
  8
MED-1
  6
CONTINUOUS
 62
40
 10
1.5946794E+002
 20
-2.50002
 11
1.5948191E+002
 21
-2.50002
  0
LINE
  8
MED-1
  6
CONTINUOUS
 62
40
 10
9.6121793E+001
 20
7.8546E-001
 11
1.5975347E+002
 21
7.8546E-001
  0
LINE
  8
MED-1
  6
CONTINUOUS
 62
40
 10
1.7121813E+001
 20
7.8546E-001
 11
7.1385043E+001
 21
7.8546E-001
  0
LINE
  8
MED-1
  6
CONTINUOUS
 62
40
 10
1.7121813E+001
 20
7.8546E-001
 11
1.7121863E+001
 21
4.1514E-001
  0
LINE
  8
MED-1
  6
CONTINUOUS
 62
40
 10
1.7121863E+001
 20
4.1514E-001
 11
1.7022723E+001
 21
3.8571E-001
  0
ARC
  8
MED-1
  6
CONTINUOUS
 62
40
 10
1.6813715E+001
 20
6.1522546E-001
 40
3.104217E-001
 50
2.3673455E+002
 51
3.1232251E+002
  0
ARC
  8
MED-1
  6
CONTINUOUS
 62
40
 10
1.5773141E+001
 20
1.1932027E+001
 40
1.1609025E+001
 50
2.7100003E+002
 51
2.7429937E+002
  0
ARC
  8
MED-1
  6
CONTINUOUS
 62
40
 10
1.3949644E+001
 20
4.9476021E+001
 40
4.9192994E+001
 50
2.7123311E+002
 51
2.7236051E+002
  0
ARC
  8
MED-1
  6
CONTINUOUS
 62
40
 10
1.2007648E+001
 20
1.0893466E+002
 40
1.0868167E+002
 50
2.7089775E+002
 51
2.715821E+002
  0
ARC
  8
MED-1
  6
CONTINUOUS
 62
40
 10
9.6339434
 20
2.1214791E+002
 40
2.119208E+002
 50
2.7067467E+002
 51
2.7110222E+002
  0
ARC
  8
MED-1
  6
CONTINUOUS
 62
40
 10
7.5685879
 20
3.4133073E+002
 40
3.4111941E+002
 50
2.7045991E+002
 51
2.7076606E+002
  0
ARC
  8
MED-1
  6
CONTINUOUS
 62
40
 10
5.9474552
 20
4.806694E+002
 40
4.8046687E+002
 50
2.7028457E+002
 51
2.7051985E+002
  0
ARC
  8
MED-1
  6
CONTINUOUS
 62
40
 10
5.1789654
 20
5.861286E+002
 40
5.8592863E+002
 50
2.7010915E+002
 51
2.703085E+002
  0
ARC
  8
MED-1
  6
CONTINUOUS
 62
40
 10
4.7466468
 20
6.562347E+002
 40
6.560355E+002
 50
2.6995905E+002
 51
2.7013524E+002
  0
ARC
  8
MED-1
  6
CONTINUOUS
 62
40
 10
4.705337
 20
7.0466642E+002
 40
7.0446718E+002
 50
2.698096E+002
 51
2.6996522E+002
  0
ARC
  8
MED-1
  6
CONTINUOUS
 62
40
 10
4.5603335
 20
6.3024018E+002
 40
6.3004088E+002
 50
2.6964057E+002
 51
2.6980029E+002
  0
ARC
  8
MED-1
  6
CONTINUOUS
 62
40
 10
3.8231004
 20
4.8759853E+002
 40
4.8739744E+002
 50
2.694391E+002
 51
2.6962204E+002
  0
ARC
  8
MED-1
  6
CONTINUOUS
 62
40
 10
3.1931961
 20
4.8745732E+002
 40
4.8725047E+002
 50
2.6934746E+002
 51
2.6951301E+002
  0
ARC
  8
MED-1
  6
CONTINUOUS
 62
40
 10
2.6369851E+001
 20
2.5993318E+003
 40
2.599252E+003
 50
2.6933774E+002
 51
2.6936678E+002
  0
ARC
  8
MED-1
  6
CONTINUOUS
 62
40
 10
1.8977525
 20
2.8469592E+002
 40
2.8449713E+002
 50
2.6861783E+002
 51
2.6887801E+002
  0
ARC
  8
MED-1
  6
CONTINUOUS
 62
40
 10
-2.3425096
 20
7.9039978E+001
 40
7.8802046E+001
 50
2.6713498E+002
 51
2.6809313E+002
  0
ARC
  8
MED-1
  6
CONTINUOUS
 62
40
 10
-2.8986314
 20
6.899315E+001
 40
6.874E+001
 50
2.6606575E+002
 51
2.6717937E+002
  0
LINE
  8
MED-1
  6
CONTINUOUS
 62
40
 10
-7.614997
 20
4.1514E-001
 11
-7.614937
 21
7.8546E-001
  0
LINE
  8
MED-1
  6
CONTINUOUS
 62
40
 10
-7.1246677E+001
 20
7.8546E-001
 11
-7.614937
 21
7.8546E-001
  0
LINE
  8
MED-1
  6
CONTINUOUS
 62
40
 10
1.5896801E+002
 20
0.0
 11
-7.0461167E+001
 21
0.0
  0
LINE
  8
MED-1
  6
CONTINUOUS
 62
40
 10
-7.1246677E+001
 20
-6.736455E+001
 11
-7.1307497E+001
 21
-6.736099E+001
  0
ARC
  8
MED-1
  6
CONTINUOUS
 62
40
 10
-7.1254641E+001
 20
-6.6914908E+001
 40
4.4920245E-001
 50
2.5529644E+002
 51
2.632426E+002
  0
ARC
  8
MED-1
  6
CONTINUOUS
 62
40
 10
-7.123726E+001
 20
-6.6830864E+001
 40
5.3492486E-001
 50
2.4883042E+002
 51
2.5578054E+002
  0
ARC
  8
MED-1
  6
CONTINUOUS
 62
40
 10
-7.122681E+001
 20
-6.6826706E+001
 40
5.426393E-001
 50
2.4085256E+002
 51
2.4796003E+002
  0
ARC
  8
MED-1
  6
CONTINUOUS
 62
40
 10
-7.1267309E+001
 20
-6.6913138E+001
 40
4.4747677E-001
 50
2.3108695E+002
 51
2.3999115E+002
  0
ARC
  8
MED-1
  6
CONTINUOUS
 62
40
 10
-7.1241844E+001
 20
-6.6842365E+001
 40
5.1912592E-001
 50
2.2636139E+002
 51
2.3380767E+002
  0
ARC
  8
MED-1
  6
CONTINUOUS
 62
40
 10
-7.0954424E+001
 20
-6.6534142E+001
 40
9.4055124E-001
 50
2.2282311E+002
 51
2.2664763E+002
  0
ARC
  8
MED-1
  6
CONTINUOUS
 62
40
 10
-7.1274446E+001
 20
-6.6909459E+001
 40
4.5439746E-001
 50
2.0605703E+002
 51
2.1552188E+002
  0
ARC
  8
MED-1
  6
CONTINUOUS
 62
40
 10
-7.1327299E+001
 20
-6.6935113E+001
 40
3.9564703E-001
 50
1.9013141E+002
 51
2.0608165E+002
  0
ARC
  8
MED-1
  6
CONTINUOUS
 62
40
 10
-7.0797941E+001
 20
-6.6736185E+001
 40
9.5726956E-001
 50
1.8770992E+002
 51
1.9629073E+002
  0
LINE
  8
MED-1
  6
CONTINUOUS
 62
40
 10
-7.1746557E+001
 20
-6.686461E+001
 11
-7.1746557E+001
 21
2.8552E-001
  0
LINE
  8
MED-1
  6
CONTINUOUS
 62
40
 10
-7.1746557E+001
 20
2.8552E-001
 11
-7.1742997E+001
 21
3.4634E-001
  0
ARC
  8
MED-1
  6
CONTINUOUS
 62
40
 10
-7.1296791E+001
 20
2.9355054E-001
 40
4.4931769E-001
 50
1.6530771E+002
 51
1.7325285E+002
  0
ARC
  8
MED-1
  6
CONTINUOUS
 62
40
 10
-7.1212741E+001
 20
2.760994E-001
 40
5.3506412E-001
 50
1.588335E+002
 51
1.6578283E+002
  0
ARC
  8
MED-1
  6
CONTINUOUS
 62
40
 10
-7.1208682E+001
 20
2.6573168E-001
 40
5.4265444E-001
 50
1.5086057E+002
 51
1.5796738E+002
  0
ARC
  8
MED-1
  6
CONTINUOUS
 62
40
 10
-7.1295083E+001
 20
3.0622539E-001
 40
4.4752097E-001
 50
1.4109869E+002
 51
1.5000235E+002
  0
ARC
  8
MED-1
  6
CONTINUOUS
 62
40
 10
-7.1224316E+001
 20
2.8071511E-001
 40
5.1919627E-001
 50
1.3636692E+002
 51
1.4381304E+002
  0
ARC
  8
MED-1
  6
CONTINUOUS
 62
40
 10
-7.0916182E+001
 20
-6.689932E-003
 40
9.4054735E-001
 50
1.328231E+002
 51
1.3664764E+002
  0
ARC
  8
MED-1
  6
CONTINUOUS
 62
40
 10
-7.1291447E+001
 20
3.1340555E-001
 40
4.543632E-001
 50
1.1606737E+002
 51
1.2553249E+002
  0
ARC
  8
MED-1
  6
CONTINUOUS
 62
40
 10
-7.1317176E+001
 20
3.6626062E-001
 40
3.9557882E-001
 50
1.0013234E+002
 51
1.1608396E+002
  0
ARC
  8
MED-1
  6
CONTINUOUS
 62
40
 10
-7.1118205E+001
 20
-1.6297855E-001
 40
9.5710019E-001
 50
9.771413E+001
 51
1.0629601E+002
  0
LINE
  8
MED-1
  6
CONTINUOUS
 62
40
 10
1.5975347E+002
 20
7.8546E-001
 11
1.5981429E+002
 21
7.819E-001
  0
ARC
  8
MED-1
  6
CONTINUOUS
 62
40
 10
1.5976144E+002
 20
3.357156E-001
 40
4.4930426E-001
 50
7.5298429E+001
 51
8.3244043E+001
  0
ARC
  8
MED-1
  6
CONTINUOUS
 62
40
 10
1.5974406E+002
 20
2.516602E-001
 40
5.350366E-001
 50
6.8833324E+001
 51
7.5783011E+001
  0
ARC
  8
MED-1
  6
CONTINUOUS
 62
40
 10
1.5973369E+002
 20
2.4759518E-001
 40
5.4263251E-001
 50
6.0860424E+001
 51
6.7967527E+001
  0
ARC
  8
MED-1
  6
CONTINUOUS
 62
40
 10
1.5977412E+002
 20
3.3398061E-001
 40
4.4754617E-001
 50
5.1091775E+001
 51
5.9995658E+001
  0
ARC
  8
MED-1
  6
CONTINUOUS
 62
40
 10
1.5974867E+002
 20
2.6320172E-001
 40
5.191933E-001
 50
4.6366902E+001
 51
5.3813062E+001
  0
ARC
  8
MED-1
  6
CONTINUOUS
 62
40
 10
1.5946111E+002
 20
-4.4944398E-002
 40
9.4066011E-001
 50
4.2816694E+001
 51
4.6641201E+001
  0
ARC
  8
MED-1
  6
CONTINUOUS
 62
40
 10
1.5978129E+002
 20
3.3031091E-001
 40
4.5442365E-001
 50
2.6063547E+001
 51
3.5528491E+001
  0
ARC
  8
MED-1
  6
CONTINUOUS
 62
40
 10
1.5983416E+002
 20
3.560283E-001
 40
3.9563068E-001
 50
1.0131076E+001
 51
2.6081983E+001
  0
ARC
  8
MED-1
  6
CONTINUOUS
 62
40
 10
1.5930485E+002
 20
1.5704078E-001
 40
9.5722362E-001
 50
7.7135592
 51
1.6294913E+001
  0
LINE
  8
MED-1
  6
CONTINUOUS
 62
40
 10
1.6025341E+002
 20
-6.686461E+001
 11
1.6025341E+002
 21
2.8552E-001
  0
LINE
  8
MED-1
  6
CONTINUOUS
 62
40
 10
1.6025341E+002
 20
-6.686461E+001
 11
1.6024985E+002
 21
-6.692543E+001
  0
ARC
  8
MED-1
  6
CONTINUOUS
 62
40
 10
1.598037E+002
 20
-6.6872579E+001
 40
4.4927716E-001
 50
3.4529819E+002
 51
3.5324428E+002
  0
ARC
  8
MED-1
  6
CONTINUOUS
 62
40
 10
1.5971972E+002
 20
-6.6855201E+001
 40
5.3493156E-001
 50
3.3883047E+002
 51
3.457805E+002
  0
ARC
  8
MED-1
  6
CONTINUOUS
 62
40
 10
1.5971549E+002
 20
-6.6844835E+001
 40
5.426857E-001
 50
3.3086397E+002
 51
3.3797133E+002
  0
ARC
  8
MED-1
  6
CONTINUOUS
 62
40
 10
1.59802E+002
 20
-6.6885257E+001
 40
4.4748482E-001
 50
3.2108703E+002
 51
3.2999107E+002
  0
ARC
  8
MED-1
  6
CONTINUOUS
 62
40
 10
1.5973115E+002
 20
-6.6859796E+001
 40
5.1919486E-001
 50
3.1636691E+002
 51
3.2381305E+002
  0
ARC
  8
MED-1
  6
CONTINUOUS
 62
40
 10
1.59423E+002
 20
-6.6572225E+001
 40
9.4067538E-001
 50
3.1281672E+002
 51
3.1664117E+002
  0
ARC
  8
MED-1
  6
CONTINUOUS
 62
40
 10
1.5979826E+002
 20
-6.6892407E+001
 40
4.5443659E-001
 50
2.9606368E+002
 51
3.0552836E+002
  0
ARC
  8
MED-1
  6
CONTINUOUS
 62
40
 10
1.5982394E+002
 20
-6.6945272E+001
 40
3.9566329E-001
 50
2.8013647E+002
 51
2.9608651E+002
  0
ARC
  8
MED-1
  6
CONTINUOUS
 62
40
 10
1.5962498E+002
 20
-6.6415924E+001
 40
9.5728873E-001
 50
2.7771385E+002
 51
2.8629462E+002
  0
LINE
  8
MED-1
  6
CONTINUOUS
 62
40
 10
1.5975347E+002
 20
-6.736455E+001
 11
-7.1246677E+001
 21
-6.736455E+001
  0
LINE
  8
MED-1
  6
CONTINUOUS
 62
40
 10
-7.0975067E+001
 20
-6.407906E+001
 11
-7.0975067E+001
 21
-2.50002
  0
LINE
  8
MED-1
  6
CONTINUOUS
 62
40
 10
1.5948191E+002
 20
-2.50002
 11
1.5948191E+002
 21
-6.407906E+001
  0
LINE
  8
MED-1
  6
CONTINUOUS
 62
40
 10
-7.0461167E+001
 20
-6.657903E+001
 11
1.5896801E+002
 21
-6.657903E+001
  0
LINE
  8
MED-1
  6
CONTINUOUS
 62
40
 10
-7.0961097E+001
 20
-6.407906E+001
 11
-7.0961097E+001
 21
-6.607915E+001
  0
LINE
  8
MED-1
  6
CONTINUOUS
 62
40
 10
-7.0961097E+001
 20
-4.9994E-001
 11
-7.0961097E+001
 21
-2.50002
  0
LINE
  8
MED-1
  6
CONTINUOUS
 62
40
 10
1.5946795E+002
 20
-4.9994E-001
 11
1.5946794E+002
 21
-2.50002
  0
LINE
  8
MED-1
  6
CONTINUOUS
 62
40
 10
1.5946794E+002
 20
-6.407906E+001
 11
1.5946795E+002
 21
-6.607915E+001
  0
LINE
  8
MED-1
  6
CONTINUOUS
 62
40
 10
-7.0961097E+001
 20
-6.607915E+001
 11
-7.0957537E+001
 21
-6.613997E+001
  0
ARC
  8
MED-1
  6
CONTINUOUS
 62
40
 10
-7.051139E+001
 20
-6.6087121E+001
 40
4.4926606E-001
 50
1.8675562E+002
 51
1.9470191E+002
  0
ARC
  8
MED-1
  6
CONTINUOUS
 62
40
 10
-7.0427507E+001
 20
-6.6069742E+001
 40
5.3483249E-001
 50
1.9422206E+002
 51
2.0117235E+002
  0
ARC
  8
MED-1
  6
CONTINUOUS
 62
40
 10
-7.0423274E+001
 20
-6.6059371E+001
 40
5.4258644E-001
 50
2.0203217E+002
 51
2.0913988E+002
  0
ARC
  8
MED-1
  6
CONTINUOUS
 62
40
 10
-7.0509646E+001
 20
-6.6099797E+001
 40
4.4751232E-001
 50
2.10004E+002
 51
2.1890856E+002
  0
ARC
  8
MED-1
  6
CONTINUOUS
 62
40
 10
-7.0438939E+001
 20
-6.6074342E+001
 40
5.1910383E-001
 50
2.1619217E+002
 51
2.2363877E+002
  0
ARC
  8
MED-1
  6
CONTINUOUS
 62
40
 10
-7.0130723E+001
 20
-6.5786786E+001
 40
9.4061764E-001
 50
2.2335871E+002
 51
2.2718339E+002
  0
ARC
  8
MED-1
  6
CONTINUOUS
 62
40
 10
-7.0506015E+001
 20
-6.6106945E+001
 40
4.5437883E-001
 50
2.3447793E+002
 51
2.4394316E+002
  0
ARC
  8
MED-1
  6
CONTINUOUS
 62
40
 10
-7.05317E+001
 20
-6.6159789E+001
 40
3.9562363E-001
 50
2.4392306E+002
 51
2.598738E+002
  0
ARC
  8
MED-1
  6
CONTINUOUS
 62
40
 10
-7.033274E+001
 20
-6.5630495E+001
 40
9.5718956E-001
 50
2.5370837E+002
 51
2.6228932E+002
  0
LINE
  8
MED-1
  6
CONTINUOUS
 62
40
 10
1.5896801E+002
 20
-6.657903E+001
 11
1.5902883E+002
 21
-6.657547E+001
  0
ARC
  8
MED-1
  6
CONTINUOUS
 62
40
 10
1.5897605E+002
 20
-6.6129279E+001
 40
4.4930259E-001
 50
2.7674702E+002
 51
2.8469242E+002
  0
ARC
  8
MED-1
  6
CONTINUOUS
 62
40
 10
1.5895859E+002
 20
-6.6045312E+001
 40
5.3496932E-001
 50
2.8421975E+002
 51
2.9116929E+002
  0
ARC
  8
MED-1
  6
CONTINUOUS
 62
40
 10
1.5894831E+002
 20
-6.6041092E+001
 40
5.4267865E-001
 50
2.9202117E+002
 51
2.9912816E+002
  0
ARC
  8
MED-1
  6
CONTINUOUS
 62
40
 10
1.5898866E+002
 20
-6.6127568E+001
 40
4.4754941E-001
 50
3.0000437E+002
 51
3.0890819E+002
  0
ARC
  8
MED-1
  6
CONTINUOUS
 62
40
 10
1.5896328E+002
 20
-6.6056874E+001
 40
5.1908367E-001
 50
3.0618586E+002
 51
3.1363204E+002
  0
ARC
  8
MED-1
  6
CONTINUOUS
 62
40
 10
1.586758E+002
 20
-6.5748516E+001
 40
9.4065153E-001
 50
3.1334588E+002
 51
3.1717041E+002
  0
ARC
  8
MED-1
  6
CONTINUOUS
 62
40
 10
1.5899583E+002
 20
-6.6123984E+001
 40
4.5438653E-001
 50
3.2447801E+002
 51
3.3394308E+002
  0
ARC
  8
MED-1
  6
CONTINUOUS
 62
40
 10
1.5904874E+002
 20
-6.6149611E+001
 40
3.9559795E-001
 50
3.3391124E+002
 51
3.4986254E+002
  0
ARC
  8
MED-1
  6
CONTINUOUS
 62
40
 10
1.5851949E+002
 20
-6.5950672E+001
 40
9.5712931E-001
 50
3.4370413E+002
 51
3.5228574E+002
  0
LINE
  8
MED-1
  6
CONTINUOUS
 62
40
 10
1.5946795E+002
 20
-4.9994E-001
 11
1.5946439E+002
 21
-4.3912E-001
  0
ARC
  8
MED-1
  6
CONTINUOUS
 62
40
 10
1.5901822E+002
 20
-4.9197417E-001
 40
4.492921E-001
 50
6.7558493
 51
1.4701679E+001
  0
ARC
  8
MED-1
  6
CONTINUOUS
 62
40
 10
1.5893424E+002
 20
-5.0935622E-001
 40
5.3495471E-001
 50
1.4219653E+001
 51
2.1169383E+001
  0
ARC
  8
MED-1
  6
CONTINUOUS
 62
40
 10
1.5893E+002
 20
-5.1980765E-001
 40
5.4274776E-001
 50
2.2036526E+001
 51
2.9143529E+001
  0
ARC
  8
MED-1
  6
CONTINUOUS
 62
40
 10
1.5901651E+002
 20
-4.7930658E-001
 40
4.4750913E-001
 50
3.0009168E+001
 51
3.8912731E+001
  0
ARC
  8
MED-1
  6
CONTINUOUS
 62
40
 10
1.5894566E+002
 20
-5.0477209E-001
 40
5.1922302E-001
 50
3.6187151E+001
 51
4.3632885E+001
  0
ARC
  8
MED-1
  6
CONTINUOUS
 62
40
 10
1.586375E+002
 20
-7.9220978E-001
 40
9.4061749E-001
 50
4.3352505E+001
 51
4.7176753E+001
  0
ARC
  8
MED-1
  6
CONTINUOUS
 62
40
 10
1.5901279E+002
 20
-4.7216165E-001
 40
4.5445796E-001
 50
5.4471867E+001
 51
6.3936095E+001
  0
ARC
  8
MED-1
  6
CONTINUOUS
 62
40
 10
1.5903848E+002
 20
-4.192884E-001
 40
3.9567463E-001
 50
6.3913721E+001
 51
7.98633E+001
  0
ARC
  8
MED-1
  6
CONTINUOUS
 62
40
 10
1.5883952E+002
 20
-9.4863144E-001
 40
9.5729426E-001
 50
7.3705405E+001
 51
8.2286124E+001
  0
LINE
  8
MED-1
  6
CONTINUOUS
 62
40
 10
-7.0461167E+001
 20
0.0
 11
-7.0521987E+001
 21
-3.56E-003
  0
ARC
  8
MED-1
  6
CONTINUOUS
 62
40
 10
-7.0469128E+001
 20
-4.4975525E-001
 40
4.4931529E-001
 50
9.6756055E+001
 51
1.0470147E+002
  0
ARC
  8
MED-1
  6
CONTINUOUS
 62
40
 10
-7.0451744E+001
 20
-5.3373668E-001
 40
5.3497814E-001
 50
1.0421981E+002
 51
1.1116923E+002
  0
ARC
  8
MED-1
  6
CONTINUOUS
 62
40
 10
-7.0441286E+001
 20
-5.3789326E-001
 40
5.426933E-001
 50
1.1204032E+002
 51
1.1914709E+002
  0
ARC
  8
MED-1
  6
CONTINUOUS
 62
40
 10
-7.048179E+001
 20
-4.5151005E-001
 40
4.4757115E-001
 50
1.2000459E+002
 51
1.2890798E+002
  0
ARC
  8
MED-1
  6
CONTINUOUS
 62
40
 10
-7.0456334E+001
 20
-5.2229219E-001
 40
5.192244E-001
 50
1.2618716E+002
 51
1.3363287E+002
  0
ARC
  8
MED-1
  6
CONTINUOUS
 62
40
 10
-7.0168903E+001
 20
-8.3044891E-001
 40
9.4060977E-001
 50
1.3335249E+002
 51
1.3717677E+002
  0
ARC
  8
MED-1
  6
CONTINUOUS
 62
40
 10
-7.0488953E+001
 20
-4.551624E-001
 40
4.5444957E-001
 50
1.4447178E+002
 51
1.5393618E+002
  0
ARC
  8
MED-1
  6
CONTINUOUS
 62
40
 10
-7.0541829E+001
 20
-4.2943692E-001
 40
3.956473E-001
 50
1.5391835E+002
 51
1.6986859E+002
  0
ARC
  8
MED-1
  6
CONTINUOUS
 62
40
 10
-7.0012516E+001
 20
-6.2842315E-001
 40
9.5724245E-001
 50
1.6370517E+002
 51
1.7228636E+002
  0
LINE
  8
MED-1
  6
CONTINUOUS
 62
40
 10
7.1384983E+001
 20
4.1514E-001
 11
7.1385043E+001
 21
7.8546E-001
  0
LINE
  8
MED-1
  6
CONTINUOUS
 62
40
 10
9.6121843E+001
 20
4.1514E-001
 11
9.6022703E+001
 21
3.8571E-001
  0
ARC
  8
MED-1
  6
CONTINUOUS
 62
40
 10
9.5813696E+001
 20
6.1521091E-001
 40
3.1041018E-001
 50
2.367329E+002
 51
3.1232416E+002
  0
ARC
  8
MED-1
  6
CONTINUOUS
 62
40
 10
9.4773131E+001
 20
1.1931742E+001
 40
1.160874E+001
 50
2.7100006E+002
 51
2.7429942E+002
  0
ARC
  8
MED-1
  6
CONTINUOUS
 62
40
 10
9.2949642E+001
 20
4.947574E+001
 40
4.9192713E+001
 50
2.712331E+002
 51
2.7236051E+002
  0
ARC
  8
MED-1
  6
CONTINUOUS
 62
40
 10
9.1007647E+001
 20
1.0893422E+002
 40
1.0868123E+002
 50
2.7089775E+002
 51
2.715821E+002
  0
ARC
  8
MED-1
  6
CONTINUOUS
 62
40
 10
8.8633943E+001
 20
2.1214729E+002
 40
2.1192017E+002
 50
2.7067467E+002
 51
2.7110222E+002
  0
ARC
  8
MED-1
  6
CONTINUOUS
 62
40
 10
8.6568591E+001
 20
3.4132809E+002
 40
3.4111677E+002
 50
2.7045991E+002
 51
2.7076606E+002
  0
ARC
  8
MED-1
  6
CONTINUOUS
 62
40
 10
8.4947461E+001
 20
4.8066856E+002
 40
4.8046603E+002
 50
2.7028457E+002
 51
2.7051985E+002
  0
ARC
  8
MED-1
  6
CONTINUOUS
 62
40
 10
8.4178968E+001
 20
5.8612779E+002
 40
5.8592782E+002
 50
2.7010915E+002
 51
2.703085E+002
  0
ARC
  8
MED-1
  6
CONTINUOUS
 62
40
 10
8.3746647E+001
 20
6.5623402E+002
 40
6.5603481E+002
 50
2.6995904E+002
 51
2.7013524E+002
  0
ARC
  8
MED-1
  6
CONTINUOUS
 62
40
 10
8.3705336E+001
 20
7.04666E+002
 40
7.0446676E+002
 50
2.698096E+002
 51
2.6996522E+002
  0
ARC
  8
MED-1
  6
CONTINUOUS
 62
40
 10
8.3560333E+001
 20
6.3024E+002
 40
6.300407E+002
 50
2.6964057E+002
 51
2.6980029E+002
  0
ARC
  8
MED-1
  6
CONTINUOUS
 62
40
 10
8.28231E+001
 20
4.8759853E+002
 40
4.8739744E+002
 50
2.694391E+002
 51
2.6962204E+002
  0
ARC
  8
MED-1
  6
CONTINUOUS
 62
40
 10
8.2193198E+001
 20
4.8745752E+002
 40
4.8725067E+002
 50
2.6934746E+002
 51
2.6951301E+002
  0
ARC
  8
MED-1
  6
CONTINUOUS
 62
40
 10
1.0536985E+002
 20
2.5993318E+003
 40
2.599252E+003
 50
2.6933774E+002
 51
2.6936678E+002
  0
ARC
  8
MED-1
  6
CONTINUOUS
 62
40
 10
8.0897765E+001
 20
2.846965E+002
 40
2.8449771E+002
 50
2.6861783E+002
 51
2.6887801E+002
  0
ARC
  8
MED-1
  6
CONTINUOUS
 62
40
 10
7.6657504E+001
 20
7.9041015E+001
 40
7.8803083E+001
 50
2.67135E+002
 51
2.6809315E+002
  0
ARC
  8
MED-1
  6
CONTINUOUS
 62
40
 10
7.6101403E+001
 20
6.8994499E+001
 40
6.874135E+001
 50
2.6606578E+002
 51
2.6717939E+002
  0
LINE
  8
MED-1
  6
CONTINUOUS
 62
40
 10
9.6121793E+001
 20
7.8546E-001
 11
9.6121843E+001
 21
4.1514E-001
  0
LINE
  8
MED-1
  6
CONTINUOUS
 62
40
 10
7.1385043E+001
 20
7.8546E-001
 11
9.6121793E+001
 21
7.8546E-001
  0
LINE
  8
3
  6
CENTERLINE
 62
1
 10
4.7752893E+001
 20
4.1864092E+001
 11
4.7752893E+001
 21
1.0157428E+001
  0
LINE
  8
3
  6
CENTERLINE
 62
1
 10
4.753423
 20
-5.5262384E+001
 11
4.753423
 21
2.1186104E+001
  0
CIRCLE
  8
MED-1
  6
CONTINUOUS
 62
40
 10
2.6753423E+001
 20
-8.36454
 40
2.5
  0
CIRCLE
  8
MED-1
  6
CONTINUOUS
 62
40
 10
2.6753423E+001
 20
-5.336454E+001
 40
2.5
  0
CIRCLE
  8
MED-1
  6
CONTINUOUS
 62
40
 10
7.6753423E+001
 20
-5.336454E+001
 40
2.5
  0
CIRCLE
  8
MED-1
  6
CONTINUOUS
 62
40
 10
7.6753423E+001
 20
-8.36454
 40
2.5
  0
CIRCLE
  8
MED-1
  6
CONTINUOUS
 62
40
 10
1.2675342E+002
 20
-8.36454
 40
2.5
  0
CIRCLE
  8
MED-1
  6
CONTINUOUS
 62
40
 10
1.2675342E+002
 20
-5.336454E+001
 40
2.5
  0
LINE
  8
3
  6
CENTERLINE
 62
1
 10
3.1253423E+001
 20
-8.36454
 11
2.2253423E+001
 21
-8.36454
  0
LINE
  8
3
  6
CENTERLINE
 62
1
 10
2.6753423E+001
 20
-1.286454E+001
 11
2.6753423E+001
 21
-3.86454
  0
LINE
  8
3
  6
CENTERLINE
 62
1
 10
8.1253423E+001
 20
-8.36454
 11
7.2253423E+001
 21
-8.36454
  0
LINE
  8
3
  6
CENTERLINE
 62
1
 10
7.6753423E+001
 20
-1.286454E+001
 11
7.6753423E+001
 21
-3.86454
  0
LINE
  8
3
  6
CENTERLINE
 62
1
 10
1.3125342E+002
 20
-8.36454
 11
1.2225342E+002
 21
-8.36454
  0
LINE
  8
3
  6
CENTERLINE
 62
1
 10
1.2675342E+002
 20
-1.286454E+001
 11
1.2675342E+002
 21
-3.86454
  0
LINE
  8
3
  6
CENTERLINE
 62
1
 10
1.3125342E+002
 20
-5.336454E+001
 11
1.2225342E+002
 21
-5.336454E+001
  0
LINE
  8
3
  6
CENTERLINE
 62
1
 10
1.2675342E+002
 20
-5.786454E+001
 11
1.2675342E+002
 21
-4.886454E+001
  0
LINE
  8
3
  6
CENTERLINE
 62
1
 10
8.1253423E+001
 20
-5.336454E+001
 11
7.2253423E+001
 21
-5.336454E+001
  0
LINE
  8
3
  6
CENTERLINE
 62
1
 10
7.6753423E+001
 20
-5.786454E+001
 11
7.6753423E+001
 21
-4.886454E+001
  0
LINE
  8
3
  6
CENTERLINE
 62
1
 10
3.1253423E+001
 20
-5.336454E+001
 11
2.2253423E+001
 21
-5.336454E+001
  0
LINE
  8
3
  6
CENTERLINE
 62
1
 10
2.6753423E+001
 20
-5.786454E+001
 11
2.6753423E+001
 21
-4.886454E+001
  0
LINE
  8
106
  6
CENTERLINE
 62
1
 10
8.3502893E+001
 20
2.963546E+001
 11
6.5111903E+001
 21
2.963546E+001
  0
LINE
  8
106
  6
CENTERLINE
 62
1
 10
7.8252893E+001
 20
2.438546E+001
 11
7.8252893E+001
 21
3.488546E+001
  0
LINE
  8
106
  6
CENTERLINE
 62
1
 10
3.8502893E+001
 20
2.963546E+001
 11
2.8002893E+001
 21
2.963546E+001
  0
LINE
  8
106
  6
CENTERLINE
 62
1
 10
3.3252893E+001
 20
2.438546E+001
 11
3.3252893E+001
 21
3.488546E+001
  0
POINT
  8
Drafting_Hidden_Entities
  6
CONTINUOUS
 62
1
 10
0.0
 20
0.0
  0
ENDBLK
  0
BLOCK
  2
2NEW02
 10
0.0
 20
0.0
 70
0
  0
LINE
  8
106
  6
CENTERLINE
 62
1
 10
1.5572796E+002
 20
3.113548E+001
 11
1.4397796E+002
 21
3.113548E+001
  0
LINE
  8
MED-1
  6
CONTINUOUS
 62
40
 10
8.672849E+001
 20
2.81643
 11
8.672849E+001
 21
1.613549E+001
  0
LINE
  8
MED-1
  6
CONTINUOUS
 62
40
 10
6.489242E+001
 20
1.613548E+001
 11
6.472849E+001
 21
1.613548E+001
  0
LINE
  8
MED-1
  6
CONTINUOUS
 62
40
 10
6.513614E+001
 20
1.613549E+001
 11
6.489242E+001
 21
1.613548E+001
  0
LINE
  8
MED-1
  6
CONTINUOUS
 62
40
 10
6.472849E+001
 20
1.613548E+001
 11
6.472849E+001
 21
2.81643
  0
LINE
  8
MED-1
  6
CONTINUOUS
 62
40
 10
6.513614E+001
 20
2.213548E+001
 11
6.513614E+001
 21
1.613549E+001
  0
LINE
  8
MED-1
  6
CONTINUOUS
 62
40
 10
1.2931394E+002
 20
2.213548E+001
 11
1.2931394E+002
 21
1.613548E+001
  0
LINE
  8
MED-1
  6
CONTINUOUS
 62
40
 10
6.513614E+001
 20
2.213548E+001
 11
1.0764816E+002
 21
2.213548E+001
  0
LINE
  8
MED-1
  6
CONTINUOUS
 62
40
 10
1.0764816E+002
 20
1.613548E+001
 11
6.513614E+001
 21
1.613549E+001
  0
LINE
  8
MED-1
  6
CONTINUOUS
 62
40
 10
1.0764816E+002
 20
1.613548E+001
 11
1.0764816E+002
 21
2.213548E+001
  0
LINE
  8
MED-1
  6
CONTINUOUS
 62
40
 10
1.0764816E+002
 20
2.213548E+001
 11
1.0894118E+002
 21
2.213548E+001
  0
LINE
  8
MED-1
  6
CONTINUOUS
 62
40
 10
1.0894118E+002
 20
1.613548E+001
 11
1.0764816E+002
 21
1.613548E+001
  0
LINE
  8
MED-1
  6
CONTINUOUS
 62
40
 10
1.0894118E+002
 20
2.213548E+001
 11
1.2931394E+002
 21
2.213548E+001
  0
LINE
  8
MED-1
  6
CONTINUOUS
 62
40
 10
1.2931394E+002
 20
1.613548E+001
 11
1.0894118E+002
 21
1.613548E+001
  0
LINE
  8
MED-1
  6
CONTINUOUS
 62
40
 10
1.1372795E+002
 20
2.513549E+001
 11
1.1372795E+002
 21
2.213546E+001
  0
LINE
  8
MED-1
  6
CONTINUOUS
 62
40
 10
1.2372794E+002
 20
2.213546E+001
 11
1.2372794E+002
 21
2.513549E+001
  0
ARC
  8
MED-1
  6
CONTINUOUS
 62
40
 10
1.1872796E+002
 20
3.027762E+001
 40
1.5E+001
 50
2.7E+002
 51
2.8947122E+002
  0
ARC
  8
MED-1
  6
CONTINUOUS
 62
40
 10
1.1872796E+002
 20
3.027762E+001
 40
1.5E+001
 50
2.5052878E+002
 51
2.7E+002
  0
LINE
  8
MED-1
  6
CONTINUOUS
 62
40
 10
1.2872796E+002
 20
3.683548E+001
 11
1.2872796E+002
 21
3.113551E+001
  0
LINE
  8
MED-1
  6
CONTINUOUS
 62
40
 10
1.0872796E+002
 20
3.103548E+001
 11
1.0872796E+002
 21
3.683548E+001
  0
ARC
  8
MED-1
  6
CONTINUOUS
 62
40
 10
1.1102796E+002
 20
3.683548E+001
 40
2.3
 50
9.0E+001
 51
1.8E+002
  0
ARC
  8
MED-1
  6
CONTINUOUS
 62
40
 10
1.2642796E+002
 20
3.683548E+001
 40
2.3000001
 50
0.0
 51
9.0E+001
  0
LINE
  8
MED-1
  6
CONTINUOUS
 62
40
 10
1.1102796E+002
 20
3.913548E+001
 11
1.2642796E+002
 21
3.913548E+001
  0
LINE
  8
MED-1
  6
CONTINUOUS
 62
40
 10
1.0872796E+002
 20
3.103548E+001
 11
1.2872796E+002
 21
3.103548E+001
  0
LINE
  8
MED-1
  6
CONTINUOUS
 62
40
 10
1.2872796E+002
 20
3.683548E+001
 11
1.0872796E+002
 21
3.683548E+001
  0
LINE
  8
MED-1
  6
CONTINUOUS
 62
40
 10
1.2872796E+002
 20
3.113551E+001
 11
1.0872796E+002
 21
3.113548E+001
  0
LINE
  8
MED-1
  6
CONTINUOUS
 62
40
 10
1.0972796E+002
 20
2.513548E+001
 11
1.2772796E+002
 21
2.513548E+001
  0
LINE
  8
MED-1
  6
CONTINUOUS
 62
40
 10
1.2459226E+002
 20
3.923548E+001
 11
1.1286366E+002
 21
3.923548E+001
  0
LINE
  8
MED-1
  6
CONTINUOUS
 62
40
 10
1.2872796E+002
 20
2.613548E+001
 11
1.2772796E+002
 21
2.513548E+001
  0
LINE
  8
MED-1
  6
CONTINUOUS
 62
40
 10
1.0872798E+002
 20
2.613548E+001
 11
1.0972796E+002
 21
2.513548E+001
  0
LINE
  8
MED-1
  6
CONTINUOUS
 62
40
 10
1.2872796E+002
 20
2.613548E+001
 11
1.0872798E+002
 21
2.613548E+001
  0
LINE
  8
MED-1
  6
CONTINUOUS
 62
40
 10
1.2872796E+002
 20
3.113551E+001
 11
1.2872796E+002
 21
2.613548E+001
  0
LINE
  8
MED-1
  6
CONTINUOUS
 62
40
 10
1.0872796E+002
 20
3.103548E+001
 11
1.0872798E+002
 21
2.613548E+001
  0
ARC
  8
MED-1
  6
CONTINUOUS
 62
40
 10
1.1872796E+002
 20
3.113548E+001
 40
1.0E+001
 50
5.4095932E+001
 51
9.0E+001
  0
ARC
  8
MED-1
  6
CONTINUOUS
 62
40
 10
1.1872796E+002
 20
3.113548E+001
 40
1.0E+001
 50
9.0E+001
 51
1.2590407E+002
  0
LINE
  8
MED-1
  6
CONTINUOUS
 62
40
 10
1.1472794E+002
 20
3.923546E+001
 11
1.1472796E+002
 21
3.913548E+001
  0
LINE
  8
MED-1
  6
CONTINUOUS
 62
40
 10
1.2272795E+002
 20
3.923546E+001
 11
1.2272796E+002
 21
3.913548E+001
  0
LINE
  8
MED-1
  6
CONTINUOUS
 62
40
 10
1.5572796E+002
 20
2.513548E+001
 11
1.5572796E+002
 21
2.313548E+001
  0
LINE
  8
MED-1
  6
CONTINUOUS
 62
40
 10
1.5572796E+002
 20
3.913548E+001
 11
1.5572796E+002
 21
3.713548E+001
  0
LINE
  8
MED-1
  6
CONTINUOUS
 62
40
 10
1.5572796E+002
 20
3.713548E+001
 11
1.5572796E+002
 21
2.513548E+001
  0
LINE
  8
MED-1
  6
CONTINUOUS
 62
40
 10
9.772796E+001
 20
2.313548E+001
 11
9.772796E+001
 21
2.513548E+001
  0
LINE
  8
MED-1
  6
CONTINUOUS
 62
40
 10
9.772796E+001
 20
2.513548E+001
 11
9.772796E+001
 21
3.713548E+001
  0
LINE
  8
MED-1
  6
CONTINUOUS
 62
40
 10
9.772796E+001
 20
3.713548E+001
 11
9.772796E+001
 21
3.913548E+001
  0
LINE
  8
MED-1
  6
CONTINUOUS
 62
40
 10
1.5475947E+002
 20
3.913548E+001
 11
1.5572796E+002
 21
3.913548E+001
  0
LINE
  8
MED-1
  6
CONTINUOUS
 62
40
 10
9.772796E+001
 20
3.913548E+001
 11
9.834565E+001
 21
3.913548E+001
  0
LINE
  8
MED-1
  6
CONTINUOUS
 62
40
 10
9.834565E+001
 20
3.913548E+001
 11
1.1431643E+002
 21
3.913548E+001
  0
LINE
  8
MED-1
  6
CONTINUOUS
 62
40
 10
1.1431643E+002
 20
4.013548E+001
 11
1.1436906E+002
 21
4.013548E+001
  0
LINE
  8
MED-1
  6
CONTINUOUS
 62
40
 10
1.2308686E+002
 20
3.913548E+001
 11
1.5475947E+002
 21
3.913548E+001
  0
LINE
  8
MED-1
  6
CONTINUOUS
 62
40
 10
1.5572796E+002
 20
2.313548E+001
 11
1.5475947E+002
 21
2.313548E+001
  0
LINE
  8
MED-1
  6
CONTINUOUS
 62
40
 10
1.5475947E+002
 20
2.313548E+001
 11
1.2372796E+002
 21
2.313548E+001
  0
LINE
  8
MED-1
  6
CONTINUOUS
 62
40
 10
1.1372796E+002
 20
2.313548E+001
 11
9.834565E+001
 21
2.313548E+001
  0
LINE
  8
MED-1
  6
CONTINUOUS
 62
40
 10
9.834565E+001
 20
2.313548E+001
 11
9.772796E+001
 21
2.313548E+001
  0
LINE
  8
MED-1
  6
CONTINUOUS
 62
40
 10
1.5475947E+002
 20
2.513548E+001
 11
1.5572796E+002
 21
2.513548E+001
  0
LINE
  8
MED-1
  6
CONTINUOUS
 62
40
 10
9.772796E+001
 20
2.513548E+001
 11
9.834565E+001
 21
2.513548E+001
  0
LINE
  8
MED-1
  6
CONTINUOUS
 62
40
 10
9.834565E+001
 20
2.513548E+001
 11
1.0872798E+002
 21
2.513548E+001
  0
LINE
  8
MED-1
  6
CONTINUOUS
 62
40
 10
1.2872796E+002
 20
2.513548E+001
 11
1.5475947E+002
 21
2.513548E+001
  0
LINE
  8
MED-1
  6
CONTINUOUS
 62
40
 10
1.5572796E+002
 20
3.713548E+001
 11
1.5475947E+002
 21
3.713548E+001
  0
LINE
  8
MED-1
  6
CONTINUOUS
 62
40
 10
1.5475947E+002
 20
3.713548E+001
 11
1.2826867E+002
 21
3.713546E+001
  0
LINE
  8
MED-1
  6
CONTINUOUS
 62
40
 10
1.0918722E+002
 20
3.713546E+001
 11
9.834565E+001
 21
3.713548E+001
  0
LINE
  8
MED-1
  6
CONTINUOUS
 62
40
 10
9.834565E+001
 20
3.713548E+001
 11
9.772796E+001
 21
3.713548E+001
  0
LINE
  8
MED-1
  6
CONTINUOUS
 62
40
 10
1.4022796E+002
 20
3.413548E+001
 11
1.4621756E+002
 21
3.413548E+001
  0
ARC
  8
MED-1
  6
CONTINUOUS
 62
40
 10
1.4022796E+002
 20
3.113548E+001
 40
3.0000001
 50
9.0E+001
 51
2.7E+002
  0
LINE
  8
MED-1
  6
CONTINUOUS
 62
40
 10
1.4621756E+002
 20
2.813548E+001
 11
1.4022796E+002
 21
2.813548E+001
  0
ARC
  8
MED-1
  6
CONTINUOUS
 62
40
 10
1.1872796E+002
 20
3.555215E+001
 40
6.0833333
 50
5.6898288E+001
 51
9.0E+001
  0
ARC
  8
MED-1
  6
CONTINUOUS
 62
40
 10
1.1872796E+002
 20
3.555215E+001
 40
6.0833333
 50
9.0E+001
 51
1.2310337E+002
  0
CIRCLE
  8
MED-1
  6
CONTINUOUS
 62
40
 10
1.0422796E+002
 20
3.113548E+001
 40
4.25
  0
LINE
  8
MED-1
  6
CONTINUOUS
 62
40
 10
1.0497798E+002
 20
3.338545E+001
 11
1.0497798E+002
 21
3.188546E+001
  0
LINE
  8
MED-1
  6
CONTINUOUS
 62
40
 10
1.0347793E+002
 20
3.338545E+001
 11
1.0497798E+002
 21
3.338545E+001
  0
LINE
  8
MED-1
  6
CONTINUOUS
 62
40
 10
1.0347793E+002
 20
3.188546E+001
 11
1.0347793E+002
 21
3.338545E+001
  0
LINE
  8
MED-1
  6
CONTINUOUS
 62
40
 10
1.0197794E+002
 20
3.188546E+001
 11
1.0347793E+002
 21
3.188546E+001
  0
LINE
  8
MED-1
  6
CONTINUOUS
 62
40
 10
1.0197794E+002
 20
3.038547E+001
 11
1.0197794E+002
 21
3.188546E+001
  0
LINE
  8
MED-1
  6
CONTINUOUS
 62
40
 10
1.0347793E+002
 20
3.038547E+001
 11
1.0197794E+002
 21
3.038547E+001
  0
LINE
  8
MED-1
  6
CONTINUOUS
 62
40
 10
1.0347793E+002
 20
2.888548E+001
 11
1.0347793E+002
 21
3.038547E+001
  0
LINE
  8
MED-1
  6
CONTINUOUS
 62
40
 10
1.0497798E+002
 20
2.888548E+001
 11
1.0347793E+002
 21
2.888548E+001
  0
LINE
  8
MED-1
  6
CONTINUOUS
 62
40
 10
1.0497798E+002
 20
3.038547E+001
 11
1.0497798E+002
 21
2.888548E+001
  0
LINE
  8
MED-1
  6
CONTINUOUS
 62
40
 10
1.0647797E+002
 20
3.038547E+001
 11
1.0497798E+002
 21
3.038547E+001
  0
LINE
  8
MED-1
  6
CONTINUOUS
 62
40
 10
1.0647797E+002
 20
3.188546E+001
 11
1.0647797E+002
 21
3.038547E+001
  0
LINE
  8
MED-1
  6
CONTINUOUS
 62
40
 10
1.0497798E+002
 20
3.188546E+001
 11
1.0647797E+002
 21
3.188546E+001
  0
CIRCLE
  8
MED-1
  6
CONTINUOUS
 62
40
 10
1.4922796E+002
 20
3.113548E+001
 40
4.25
  0
LINE
  8
MED-1
  6
CONTINUOUS
 62
40
 10
1.4997796E+002
 20
3.338545E+001
 11
1.4997796E+002
 21
3.188546E+001
  0
LINE
  8
MED-1
  6
CONTINUOUS
 62
40
 10
1.4847797E+002
 20
3.338545E+001
 11
1.4997796E+002
 21
3.338545E+001
  0
LINE
  8
MED-1
  6
CONTINUOUS
 62
40
 10
1.4847797E+002
 20
3.188546E+001
 11
1.4847797E+002
 21
3.338545E+001
  0
LINE
  8
MED-1
  6
CONTINUOUS
 62
40
 10
1.4697798E+002
 20
3.188546E+001
 11
1.4847797E+002
 21
3.188546E+001
  0
LINE
  8
MED-1
  6
CONTINUOUS
 62
40
 10
1.4697798E+002
 20
3.038547E+001
 11
1.4697798E+002
 21
3.188546E+001
  0
LINE
  8
MED-1
  6
CONTINUOUS
 62
40
 10
1.4847797E+002
 20
3.038547E+001
 11
1.4697798E+002
 21
3.038547E+001
  0
LINE
  8
MED-1
  6
CONTINUOUS
 62
40
 10
1.4847797E+002
 20
2.888548E+001
 11
1.4847797E+002
 21
3.038547E+001
  0
LINE
  8
MED-1
  6
CONTINUOUS
 62
40
 10
1.4997796E+002
 20
2.888548E+001
 11
1.4847797E+002
 21
2.888548E+001
  0
LINE
  8
MED-1
  6
CONTINUOUS
 62
40
 10
1.4997796E+002
 20
3.038547E+001
 11
1.4997796E+002
 21
2.888548E+001
  0
LINE
  8
MED-1
  6
CONTINUOUS
 62
40
 10
1.5147795E+002
 20
3.038547E+001
 11
1.4997796E+002
 21
3.038547E+001
  0
LINE
  8
MED-1
  6
CONTINUOUS
 62
40
 10
1.5147795E+002
 20
3.188546E+001
 11
1.5147795E+002
 21
3.038547E+001
  0
LINE
  8
MED-1
  6
CONTINUOUS
 62
40
 10
1.4997796E+002
 20
3.188546E+001
 11
1.5147795E+002
 21
3.188546E+001
  0
LINE
  8
MED-1
  6
CONTINUOUS
 62
40
 10
1.397E-002
 20
-6.157904E+001
 11
0.0
 21
-6.157904E+001
  0
LINE
  8
MED-1
  6
CONTINUOUS
 62
40
 10
2.3045698E+002
 20
-6.157904E+001
 11
2.3044301E+002
 21
-6.157904E+001
  0
LINE
  8
MED-1
  6
CONTINUOUS
 62
40
 10
2.3044301E+002
 20
-6.157904E+001
 11
1.397E-002
 21
-6.157904E+001
  0
LINE
  8
MED-1
  6
CONTINUOUS
 62
40
 10
0.0
 20
0.0
 11
1.397E-002
 21
0.0
  0
LINE
  8
MED-1
  6
CONTINUOUS
 62
40
 10
1.397E-002
 20
0.0
 11
2.3044301E+002
 21
0.0
  0
LINE
  8
MED-1
  6
CONTINUOUS
 62
40
 10
2.3044301E+002
 20
0.0
 11
2.3045698E+002
 21
0.0
  0
LINE
  8
MED-1
  6
CONTINUOUS
 62
40
 10
1.6709686E+002
 20
3.28548
 11
2.3072854E+002
 21
3.28548
  0
LINE
  8
MED-1
  6
CONTINUOUS
 62
40
 10
8.809688E+001
 20
3.28548
 11
1.4236011E+002
 21
3.28548
  0
LINE
  8
MED-1
  6
CONTINUOUS
 62
40
 10
8.809688E+001
 20
3.28548
 11
8.809693E+001
 21
2.91516
  0
LINE
  8
MED-1
  6
CONTINUOUS
 62
40
 10
8.809693E+001
 20
2.91516
 11
8.799779E+001
 21
2.88573
  0
ARC
  8
MED-1
  6
CONTINUOUS
 62
40
 10
8.7788782E+001
 20
3.1152455
 40
3.104217E-001
 50
2.3673455E+002
 51
3.1232251E+002
  0
ARC
  8
MED-1
  6
CONTINUOUS
 62
40
 10
8.6748208E+001
 20
1.4432047E+001
 40
1.1609025E+001
 50
2.7100003E+002
 51
2.7429937E+002
  0
ARC
  8
MED-1
  6
CONTINUOUS
 62
40
 10
8.4924711E+001
 20
5.1976041E+001
 40
4.9192994E+001
 50
2.7123311E+002
 51
2.7236051E+002
  0
ARC
  8
MED-1
  6
CONTINUOUS
 62
40
 10
8.2982715E+001
 20
1.1143468E+002
 40
1.0868167E+002
 50
2.7089775E+002
 51
2.715821E+002
  0
ARC
  8
MED-1
  6
CONTINUOUS
 62
40
 10
8.060901E+001
 20
2.1464793E+002
 40
2.119208E+002
 50
2.7067467E+002
 51
2.7110222E+002
  0
ARC
  8
MED-1
  6
CONTINUOUS
 62
40
 10
7.8543655E+001
 20
3.4383075E+002
 40
3.4111941E+002
 50
2.7045991E+002
 51
2.7076606E+002
  0
ARC
  8
MED-1
  6
CONTINUOUS
 62
40
 10
7.6922522E+001
 20
4.8316942E+002
 40
4.8046687E+002
 50
2.7028457E+002
 51
2.7051985E+002
  0
ARC
  8
MED-1
  6
CONTINUOUS
 62
40
 10
7.6154032E+001
 20
5.8862862E+002
 40
5.8592863E+002
 50
2.7010915E+002
 51
2.703085E+002
  0
ARC
  8
MED-1
  6
CONTINUOUS
 62
40
 10
7.5721714E+001
 20
6.5873472E+002
 40
6.560355E+002
 50
2.6995905E+002
 51
2.7013524E+002
  0
ARC
  8
MED-1
  6
CONTINUOUS
 62
40
 10
7.5680404E+001
 20
7.0716644E+002
 40
7.0446718E+002
 50
2.698096E+002
 51
2.6996522E+002
  0
ARC
  8
MED-1
  6
CONTINUOUS
 62
40
 10
7.55354E+001
 20
6.327402E+002
 40
6.3004088E+002
 50
2.6964057E+002
 51
2.6980029E+002
  0
ARC
  8
MED-1
  6
CONTINUOUS
 62
40
 10
7.4798167E+001
 20
4.9009855E+002
 40
4.8739744E+002
 50
2.694391E+002
 51
2.6962204E+002
  0
ARC
  8
MED-1
  6
CONTINUOUS
 62
40
 10
7.4168263E+001
 20
4.8995734E+002
 40
4.8725047E+002
 50
2.6934746E+002
 51
2.6951301E+002
  0
ARC
  8
MED-1
  6
CONTINUOUS
 62
40
 10
9.7344918E+001
 20
2.6018318E+003
 40
2.599252E+003
 50
2.6933774E+002
 51
2.6936678E+002
  0
ARC
  8
MED-1
  6
CONTINUOUS
 62
40
 10
7.287282E+001
 20
2.8719594E+002
 40
2.8449713E+002
 50
2.6861783E+002
 51
2.6887801E+002
  0
ARC
  8
MED-1
  6
CONTINUOUS
 62
40
 10
6.8632557E+001
 20
8.1539998E+001
 40
7.8802046E+001
 50
2.6713498E+002
 51
2.6809313E+002
  0
ARC
  8
MED-1
  6
CONTINUOUS
 62
40
 10
6.8076436E+001
 20
7.149317E+001
 40
6.874E+001
 50
2.6606575E+002
 51
2.6717937E+002
  0
LINE
  8
MED-1
  6
CONTINUOUS
 62
40
 10
6.336007E+001
 20
2.91516
 11
6.336013E+001
 21
3.28548
  0
LINE
  8
MED-1
  6
CONTINUOUS
 62
40
 10
-2.7161E-001
 20
3.28548
 11
6.336013E+001
 21
3.28548
  0
LINE
  8
MED-1
  6
CONTINUOUS
 62
40
 10
2.2994308E+002
 20
2.50002
 11
5.139E-001
 21
2.50002
  0
LINE
  8
MED-1
  6
CONTINUOUS
 62
40
 10
-2.7161E-001
 20
-6.486453E+001
 11
-3.3243E-001
 21
-6.486097E+001
  0
ARC
  8
MED-1
  6
CONTINUOUS
 62
40
 10
-2.7957432E-001
 20
-6.4414888E+001
 40
4.4920245E-001
 50
2.5529644E+002
 51
2.632426E+002
  0
ARC
  8
MED-1
  6
CONTINUOUS
 62
40
 10
-2.6219287E-001
 20
-6.4330844E+001
 40
5.3492486E-001
 50
2.4883042E+002
 51
2.5578054E+002
  0
ARC
  8
MED-1
  6
CONTINUOUS
 62
40
 10
-2.517428E-001
 20
-6.4326686E+001
 40
5.426393E-001
 50
2.4085256E+002
 51
2.4796003E+002
  0
ARC
  8
MED-1
  6
CONTINUOUS
 62
40
 10
-2.9224179E-001
 20
-6.4413118E+001
 40
4.4747677E-001
 50
2.3108695E+002
 51
2.3999115E+002
  0
ARC
  8
MED-1
  6
CONTINUOUS
 62
40
 10
-2.6677737E-001
 20
-6.4342345E+001
 40
5.1912592E-001
 50
2.2636139E+002
 51
2.3380767E+002
  0
ARC
  8
MED-1
  6
CONTINUOUS
 62
40
 10
2.0642694E-002
 20
-6.4034122E+001
 40
9.4055124E-001
 50
2.2282311E+002
 51
2.2664763E+002
  0
ARC
  8
MED-1
  6
CONTINUOUS
 62
40
 10
-2.9937875E-001
 20
-6.4409439E+001
 40
4.5439746E-001
 50
2.0605703E+002
 51
2.1552188E+002
  0
ARC
  8
MED-1
  6
CONTINUOUS
 62
40
 10
-3.5223233E-001
 20
-6.4435093E+001
 40
3.9564703E-001
 50
1.9013141E+002
 51
2.0608165E+002
  0
ARC
  8
MED-1
  6
CONTINUOUS
 62
40
 10
1.7712584E-001
 20
-6.4236165E+001
 40
9.5726956E-001
 50
1.8770992E+002
 51
1.9629073E+002
  0
LINE
  8
MED-1
  6
CONTINUOUS
 62
40
 10
-7.7149E-001
 20
-6.436459E+001
 11
-7.7149E-001
 21
2.78554
  0
LINE
  8
MED-1
  6
CONTINUOUS
 62
40
 10
-7.7149E-001
 20
2.78554
 11
-7.6793E-001
 21
2.84636
  0
ARC
  8
MED-1
  6
CONTINUOUS
 62
40
 10
-3.2172415E-001
 20
2.7935705
 40
4.4931769E-001
 50
1.6530771E+002
 51
1.7325285E+002
  0
ARC
  8
MED-1
  6
CONTINUOUS
 62
40
 10
-2.3767393E-001
 20
2.7761194
 40
5.3506412E-001
 50
1.588335E+002
 51
1.6578283E+002
  0
ARC
  8
MED-1
  6
CONTINUOUS
 62
40
 10
-2.3361537E-001
 20
2.7657517
 40
5.4265444E-001
 50
1.5086057E+002
 51
1.5796738E+002
  0
ARC
  8
MED-1
  6
CONTINUOUS
 62
40
 10
-3.2001631E-001
 20
2.8062454
 40
4.4752097E-001
 50
1.4109869E+002
 51
1.5000235E+002
  0
ARC
  8
MED-1
  6
CONTINUOUS
 62
40
 10
-2.4924944E-001
 20
2.7807351
 40
5.1919627E-001
 50
1.3636692E+002
 51
1.4381304E+002
  0
ARC
  8
MED-1
  6
CONTINUOUS
 62
40
 10
5.8884955E-002
 20
2.4933301
 40
9.4054735E-001
 50
1.328231E+002
 51
1.3664764E+002
  0
ARC
  8
MED-1
  6
CONTINUOUS
 62
40
 10
-3.1638023E-001
 20
2.8134255
 40
4.543632E-001
 50
1.1606737E+002
 51
1.2553249E+002
  0
ARC
  8
MED-1
  6
CONTINUOUS
 62
40
 10
-3.4210883E-001
 20
2.8662806
 40
3.9557882E-001
 50
1.0013234E+002
 51
1.1608396E+002
  0
ARC
  8
MED-1
  6
CONTINUOUS
 62
40
 10
-1.4313789E-001
 20
2.3370414
 40
9.5710019E-001
 50
9.771413E+001
 51
1.0629601E+002
  0
LINE
  8
MED-1
  6
CONTINUOUS
 62
40
 10
2.3072854E+002
 20
3.28548
 11
2.3078936E+002
 21
3.28192
  0
ARC
  8
MED-1
  6
CONTINUOUS
 62
40
 10
2.307365E+002
 20
2.8357356
 40
4.4930426E-001
 50
7.5298429E+001
 51
8.3244043E+001
  0
ARC
  8
MED-1
  6
CONTINUOUS
 62
40
 10
2.3071913E+002
 20
2.7516802
 40
5.350366E-001
 50
6.8833324E+001
 51
7.5783011E+001
  0
ARC
  8
MED-1
  6
CONTINUOUS
 62
40
 10
2.3070876E+002
 20
2.7476152
 40
5.4263251E-001
 50
6.0860424E+001
 51
6.7967527E+001
  0
ARC
  8
MED-1
  6
CONTINUOUS
 62
40
 10
2.3074919E+002
 20
2.8340006
 40
4.4754617E-001
 50
5.1091775E+001
 51
5.9995658E+001
  0
ARC
  8
MED-1
  6
CONTINUOUS
 62
40
 10
2.3072374E+002
 20
2.7632217
 40
5.191933E-001
 50
4.6366902E+001
 51
5.3813062E+001
  0
ARC
  8
MED-1
  6
CONTINUOUS
 62
40
 10
2.3043618E+002
 20
2.4550756
 40
9.4066011E-001
 50
4.2816694E+001
 51
4.6641201E+001
  0
ARC
  8
MED-1
  6
CONTINUOUS
 62
40
 10
2.3075636E+002
 20
2.8303309
 40
4.5442365E-001
 50
2.6063547E+001
 51
3.5528491E+001
  0
ARC
  8
MED-1
  6
CONTINUOUS
 62
40
 10
2.3080923E+002
 20
2.8560483
 40
3.9563068E-001
 50
1.0131076E+001
 51
2.6081983E+001
  0
ARC
  8
MED-1
  6
CONTINUOUS
 62
40
 10
2.3027992E+002
 20
2.6570608
 40
9.5722362E-001
 50
7.7135592
 51
1.6294913E+001
  0
LINE
  8
MED-1
  6
CONTINUOUS
 62
40
 10
2.3122848E+002
 20
-6.436459E+001
 11
2.3122848E+002
 21
2.78554
  0
LINE
  8
MED-1
  6
CONTINUOUS
 62
40
 10
2.3122848E+002
 20
-6.436459E+001
 11
2.3122492E+002
 21
-6.442541E+001
  0
ARC
  8
MED-1
  6
CONTINUOUS
 62
40
 10
2.3077876E+002
 20
-6.4372559E+001
 40
4.4927716E-001
 50
3.4529819E+002
 51
3.5324428E+002
  0
ARC
  8
MED-1
  6
CONTINUOUS
 62
40
 10
2.3069479E+002
 20
-6.4355181E+001
 40
5.3493156E-001
 50
3.3883047E+002
 51
3.457805E+002
  0
ARC
  8
MED-1
  6
CONTINUOUS
 62
40
 10
2.3069055E+002
 20
-6.4344815E+001
 40
5.426857E-001
 50
3.3086397E+002
 51
3.3797133E+002
  0
ARC
  8
MED-1
  6
CONTINUOUS
 62
40
 10
2.3077707E+002
 20
-6.4385237E+001
 40
4.4748482E-001
 50
3.2108703E+002
 51
3.2999107E+002
  0
ARC
  8
MED-1
  6
CONTINUOUS
 62
40
 10
2.3070622E+002
 20
-6.4359776E+001
 40
5.1919486E-001
 50
3.1636691E+002
 51
3.2381305E+002
  0
ARC
  8
MED-1
  6
CONTINUOUS
 62
40
 10
2.3039806E+002
 20
-6.4072205E+001
 40
9.4067538E-001
 50
3.1281672E+002
 51
3.1664117E+002
  0
ARC
  8
MED-1
  6
CONTINUOUS
 62
40
 10
2.3077332E+002
 20
-6.4392387E+001
 40
4.5443659E-001
 50
2.9606368E+002
 51
3.0552836E+002
  0
ARC
  8
MED-1
  6
CONTINUOUS
 62
40
 10
2.3079901E+002
 20
-6.4445252E+001
 40
3.9566329E-001
 50
2.8013647E+002
 51
2.9608651E+002
  0
ARC
  8
MED-1
  6
CONTINUOUS
 62
40
 10
2.3060005E+002
 20
-6.3915904E+001
 40
9.5728873E-001
 50
2.7771385E+002
 51
2.8629462E+002
  0
LINE
  8
MED-1
  6
CONTINUOUS
 62
40
 10
2.3072854E+002
 20
-6.486453E+001
 11
-2.7161E-001
 21
-6.486453E+001
  0
LINE
  8
MED-1
  6
CONTINUOUS
 62
40
 10
0.0
 20
-6.157904E+001
 11
0.0
 21
0.0
  0
LINE
  8
MED-1
  6
CONTINUOUS
 62
40
 10
2.3045698E+002
 20
0.0
 11
2.3045698E+002
 21
-6.157904E+001
  0
LINE
  8
MED-1
  6
CONTINUOUS
 62
40
 10
5.139E-001
 20
-6.407901E+001
 11
2.2994308E+002
 21
-6.407901E+001
  0
LINE
  8
MED-1
  6
CONTINUOUS
 62
40
 10
1.397E-002
 20
-6.157904E+001
 11
1.397E-002
 21
-6.357913E+001
  0
LINE
  8
MED-1
  6
CONTINUOUS
 62
40
 10
1.397E-002
 20
2.00008
 11
1.397E-002
 21
0.0
  0
LINE
  8
MED-1
  6
CONTINUOUS
 62
40
 10
2.3044302E+002
 20
2.00008
 11
2.3044301E+002
 21
0.0
  0
LINE
  8
MED-1
  6
CONTINUOUS
 62
40
 10
2.3044301E+002
 20
-6.157904E+001
 11
2.3044302E+002
 21
-6.357913E+001
  0
LINE
  8
MED-1
  6
CONTINUOUS
 62
40
 10
1.397E-002
 20
-6.357913E+001
 11
1.753E-002
 21
-6.363995E+001
  0
ARC
  8
MED-1
  6
CONTINUOUS
 62
40
 10
4.6367678E-001
 20
-6.3587101E+001
 40
4.4926606E-001
 50
1.8675562E+002
 51
1.9470191E+002
  0
ARC
  8
MED-1
  6
CONTINUOUS
 62
40
 10
5.4756033E-001
 20
-6.3569722E+001
 40
5.3483249E-001
 50
1.9422206E+002
 51
2.0117235E+002
  0
ARC
  8
MED-1
  6
CONTINUOUS
 62
40
 10
5.5179318E-001
 20
-6.3559351E+001
 40
5.4258644E-001
 50
2.0203217E+002
 51
2.0913988E+002
  0
ARC
  8
MED-1
  6
CONTINUOUS
 62
40
 10
4.654214E-001
 20
-6.3599777E+001
 40
4.4751232E-001
 50
2.10004E+002
 51
2.1890856E+002
  0
ARC
  8
MED-1
  6
CONTINUOUS
 62
40
 10
5.3612807E-001
 20
-6.3574322E+001
 40
5.1910383E-001
 50
2.1619217E+002
 51
2.2363877E+002
  0
ARC
  8
MED-1
  6
CONTINUOUS
 62
40
 10
8.4434449E-001
 20
-6.3286766E+001
 40
9.4061764E-001
 50
2.2335871E+002
 51
2.2718339E+002
  0
ARC
  8
MED-1
  6
CONTINUOUS
 62
40
 10
4.690516E-001
 20
-6.3606925E+001
 40
4.5437883E-001
 50
2.3447793E+002
 51
2.4394316E+002
  0
ARC
  8
MED-1
  6
CONTINUOUS
 62
40
 10
4.4336732E-001
 20
-6.3659769E+001
 40
3.9562363E-001
 50
2.4392306E+002
 51
2.598738E+002
  0
ARC
  8
MED-1
  6
CONTINUOUS
 62
40
 10
6.4232701E-001
 20
-6.3130475E+001
 40
9.5718956E-001
 50
2.5370837E+002
 51
2.6228932E+002
  0
LINE
  8
MED-1
  6
CONTINUOUS
 62
40
 10
2.2994308E+002
 20
-6.407901E+001
 11
2.300039E+002
 21
-6.407545E+001
  0
ARC
  8
MED-1
  6
CONTINUOUS
 62
40
 10
2.2995111E+002
 20
-6.3629259E+001
 40
4.4930259E-001
 50
2.7674702E+002
 51
2.8469242E+002
  0
ARC
  8
MED-1
  6
CONTINUOUS
 62
40
 10
2.2993366E+002
 20
-6.3545292E+001
 40
5.3496932E-001
 50
2.8421975E+002
 51
2.9116929E+002
  0
ARC
  8
MED-1
  6
CONTINUOUS
 62
40
 10
2.2992337E+002
 20
-6.3541072E+001
 40
5.4267865E-001
 50
2.9202117E+002
 51
2.9912816E+002
  0
ARC
  8
MED-1
  6
CONTINUOUS
 62
40
 10
2.2996373E+002
 20
-6.3627548E+001
 40
4.4754941E-001
 50
3.0000437E+002
 51
3.0890819E+002
  0
ARC
  8
MED-1
  6
CONTINUOUS
 62
40
 10
2.2993835E+002
 20
-6.3556854E+001
 40
5.1908367E-001
 50
3.0618586E+002
 51
3.1363204E+002
  0
ARC
  8
MED-1
  6
CONTINUOUS
 62
40
 10
2.2965087E+002
 20
-6.3248496E+001
 40
9.4065153E-001
 50
3.1334588E+002
 51
3.1717041E+002
  0
ARC
  8
MED-1
  6
CONTINUOUS
 62
40
 10
2.299709E+002
 20
-6.3623964E+001
 40
4.5438653E-001
 50
3.2447801E+002
 51
3.3394308E+002
  0
ARC
  8
MED-1
  6
CONTINUOUS
 62
40
 10
2.3002381E+002
 20
-6.3649591E+001
 40
3.9559795E-001
 50
3.3391124E+002
 51
3.4986254E+002
  0
ARC
  8
MED-1
  6
CONTINUOUS
 62
40
 10
2.2949455E+002
 20
-6.3450652E+001
 40
9.5712931E-001
 50
3.4370413E+002
 51
3.5228574E+002
  0
LINE
  8
MED-1
  6
CONTINUOUS
 62
40
 10
2.3044302E+002
 20
2.00008
 11
2.3043946E+002
 21
2.0609
  0
ARC
  8
MED-1
  6
CONTINUOUS
 62
40
 10
2.2999329E+002
 20
2.0080458
 40
4.492921E-001
 50
6.7558493
 51
1.4701679E+001
  0
ARC
  8
MED-1
  6
CONTINUOUS
 62
40
 10
2.2990931E+002
 20
1.9906638
 40
5.3495471E-001
 50
1.4219653E+001
 51
2.1169383E+001
  0
ARC
  8
MED-1
  6
CONTINUOUS
 62
40
 10
2.2990506E+002
 20
1.9802123
 40
5.4274776E-001
 50
2.2036526E+001
 51
2.9143529E+001
  0
ARC
  8
MED-1
  6
CONTINUOUS
 62
40
 10
2.2999158E+002
 20
2.0207134
 40
4.4750913E-001
 50
3.0009168E+001
 51
3.8912731E+001
  0
ARC
  8
MED-1
  6
CONTINUOUS
 62
40
 10
2.2992073E+002
 20
1.9952479
 40
5.1922302E-001
 50
3.6187151E+001
 51
4.3632885E+001
  0
ARC
  8
MED-1
  6
CONTINUOUS
 62
40
 10
2.2961257E+002
 20
1.7078102
 40
9.4061749E-001
 50
4.3352505E+001
 51
4.7176753E+001
  0
ARC
  8
MED-1
  6
CONTINUOUS
 62
40
 10
2.2998785E+002
 20
2.0278583
 40
4.5445796E-001
 50
5.4471867E+001
 51
6.3936095E+001
  0
ARC
  8
MED-1
  6
CONTINUOUS
 62
40
 10
2.3001354E+002
 20
2.0807316
 40
3.9567463E-001
 50
6.3913721E+001
 51
7.98633E+001
  0
ARC
  8
MED-1
  6
CONTINUOUS
 62
40
 10
2.2981459E+002
 20
1.5513886
 40
9.5729426E-001
 50
7.3705405E+001
 51
8.2286124E+001
  0
LINE
  8
MED-1
  6
CONTINUOUS
 62
40
 10
5.139E-001
 20
2.50002
 11
4.5308E-001
 21
2.49646
  0
ARC
  8
MED-1
  6
CONTINUOUS
 62
40
 10
5.059385E-001
 20
2.0502647
 40
4.4931529E-001
 50
9.6756055E+001
 51
1.0470147E+002
  0
ARC
  8
MED-1
  6
CONTINUOUS
 62
40
 10
5.2332336E-001
 20
1.9662833
 40
5.3497814E-001
 50
1.0421981E+002
 51
1.1116923E+002
  0
ARC
  8
MED-1
  6
CONTINUOUS
 62
40
 10
5.3378057E-001
 20
1.9621267
 40
5.426933E-001
 50
1.1204032E+002
 51
1.1914709E+002
  0
ARC
  8
MED-1
  6
CONTINUOUS
 62
40
 10
4.9327663E-001
 20
2.0485099
 40
4.4757115E-001
 50
1.2000459E+002
 51
1.2890798E+002
  0
ARC
  8
MED-1
  6
CONTINUOUS
 62
40
 10
5.1873298E-001
 20
1.9777278
 40
5.192244E-001
 50
1.2618716E+002
 51
1.3363287E+002
  0
ARC
  8
MED-1
  6
CONTINUOUS
 62
40
 10
8.0616429E-001
 20
1.6695711
 40
9.4060977E-001
 50
1.3335249E+002
 51
1.3717677E+002
  0
ARC
  8
MED-1
  6
CONTINUOUS
 62
40
 10
4.8611442E-001
 20
2.0448576
 40
4.5444957E-001
 50
1.4447178E+002
 51
1.5393618E+002
  0
ARC
  8
MED-1
  6
CONTINUOUS
 62
40
 10
4.3323793E-001
 20
2.0705831
 40
3.956473E-001
 50
1.5391835E+002
 51
1.6986859E+002
  0
ARC
  8
MED-1
  6
CONTINUOUS
 62
40
 10
9.6255062E-001
 20
1.8715968
 40
9.5724245E-001
 50
1.6370517E+002
 51
1.7228636E+002
  0
LINE
  8
MED-1
  6
CONTINUOUS
 62
40
 10
1.4236005E+002
 20
2.91516
 11
1.4236011E+002
 21
3.28548
  0
LINE
  8
MED-1
  6
CONTINUOUS
 62
40
 10
1.6709691E+002
 20
2.91516
 11
1.6699777E+002
 21
2.88573
  0
ARC
  8
MED-1
  6
CONTINUOUS
 62
40
 10
1.6678876E+002
 20
3.1152309
 40
3.1041018E-001
 50
2.367329E+002
 51
3.1232416E+002
  0
ARC
  8
MED-1
  6
CONTINUOUS
 62
40
 10
1.657482E+002
 20
1.4431762E+001
 40
1.160874E+001
 50
2.7100006E+002
 51
2.7429942E+002
  0
ARC
  8
MED-1
  6
CONTINUOUS
 62
40
 10
1.6392471E+002
 20
5.197576E+001
 40
4.9192713E+001
 50
2.712331E+002
 51
2.7236051E+002
  0
ARC
  8
MED-1
  6
CONTINUOUS
 62
40
 10
1.6198271E+002
 20
1.1143424E+002
 40
1.0868123E+002
 50
2.7089775E+002
 51
2.715821E+002
  0
ARC
  8
MED-1
  6
CONTINUOUS
 62
40
 10
1.5960901E+002
 20
2.1464731E+002
 40
2.1192017E+002
 50
2.7067467E+002
 51
2.7110222E+002
  0
ARC
  8
MED-1
  6
CONTINUOUS
 62
40
 10
1.5754366E+002
 20
3.4382811E+002
 40
3.4111677E+002
 50
2.7045991E+002
 51
2.7076606E+002
  0
ARC
  8
MED-1
  6
CONTINUOUS
 62
40
 10
1.5592253E+002
 20
4.8316858E+002
 40
4.8046603E+002
 50
2.7028457E+002
 51
2.7051985E+002
  0
ARC
  8
MED-1
  6
CONTINUOUS
 62
40
 10
1.5515404E+002
 20
5.8862781E+002
 40
5.8592782E+002
 50
2.7010915E+002
 51
2.703085E+002
  0
ARC
  8
MED-1
  6
CONTINUOUS
 62
40
 10
1.5472171E+002
 20
6.5873404E+002
 40
6.5603481E+002
 50
2.6995904E+002
 51
2.7013524E+002
  0
ARC
  8
MED-1
  6
CONTINUOUS
 62
40
 10
1.546804E+002
 20
7.0716602E+002
 40
7.0446676E+002
 50
2.698096E+002
 51
2.6996522E+002
  0
ARC
  8
MED-1
  6
CONTINUOUS
 62
40
 10
1.545354E+002
 20
6.3274002E+002
 40
6.300407E+002
 50
2.6964057E+002
 51
2.6980029E+002
  0
ARC
  8
MED-1
  6
CONTINUOUS
 62
40
 10
1.5379817E+002
 20
4.9009855E+002
 40
4.8739744E+002
 50
2.694391E+002
 51
2.6962204E+002
  0
ARC
  8
MED-1
  6
CONTINUOUS
 62
40
 10
1.5316827E+002
 20
4.8995754E+002
 40
4.8725067E+002
 50
2.6934746E+002
 51
2.6951301E+002
  0
ARC
  8
MED-1
  6
CONTINUOUS
 62
40
 10
1.7634492E+002
 20
2.6018318E+003
 40
2.599252E+003
 50
2.6933774E+002
 51
2.6936678E+002
  0
ARC
  8
MED-1
  6
CONTINUOUS
 62
40
 10
1.5187283E+002
 20
2.8719652E+002
 40
2.8449771E+002
 50
2.6861783E+002
 51
2.6887801E+002
  0
ARC
  8
MED-1
  6
CONTINUOUS
 62
40
 10
1.4763257E+002
 20
8.1541035E+001
 40
7.8803083E+001
 50
2.67135E+002
 51
2.6809315E+002
  0
ARC
  8
MED-1
  6
CONTINUOUS
 62
40
 10
1.4707647E+002
 20
7.1494519E+001
 40
6.874135E+001
 50
2.6606578E+002
 51
2.6717939E+002
  0
LINE
  8
MED-1
  6
CONTINUOUS
 62
40
 10
1.6709686E+002
 20
3.28548
 11
1.6709691E+002
 21
2.91516
  0
LINE
  8
MED-1
  6
CONTINUOUS
 62
40
 10
1.4236011E+002
 20
3.28548
 11
1.6709686E+002
 21
3.28548
  0
LINE
  8
3
  6
CENTERLINE
 62
1
 10
1.1872796E+002
 20
4.4364112E+001
 11
1.1872796E+002
 21
1.2657448E+001
  0
LINE
  8
3
  6
CENTERLINE
 62
1
 10
7.572849E+001
 20
-5.3762364E+001
 11
7.572849E+001
 21
2.2686124E+001
  0
LINE
  8
106
  6
CENTERLINE
 62
1
 10
1.5447796E+002
 20
3.113548E+001
 11
1.3608697E+002
 21
3.113548E+001
  0
LINE
  8
106
  6
CENTERLINE
 62
1
 10
1.4922796E+002
 20
2.588548E+001
 11
1.4922796E+002
 21
3.638548E+001
  0
LINE
  8
106
  6
CENTERLINE
 62
1
 10
1.0947796E+002
 20
3.113548E+001
 11
9.897796E+001
 21
3.113548E+001
  0
LINE
  8
106
  6
CENTERLINE
 62
1
 10
1.0422796E+002
 20
2.588548E+001
 11
1.0422796E+002
 21
3.638548E+001
  0
LINE
  8
3
  6
CENTERLINE
 62
1
 10
1.0222834E+002
 20
-5.86474
 11
9.322834E+001
 21
-5.86474
  0
LINE
  8
3
  6
CENTERLINE
 62
1
 10
9.772834E+001
 20
-1.036474E+001
 11
9.772834E+001
 21
-1.36474
  0
LINE
  8
3
  6
CENTERLINE
 62
1
 10
1.5222834E+002
 20
-5.86474
 11
1.4322834E+002
 21
-5.86474
  0
LINE
  8
3
  6
CENTERLINE
 62
1
 10
1.4772834E+002
 20
-1.036474E+001
 11
1.4772834E+002
 21
-1.36474
  0
LINE
  8
3
  6
CENTERLINE
 62
1
 10
2.0222834E+002
 20
-5.86474
 11
1.9322834E+002
 21
-5.86474
  0
LINE
  8
3
  6
CENTERLINE
 62
1
 10
1.9772834E+002
 20
-1.036474E+001
 11
1.9772834E+002
 21
-1.36474
  0
LINE
  8
3
  6
CENTERLINE
 62
1
 10
2.0222834E+002
 20
-5.086474E+001
 11
1.9322834E+002
 21
-5.086474E+001
  0
LINE
  8
3
  6
CENTERLINE
 62
1
 10
1.9772834E+002
 20
-5.536474E+001
 11
1.9772834E+002
 21
-4.636474E+001
  0
LINE
  8
3
  6
CENTERLINE
 62
1
 10
1.5222834E+002
 20
-5.086474E+001
 11
1.4322834E+002
 21
-5.086474E+001
  0
LINE
  8
3
  6
CENTERLINE
 62
1
 10
1.4772834E+002
 20
-5.536474E+001
 11
1.4772834E+002
 21
-4.636474E+001
  0
LINE
  8
3
  6
CENTERLINE
 62
1
 10
1.0222834E+002
 20
-5.086474E+001
 11
9.322834E+001
 21
-5.086474E+001
  0
LINE
  8
3
  6
CENTERLINE
 62
1
 10
9.772834E+001
 20
-5.536474E+001
 11
9.772834E+001
 21
-4.636474E+001
  0
LINE
  8
3
  6
CENTERLINE
 62
1
 10
2.872836E+001
 20
-6.86474
 11
1.972836E+001
 21
-6.86474
  0
LINE
  8
3
  6
CENTERLINE
 62
1
 10
2.422836E+001
 20
-1.136474E+001
 11
2.422836E+001
 21
-2.36474
  0
LINE
  8
3
  6
CENTERLINE
 62
1
 10
2.872836E+001
 20
-2.286474E+001
 11
1.972836E+001
 21
-2.286474E+001
  0
LINE
  8
3
  6
CENTERLINE
 62
1
 10
2.422836E+001
 20
-2.736474E+001
 11
2.422836E+001
 21
-1.836474E+001
  0
LINE
  8
3
  6
CENTERLINE
 62
1
 10
2.872836E+001
 20
-3.386474E+001
 11
1.972836E+001
 21
-3.386474E+001
  0
LINE
  8
3
  6
CENTERLINE
 62
1
 10
2.422836E+001
 20
-3.836474E+001
 11
2.422836E+001
 21
-2.936474E+001
  0
LINE
  8
3
  6
CENTERLINE
 62
1
 10
2.872836E+001
 20
-4.986474E+001
 11
1.972836E+001
 21
-4.986474E+001
  0
LINE
  8
3
  6
CENTERLINE
 62
1
 10
2.422836E+001
 20
-5.436474E+001
 11
2.422836E+001
 21
-4.536474E+001
  0
LINE
  8
3
  6
CENTERLINE
 62
1
 10
1.8872836E+002
 20
-6.86474
 11
1.7972836E+002
 21
-6.86474
  0
LINE
  8
3
  6
CENTERLINE
 62
1
 10
1.8422836E+002
 20
-1.136474E+001
 11
1.8422836E+002
 21
-2.36474
  0
LINE
  8
3
  6
CENTERLINE
 62
1
 10
1.8872836E+002
 20
-2.286474E+001
 11
1.7972836E+002
 21
-2.286474E+001
  0
LINE
  8
3
  6
CENTERLINE
 62
1
 10
1.8422836E+002
 20
-2.736474E+001
 11
1.8422836E+002
 21
-1.836474E+001
  0
LINE
  8
3
  6
CENTERLINE
 62
1
 10
1.8872836E+002
 20
-3.386474E+001
 11
1.7972836E+002
 21
-3.386474E+001
  0
LINE
  8
3
  6
CENTERLINE
 62
1
 10
1.8422836E+002
 20
-3.836474E+001
 11
1.8422836E+002
 21
-2.936474E+001
  0
LINE
  8
3
  6
CENTERLINE
 62
1
 10
1.8872836E+002
 20
-4.986474E+001
 11
1.7972836E+002
 21
-4.986474E+001
  0
LINE
  8
3
  6
CENTERLINE
 62
1
 10
1.8422836E+002
 20
-5.436474E+001
 11
1.8422836E+002
 21
-4.536474E+001
  0
CIRCLE
  8
104
  6
CONTINUOUS
 62
40
 10
1.8422836E+002
 20
-6.86474
 40
5.0
  0
CIRCLE
  8
104
  6
CONTINUOUS
 62
40
 10
1.8422836E+002
 20
-6.86474
 40
2.5
  0
CIRCLE
  8
104
  6
CONTINUOUS
 62
40
 10
1.8422836E+002
 20
-2.286474E+001
 40
5.0
  0
CIRCLE
  8
104
  6
CONTINUOUS
 62
40
 10
1.8422836E+002
 20
-2.286474E+001
 40
2.5
  0
CIRCLE
  8
104
  6
CONTINUOUS
 62
40
 10
1.8422836E+002
 20
-3.386474E+001
 40
5.0
  0
CIRCLE
  8
104
  6
CONTINUOUS
 62
40
 10
1.8422836E+002
 20
-3.386474E+001
 40
2.5
  0
CIRCLE
  8
104
  6
CONTINUOUS
 62
40
 10
1.8422836E+002
 20
-4.986474E+001
 40
5.0
  0
CIRCLE
  8
104
  6
CONTINUOUS
 62
40
 10
1.8422836E+002
 20
-4.986474E+001
 40
2.5
  0
CIRCLE
  8
104
  6
CONTINUOUS
 62
40
 10
2.422836E+001
 20
-6.86474
 40
5.0
  0
CIRCLE
  8
104
  6
CONTINUOUS
 62
40
 10
2.422836E+001
 20
-6.86474
 40
2.5
  0
CIRCLE
  8
104
  6
CONTINUOUS
 62
40
 10
2.422836E+001
 20
-2.286474E+001
 40
5.0
  0
CIRCLE
  8
104
  6
CONTINUOUS
 62
40
 10
2.422836E+001
 20
-2.286474E+001
 40
2.5
  0
CIRCLE
  8
104
  6
CONTINUOUS
 62
40
 10
2.422836E+001
 20
-3.386474E+001
 40
5.0
  0
CIRCLE
  8
104
  6
CONTINUOUS
 62
40
 10
2.422836E+001
 20
-3.386474E+001
 40
2.5
  0
CIRCLE
  8
104
  6
CONTINUOUS
 62
40
 10
2.422836E+001
 20
-4.986474E+001
 40
5.0
  0
CIRCLE
  8
104
  6
CONTINUOUS
 62
40
 10
2.422836E+001
 20
-4.986474E+001
 40
2.5
  0
CIRCLE
  8
104
  6
CONTINUOUS
 62
40
 10
7.622836E+001
 20
-4.186474E+001
 40
5.0
  0
CIRCLE
  8
104
  6
CONTINUOUS
 62
40
 10
7.622836E+001
 20
-4.186474E+001
 40
2.5
  0
LINE
  8
3
  6
CENTERLINE
 62
1
 10
8.072836E+001
 20
-4.186474E+001
 11
7.172836E+001
 21
-4.186474E+001
  0
LINE
  8
3
  6
CENTERLINE
 62
1
 10
7.622836E+001
 20
-4.636474E+001
 11
7.622836E+001
 21
-3.736474E+001
  0
CIRCLE
  8
104
  6
CONTINUOUS
 62
40
 10
7.622836E+001
 20
-1.486474E+001
 40
5.0
  0
CIRCLE
  8
104
  6
CONTINUOUS
 62
40
 10
7.622836E+001
 20
-1.486474E+001
 40
2.5
  0
LINE
  8
3
  6
CENTERLINE
 62
1
 10
8.072836E+001
 20
-1.486474E+001
 11
7.172836E+001
 21
-1.486474E+001
  0
LINE
  8
3
  6
CENTERLINE
 62
1
 10
7.622836E+001
 20
-1.936474E+001
 11
7.622836E+001
 21
-1.036474E+001
  0
CIRCLE
  8
104
  6
CONTINUOUS
 62
40
 10
1.3222836E+002
 20
-1.486474E+001
 40
5.0
  0
CIRCLE
  8
104
  6
CONTINUOUS
 62
40
 10
1.3222836E+002
 20
-1.486474E+001
 40
2.5
  0
LINE
  8
3
  6
CENTERLINE
 62
1
 10
1.3672836E+002
 20
-1.486474E+001
 11
1.2772836E+002
 21
-1.486474E+001
  0
LINE
  8
3
  6
CENTERLINE
 62
1
 10
1.3222836E+002
 20
-1.936474E+001
 11
1.3222836E+002
 21
-1.036474E+001
  0
CIRCLE
  8
104
  6
CONTINUOUS
 62
40
 10
1.3222836E+002
 20
-4.186474E+001
 40
5.0
  0
CIRCLE
  8
104
  6
CONTINUOUS
 62
40
 10
1.3222836E+002
 20
-4.186474E+001
 40
2.5
  0
LINE
  8
3
  6
CENTERLINE
 62
1
 10
1.3672836E+002
 20
-4.186474E+001
 11
1.2772836E+002
 21
-4.186474E+001
  0
LINE
  8
3
  6
CENTERLINE
 62
1
 10
1.3222836E+002
 20
-4.636474E+001
 11
1.3222836E+002
 21
-3.736474E+001
  0
POINT
  8
Drafting_Hidden_Entities
  6
CONTINUOUS
 62
1
 10
0.0
 20
0.0
  0
ENDBLK
  0
ENDSEC
  0
SECTION
  2
ENTITIES
  0
LINE
  8
0
  6
CONTINUOUS
 62
3
 10
1.0458117E+001
 20
1.8406285E+001
 11
4.103765E+002
 21
1.8406285E+001
  0
LINE
  8
0
  6
CONTINUOUS
 62
3
 10
4.103765E+002
 20
1.8406285E+001
 11
4.103765E+002
 21
1.4139374E+002
  0
LINE
  8
0
  6
CONTINUOUS
 62
3
 10
4.103765E+002
 20
1.4139374E+002
 11
1.0458117E+001
 21
1.4139374E+002
  0
LINE
  8
0
  6
CONTINUOUS
 62
3
 10
1.0458117E+001
 20
1.4139374E+002
 11
1.0458117E+001
 21
1.8406285E+001
  0
TEXT
  8
MED-1
  6
CONTINUOUS
 62
7
 10
1.1658117E+001
 20
1.9606285E+001
 40
1.0
  1
2-FRONT
 41
3.0
 50
1.0
  0
TEXT
  8
103
  6
CONTINUOUS
 62
40
 10
4.0940915E+002
 20
1.3794766E+001
 40
5.0
  1
TS72
 41
6.5625E-001
 72
1
 11
4.0284665E+002
 21
1.1294766E+001
 73
2
  0
TEXT
  8
103
  6
CONTINUOUS
 62
150
 10
2.0269636E+001
 20
2.8836266E+002
 40
3.5
  1
M 1:1
 41
6.3000002E-001
 72
1
 11
1.4757136E+001
 21
2.8661266E+002
 73
2
  0
TEXT
  8
103
  6
CONTINUOUS
 62
150
 10
2.3401566E+001
 20
1.4816976E+002
 40
3.5
  1
M 1:2.5
 41
6.4285716E-001
 72
1
 11
1.5526566E+001
 21
1.4641976E+002
 73
2
  0
LINE
  8
98
  6
CONTINUOUS
 62
1
 10
5.0
 20
5.0
 11
4.15E+002
 21
5.0
  0
LINE
  8
98
  6
CONTINUOUS
 62
1
 10
4.15E+002
 20
5.0
 11
4.15E+002
 21
2.92E+002
  0
LINE
  8
98
  6
CONTINUOUS
 62
1
 10
4.15E+002
 20
2.92E+002
 11
5.0
 21
2.92E+002
  0
LINE
  8
98
  6
CONTINUOUS
 62
1
 10
5.0
 20
2.92E+002
 11
5.0
 21
5.0
  0
TEXT
  8
103
  6
CONTINUOUS
 62
150
 10
7.4461791E+001
 20
1.61055E+002
 40
3.5
  1
TS72
 41
8.0E-001
  0
TEXT
  8
103
  6
CONTINUOUS
 62
150
 10
2.865524E+002
 20
1.6063667E+002
 40
3.5
  1
TS72 mit Montageplatte
 41
8.0E-001
  0
TEXT
  8
103
  6
CONTINUOUS
 62
150
 10
1.5059688E+001
 20
4.1414142E+001
 40
3.5
  1
TS72 DR
 41
8.0E-001
  0
TEXT
  8
103
  6
CONTINUOUS
 62
150
 10
1.6314662E+001
 20
1.0458117E+002
 40
3.5
  1
TS72 DL
 41
8.0E-001
  0
INSERT
  2
1NEW01
  8
109
 10
9.412305E+001
 20
2.4931496E+002
  0
INSERT
  2
1NEW02
  8
109
 10
2.4874259E+002
 20
3.2044565E+001
  0
INSERT
  2
2NEW01
  8
109
 10
7.1059143E+001
 20
1.1645762E+002
 41
4.0E-001
 43
4.0E-001
 42
4.0E-001
  0
INSERT
  2
2NEW02
  8
109
 10
2.8811597E+002
 20
1.1545761E+002
 41
4.0E-001
 43
4.0E-001
 42
4.0E-001
  0
INSERT
  2
2NEW01
  8
109
 10
1.0646189E+002
 20
6.2493734E+001
 41
4.0E-001
 43
4.0E-001
 42
-4.0E-001
 50
1.8E+002
  0
INSERT
  2
2NEW02
  8
109
 10
3.8029876E+002
 20
6.1493726E+001
 41
4.0E-001
 43
4.0E-001
 42
-4.0E-001
 50
1.8E+002
  0
TEXT
  8
103
  6
CONTINUOUS
 62
150
 10
2.5643302E+002
 20
1.0165289E+002
 40
3.5
  1
TS72 M DL
 41
8.0E-001
  0
TEXT
  8
103
  6
CONTINUOUS
 62
150
 10
2.5350475E+002
 20
4.1414142E+001
 40
3.5
  1
TS72 M DR
 41
8.0E-001
  0
ENDSEC
  0
EOF
