  0
SECTION
  2
HEADER
  9
$ACADVER
  1
AC1009
999
I-DEAS 8 Not Encoded
  9
$EXTMIN
 10
0.0
 20
0.0
  9
$EXTMAX
 10
5.94E+002
 20
4.2E+002
  9
$TEXTSIZE
 40
1.25E-001
  9
$LTSCALE
 40
1.0
  9
$CLAYER
  8
104
  9
$CECOLOR
 62
40
  9
$DIMASZ
 40
1.25E-001
  9
$DIMEXO
 40
6.25E-002
  9
$DIMDLI
 40
2.5E-001
  9
$DIMEXE
 40
1.25E-001
  9
$DIMTP
 40
5.0E-003
  9
$DIMTM
 40
-5.0E-003
  9
$DIMTXT
 40
3.0
  9
$DIMLIM
 70
0
  9
$DIMTIH
 70
1
  9
$DIMTOH
 70
1
  9
$DIMSE1
 70
0
  9
$DIMSE2
 70
0
  9
$DIMTAD
 70
0
  9
$DIMASO
 70
1
  9
$DIMALT
 70
0
  9
$DIMALTD
 70
0
  9
$DIMTOFL
 70
1
  9
$DIMTIX
 70
0
  9
$DIMSAH
 70
0
  9
$DIMTFAC
 40
1.0
  9
$DIMGAP
 40
6.25E-002
  9
$LUNITS
 70
2
  9
$LUPREC
 70
3
  9
$FILLETRAD
 40
2.0
  9
$AUNITS
 70
0
  9
$AUPREC
 70
1
  9
$CHAMFERA
 40
1.0E+001
  9
$CHAMFERB
 40
1.0E+001
  9
$ANGBASE
 50
0.0
  9
$ANGDIR
 70
0
  9
$PDMODE
 70
2
  9
$PDSIZE
 40
-1.0E-002
  9
$SPLINETYPE
 70
6
  0
ENDSEC
  0
SECTION
  2
TABLES
  0
TABLE
  2
LTYPE
 70
7
  0
LTYPE
  2
HIDDENNEW00
  3
_ 
 70
64
 72
65
 73
3
 40
4.5
 49
1.5
 49
-1.5
 49
1.5
  0
LTYPE
  2
HIDDENNEW01
  3
_ 
 70
64
 72
65
 73
3
 40
4.5
 49
1.5
 49
-1.5
 49
1.5
  0
LTYPE
  2
HIDDEN
  3
_ 
 70
64
 72
65
 73
3
 40
4.5
 49
1.5
 49
-1.5
 49
1.5
  0
LTYPE
  2
CENTERLINE
  3
_ 
 70
64
 72
65
 73
5
 40
3.0E+001
 49
1.2E+001
 49
-1.5
 49
3.0
 49
-1.5
 49
1.2E+001
  0
LTYPE
  2
PHANTOM
  3
_ 
 70
64
 72
65
 73
7
 40
2.95E+001
 49
9.5
 49
-1.5
 49
3.0
 49
-1.5
 49
3.0
 49
-1.5
 49
9.5
  0
LTYPE
  2
SHORT_DASH
  3
_ 
 70
64
 72
65
 73
3
 40
3.0
 49
7.5E-001
 49
-1.5
 49
7.5E-001
  0
LTYPE
  2
LONG_DASH
  3
_ 
 70
64
 72
65
 73
3
 40
9.0
 49
2.25
 49
-4.5
 49
2.25
  0
ENDTAB
  0
TABLE
  2
LAYER
 70
258
  0
LAYER
  2
1
 70
0
 62
7
  6
CONTINUOUS
  0
LAYER
  2
2
 70
0
 62
7
  6
CONTINUOUS
  0
LAYER
  2
3
 70
0
 62
7
  6
CONTINUOUS
  0
LAYER
  2
4
 70
0
 62
7
  6
CONTINUOUS
  0
LAYER
  2
5
 70
0
 62
7
  6
CONTINUOUS
  0
LAYER
  2
MED-6
 70
0
 62
6
  6
HIDDENNEW00
  0
LAYER
  2
7
 70
0
 62
7
  6
CONTINUOUS
  0
LAYER
  2
8
 70
0
 62
7
  6
CONTINUOUS
  0
LAYER
  2
9
 70
0
 62
7
  6
CONTINUOUS
  0
LAYER
  2
10
 70
0
 62
7
  6
CONTINUOUS
  0
LAYER
  2
MED-11
 70
0
 62
70
  6
HIDDENNEW00
  0
LAYER
  2
12
 70
0
 62
7
  6
CONTINUOUS
  0
LAYER
  2
13
 70
0
 62
7
  6
CONTINUOUS
  0
LAYER
  2
14
 70
0
 62
7
  6
CONTINUOUS
  0
LAYER
  2
15
 70
0
 62
7
  6
CONTINUOUS
  0
LAYER
  2
16
 70
0
 62
7
  6
CONTINUOUS
  0
LAYER
  2
17
 70
0
 62
7
  6
CONTINUOUS
  0
LAYER
  2
18
 70
0
 62
7
  6
CONTINUOUS
  0
LAYER
  2
19
 70
0
 62
7
  6
CONTINUOUS
  0
LAYER
  2
20
 70
0
 62
7
  6
CONTINUOUS
  0
LAYER
  2
21
 70
0
 62
7
  6
CONTINUOUS
  0
LAYER
  2
22
 70
0
 62
7
  6
CONTINUOUS
  0
LAYER
  2
23
 70
0
 62
7
  6
CONTINUOUS
  0
LAYER
  2
24
 70
0
 62
7
  6
CONTINUOUS
  0
LAYER
  2
25
 70
0
 62
7
  6
CONTINUOUS
  0
LAYER
  2
26
 70
0
 62
7
  6
CONTINUOUS
  0
LAYER
  2
27
 70
0
 62
7
  6
CONTINUOUS
  0
LAYER
  2
28
 70
0
 62
7
  6
CONTINUOUS
  0
LAYER
  2
29
 70
0
 62
7
  6
CONTINUOUS
  0
LAYER
  2
30
 70
0
 62
7
  6
CONTINUOUS
  0
LAYER
  2
31
 70
0
 62
7
  6
CONTINUOUS
  0
LAYER
  2
32
 70
0
 62
7
  6
CONTINUOUS
  0
LAYER
  2
33
 70
0
 62
7
  6
CONTINUOUS
  0
LAYER
  2
34
 70
0
 62
7
  6
CONTINUOUS
  0
LAYER
  2
35
 70
0
 62
7
  6
CONTINUOUS
  0
LAYER
  2
36
 70
0
 62
7
  6
CONTINUOUS
  0
LAYER
  2
37
 70
0
 62
7
  6
CONTINUOUS
  0
LAYER
  2
38
 70
0
 62
7
  6
CONTINUOUS
  0
LAYER
  2
39
 70
0
 62
7
  6
CONTINUOUS
  0
LAYER
  2
40
 70
0
 62
7
  6
CONTINUOUS
  0
LAYER
  2
41
 70
0
 62
7
  6
CONTINUOUS
  0
LAYER
  2
42
 70
0
 62
7
  6
CONTINUOUS
  0
LAYER
  2
43
 70
0
 62
7
  6
CONTINUOUS
  0
LAYER
  2
44
 70
0
 62
7
  6
CONTINUOUS
  0
LAYER
  2
45
 70
0
 62
7
  6
CONTINUOUS
  0
LAYER
  2
46
 70
0
 62
7
  6
CONTINUOUS
  0
LAYER
  2
47
 70
0
 62
7
  6
CONTINUOUS
  0
LAYER
  2
48
 70
0
 62
7
  6
CONTINUOUS
  0
LAYER
  2
49
 70
0
 62
7
  6
CONTINUOUS
  0
LAYER
  2
50
 70
0
 62
7
  6
CONTINUOUS
  0
LAYER
  2
51
 70
0
 62
7
  6
CONTINUOUS
  0
LAYER
  2
52
 70
0
 62
7
  6
CONTINUOUS
  0
LAYER
  2
53
 70
0
 62
7
  6
CONTINUOUS
  0
LAYER
  2
54
 70
0
 62
7
  6
CONTINUOUS
  0
LAYER
  2
55
 70
0
 62
7
  6
CONTINUOUS
  0
LAYER
  2
56
 70
0
 62
7
  6
CONTINUOUS
  0
LAYER
  2
57
 70
0
 62
7
  6
CONTINUOUS
  0
LAYER
  2
58
 70
0
 62
7
  6
CONTINUOUS
  0
LAYER
  2
59
 70
0
 62
7
  6
CONTINUOUS
  0
LAYER
  2
60
 70
0
 62
7
  6
CONTINUOUS
  0
LAYER
  2
61
 70
0
 62
7
  6
CONTINUOUS
  0
LAYER
  2
62
 70
0
 62
7
  6
CONTINUOUS
  0
LAYER
  2
63
 70
0
 62
7
  6
CONTINUOUS
  0
LAYER
  2
64
 70
0
 62
7
  6
CONTINUOUS
  0
LAYER
  2
65
 70
0
 62
7
  6
CONTINUOUS
  0
LAYER
  2
66
 70
0
 62
7
  6
CONTINUOUS
  0
LAYER
  2
67
 70
0
 62
7
  6
CONTINUOUS
  0
LAYER
  2
68
 70
0
 62
7
  6
CONTINUOUS
  0
LAYER
  2
69
 70
0
 62
7
  6
CONTINUOUS
  0
LAYER
  2
70
 70
0
 62
7
  6
CONTINUOUS
  0
LAYER
  2
71
 70
0
 62
7
  6
CONTINUOUS
  0
LAYER
  2
72
 70
0
 62
7
  6
CONTINUOUS
  0
LAYER
  2
73
 70
0
 62
7
  6
CONTINUOUS
  0
LAYER
  2
74
 70
0
 62
7
  6
CONTINUOUS
  0
LAYER
  2
75
 70
0
 62
7
  6
CONTINUOUS
  0
LAYER
  2
76
 70
0
 62
7
  6
CONTINUOUS
  0
LAYER
  2
77
 70
0
 62
7
  6
CONTINUOUS
  0
LAYER
  2
78
 70
0
 62
7
  6
CONTINUOUS
  0
LAYER
  2
79
 70
0
 62
7
  6
CONTINUOUS
  0
LAYER
  2
80
 70
0
 62
7
  6
CONTINUOUS
  0
LAYER
  2
81
 70
0
 62
7
  6
CONTINUOUS
  0
LAYER
  2
82
 70
0
 62
7
  6
CONTINUOUS
  0
LAYER
  2
83
 70
0
 62
7
  6
CONTINUOUS
  0
LAYER
  2
84
 70
0
 62
7
  6
CONTINUOUS
  0
LAYER
  2
85
 70
0
 62
7
  6
CONTINUOUS
  0
LAYER
  2
86
 70
0
 62
7
  6
CONTINUOUS
  0
LAYER
  2
87
 70
0
 62
7
  6
CONTINUOUS
  0
LAYER
  2
88
 70
0
 62
7
  6
CONTINUOUS
  0
LAYER
  2
89
 70
0
 62
7
  6
CONTINUOUS
  0
LAYER
  2
90
 70
0
 62
7
  6
CONTINUOUS
  0
LAYER
  2
91
 70
0
 62
7
  6
CONTINUOUS
  0
LAYER
  2
92
 70
0
 62
7
  6
CONTINUOUS
  0
LAYER
  2
93
 70
0
 62
7
  6
CONTINUOUS
  0
LAYER
  2
94
 70
0
 62
7
  6
CONTINUOUS
  0
LAYER
  2
95
 70
0
 62
7
  6
CONTINUOUS
  0
LAYER
  2
96
 70
0
 62
7
  6
CONTINUOUS
  0
LAYER
  2
97
 70
0
 62
7
  6
CONTINUOUS
  0
LAYER
  2
98
 70
0
 62
7
  6
CONTINUOUS
  0
LAYER
  2
99
 70
0
 62
7
  6
CONTINUOUS
  0
LAYER
  2
MED-0
 70
0
 62
230
  6
HIDDENNEW00
  0
LAYER
  2
101
 70
0
 62
7
  6
CONTINUOUS
  0
LAYER
  2
102
 70
0
 62
7
  6
CONTINUOUS
  0
LAYER
  2
103
 70
0
 62
7
  6
CONTINUOUS
  0
LAYER
  2
104
 70
0
 62
7
  6
CONTINUOUS
  0
LAYER
  2
105
 70
0
 62
7
  6
CONTINUOUS
  0
LAYER
  2
106
 70
0
 62
7
  6
CONTINUOUS
  0
LAYER
  2
Drafting_Hidden_Entities
 70
1
 62
7
  6
CONTINUOUS
  0
ENDTAB
  0
TABLE
  2
STYLE
 70
1
  0
STYLE
  2
STANDARD
 70
64
 40
0.0
 41
1.0
 50
0.0
 71
0
 42
1.0
  3
monotxt.shx
  4

  0
ENDTAB
  0
TABLE
  2
VIEW
 70
0
  0
ENDTAB
  0
TABLE
  2
DIMSTYLE
 70
0
  0
ENDTAB
  0
ENDSEC
  0
SECTION
  2
BLOCKS
  0
ENDSEC
  0
SECTION
  2
ENTITIES
  0
TEXT
  8
103
  6
CONTINUOUS
 62
40
 10
5.8340122E+002
 20
1.9146762E+001
 40
7.0
  1
RTS85-Anschlag
 41
6.5892857E-001
 72
1
 11
5.5111373E+002
 21
1.5646762E+001
 73
2
  0
TEXT
  8
103
  6
CONTINUOUS
 62
40
 10
3.5302447E+001
 20
4.078109E+002
 40
5.0
  1
M 1:1
 41
6.3E-001
 72
1
 11
2.7427447E+001
 21
4.053109E+002
 73
2
  0
LINE
  8
105
  6
HIDDEN
 62
1
 10
3.0677615E+002
 20
1.2701037E+002
 11
3.0527615E+002
 21
1.2551037E+002
  0
LINE
  8
104
  6
CONTINUOUS
 62
40
 10
3.0527615E+002
 20
1.2551037E+002
 11
3.0527615E+002
 21
1.1501037E+002
  0
LINE
  8
104
  6
CONTINUOUS
 62
40
 10
3.0527615E+002
 20
1.1501037E+002
 11
3.0027615E+002
 21
1.1501037E+002
  0
LINE
  8
104
  6
CONTINUOUS
 62
40
 10
3.0027615E+002
 20
1.1501037E+002
 11
3.0027615E+002
 21
1.2551037E+002
  0
LINE
  8
105
  6
HIDDEN
 62
1
 10
3.0027615E+002
 20
1.2551037E+002
 11
2.9877615E+002
 21
1.2701037E+002
  0
LINE
  8
106
  6
CENTERLINE
 62
1
 10
3.0277615E+002
 20
1.2801037E+002
 11
3.0277615E+002
 21
1.1406396E+002
  0
LINE
  8
105
  6
HIDDEN
 62
1
 10
3.5677615E+002
 20
1.2701037E+002
 11
3.5527615E+002
 21
1.2551037E+002
  0
LINE
  8
104
  6
CONTINUOUS
 62
40
 10
3.5527615E+002
 20
1.2551037E+002
 11
3.5527615E+002
 21
1.1501037E+002
  0
LINE
  8
104
  6
CONTINUOUS
 62
40
 10
3.5527615E+002
 20
1.1501037E+002
 11
3.5027615E+002
 21
1.1501037E+002
  0
LINE
  8
104
  6
CONTINUOUS
 62
40
 10
3.5027615E+002
 20
1.1501037E+002
 11
3.5027615E+002
 21
1.2551037E+002
  0
LINE
  8
105
  6
HIDDEN
 62
1
 10
3.5027615E+002
 20
1.2551037E+002
 11
3.4877615E+002
 21
1.2701037E+002
  0
LINE
  8
106
  6
CENTERLINE
 62
1
 10
4.5277614E+002
 20
1.2801036E+002
 11
4.5277614E+002
 21
1.1406395E+002
  0
LINE
  8
105
  6
HIDDEN
 62
1
 10
5.0677614E+002
 20
1.2701037E+002
 11
5.0527614E+002
 21
1.2551037E+002
  0
LINE
  8
104
  6
CONTINUOUS
 62
40
 10
5.0527614E+002
 20
1.2551037E+002
 11
5.0527614E+002
 21
1.1501037E+002
  0
LINE
  8
104
  6
CONTINUOUS
 62
40
 10
5.0527614E+002
 20
1.1501037E+002
 11
5.0027614E+002
 21
1.1501037E+002
  0
LINE
  8
104
  6
CONTINUOUS
 62
40
 10
5.0027614E+002
 20
1.1501037E+002
 11
5.0027614E+002
 21
1.2551037E+002
  0
LINE
  8
105
  6
HIDDEN
 62
1
 10
5.0027614E+002
 20
1.2551037E+002
 11
4.9877614E+002
 21
1.2701037E+002
  0
LINE
  8
106
  6
CENTERLINE
 62
1
 10
5.0277614E+002
 20
1.2801037E+002
 11
5.0277614E+002
 21
1.1406396E+002
  0
LINE
  8
105
  6
HIDDEN
 62
1
 10
4.5677614E+002
 20
1.2701036E+002
 11
4.5527614E+002
 21
1.2551036E+002
  0
LINE
  8
104
  6
CONTINUOUS
 62
40
 10
4.5527614E+002
 20
1.2551036E+002
 11
4.5527614E+002
 21
1.1501036E+002
  0
LINE
  8
104
  6
CONTINUOUS
 62
40
 10
4.5527614E+002
 20
1.1501036E+002
 11
4.5027614E+002
 21
1.1501036E+002
  0
LINE
  8
104
  6
CONTINUOUS
 62
40
 10
4.5027614E+002
 20
1.1501036E+002
 11
4.5027614E+002
 21
1.2551036E+002
  0
LINE
  8
105
  6
HIDDEN
 62
1
 10
4.5027614E+002
 20
1.2551036E+002
 11
4.4877614E+002
 21
1.2701036E+002
  0
LINE
  8
106
  6
CENTERLINE
 62
1
 10
3.5277615E+002
 20
1.2801037E+002
 11
3.5277615E+002
 21
1.1406396E+002
  0
LINE
  8
104
  6
CONTINUOUS
 62
40
 10
4.8121424E+002
 20
1.3551037E+002
 11
5.4277614E+002
 21
1.3551037E+002
  0
LINE
  8
104
  6
CONTINUOUS
 62
40
 10
4.8121424E+002
 20
1.3551037E+002
 11
4.7850861E+002
 21
1.3551037E+002
  0
LINE
  8
104
  6
CONTINUOUS
 62
40
 10
4.7850861E+002
 20
1.3551037E+002
 11
2.9127615E+002
 21
1.3551037E+002
  0
LINE
  8
104
  6
CONTINUOUS
 62
40
 10
2.9127615E+002
 20
1.3551037E+002
 11
2.9127615E+002
 21
1.2551037E+002
  0
LINE
  8
104
  6
CONTINUOUS
 62
40
 10
2.9127615E+002
 20
1.2551037E+002
 11
4.7850861E+002
 21
1.2551037E+002
  0
LINE
  8
104
  6
CONTINUOUS
 62
40
 10
4.8121424E+002
 20
1.2551037E+002
 11
4.7850861E+002
 21
1.2551037E+002
  0
LINE
  8
104
  6
CONTINUOUS
 62
40
 10
4.7850861E+002
 20
1.2551037E+002
 11
5.0916644E+002
 21
1.2551037E+002
  0
LINE
  8
104
  6
CONTINUOUS
 62
40
 10
5.0916644E+002
 20
1.2551037E+002
 11
5.4277614E+002
 21
1.2551036E+002
  0
LINE
  8
105
  6
HIDDEN
 62
1
 10
4.7850861E+002
 20
1.2701037E+002
 11
5.4127612E+002
 21
1.2701037E+002
  0
LINE
  8
104
  6
CONTINUOUS
 62
40
 10
5.4277614E+002
 20
1.3551037E+002
 11
5.4277612E+002
 21
1.2551036E+002
  0
LINE
  8
105
  6
HIDDEN
 62
1
 10
5.4127612E+002
 20
1.3551037E+002
 11
5.4127612E+002
 21
1.2701037E+002
  0
LINE
  8
105
  6
HIDDEN
 62
1
 10
4.7850861E+002
 20
1.2701037E+002
 11
2.9277615E+002
 21
1.2701037E+002
  0
LINE
  8
105
  6
HIDDEN
 62
1
 10
2.9277615E+002
 20
1.2701037E+002
 11
2.9277615E+002
 21
1.3551037E+002
  0
LINE
  8
104
  6
CONTINUOUS
 62
40
 10
5.427761E+002
 20
8.9014904E+001
 11
5.427761E+002
 21
6.4014908E+001
  0
LINE
  8
104
  6
CONTINUOUS
 62
40
 10
5.412761E+002
 20
6.2514908E+001
 11
5.412761E+002
 21
9.0514904E+001
  0
LINE
  8
104
  6
CONTINUOUS
 62
40
 10
5.427761E+002
 20
8.5514908E+001
 11
4.7121423E+002
 21
8.5514908E+001
  0
LINE
  8
104
  6
CONTINUOUS
 62
40
 10
4.7121423E+002
 20
8.5514908E+001
 11
4.6850861E+002
 21
8.5514908E+001
  0
LINE
  8
104
  6
CONTINUOUS
 62
40
 10
4.6850861E+002
 20
8.5514908E+001
 11
2.9277613E+002
 21
8.5514908E+001
  0
LINE
  8
104
  6
CONTINUOUS
 62
40
 10
2.9277613E+002
 20
6.7514908E+001
 11
4.6850861E+002
 21
6.7514908E+001
  0
LINE
  8
104
  6
CONTINUOUS
 62
40
 10
3.0517145E+002
 20
8.3324433E+001
 11
2.9896662E+002
 21
7.7119599E+001
  0
LINE
  8
104
  6
CONTINUOUS
 62
40
 10
3.0038084E+002
 20
7.5705399E+001
 11
3.0658564E+002
 21
8.1910218E+001
  0
LINE
  8
104
  6
CONTINUOUS
 62
40
 10
5.0517144E+002
 20
7.7324433E+001
 11
4.9896661E+002
 21
7.1119599E+001
  0
LINE
  8
104
  6
CONTINUOUS
 62
40
 10
5.0038079E+002
 20
6.9705399E+001
 11
5.0658563E+002
 21
7.5910218E+001
  0
LINE
  8
104
  6
CONTINUOUS
 62
40
 10
4.5517145E+002
 20
8.3324433E+001
 11
4.4896661E+002
 21
7.7119599E+001
  0
LINE
  8
104
  6
CONTINUOUS
 62
40
 10
4.5038086E+002
 20
7.5705399E+001
 11
4.5658563E+002
 21
8.1910218E+001
  0
LINE
  8
104
  6
CONTINUOUS
 62
40
 10
3.5517145E+002
 20
7.7324433E+001
 11
3.4896662E+002
 21
7.1119599E+001
  0
LINE
  8
104
  6
CONTINUOUS
 62
40
 10
3.5038083E+002
 20
6.9705399E+001
 11
3.5658564E+002
 21
7.5910218E+001
  0
LINE
  8
106
  6
CENTERLINE
 62
1
 10
2.9554835E+002
 20
7.9514908E+001
 11
3.1001514E+002
 21
7.9514908E+001
  0
LINE
  8
106
  6
CENTERLINE
 62
1
 10
3.0277613E+002
 20
8.6791455E+001
 11
3.0277613E+002
 21
7.3514908E+001
  0
LINE
  8
106
  6
CENTERLINE
 62
1
 10
3.5277613E+002
 20
7.9514908E+001
 11
3.5277613E+002
 21
6.659253E+001
  0
LINE
  8
106
  6
CENTERLINE
 62
1
 10
4.5277612E+002
 20
8.7064419E+001
 11
4.5277612E+002
 21
7.3514908E+001
  0
LINE
  8
106
  6
CENTERLINE
 62
1
 10
5.0277612E+002
 20
7.9514908E+001
 11
5.0277612E+002
 21
6.659253E+001
  0
LINE
  8
106
  6
CENTERLINE
 62
1
 10
5.1176238E+002
 20
7.3514908E+001
 11
4.9595214E+002
 21
7.3514908E+001
  0
LINE
  8
106
  6
CENTERLINE
 62
1
 10
4.5986945E+002
 20
7.9514908E+001
 11
4.4540265E+002
 21
7.9514908E+001
  0
LINE
  8
106
  6
CENTERLINE
 62
1
 10
3.6051249E+002
 20
7.3514908E+001
 11
3.4495383E+002
 21
7.3514908E+001
  0
CIRCLE
  8
104
  6
CONTINUOUS
 62
40
 10
3.0277613E+002
 20
7.9514908E+001
 40
4.499998
  0
CIRCLE
  8
104
  6
CONTINUOUS
 62
40
 10
5.0277612E+002
 20
7.3514908E+001
 40
4.5
  0
CIRCLE
  8
104
  6
CONTINUOUS
 62
40
 10
4.5277612E+002
 20
7.9514908E+001
 40
4.5
  0
LINE
  8
104
  6
CONTINUOUS
 62
40
 10
4.7121423E+002
 20
6.7514908E+001
 11
4.6850861E+002
 21
6.7514908E+001
  0
LINE
  8
104
  6
CONTINUOUS
 62
40
 10
4.6850861E+002
 20
6.7514908E+001
 11
5.427761E+002
 21
6.7514908E+001
  0
CIRCLE
  8
104
  6
CONTINUOUS
 62
40
 10
3.5277613E+002
 20
7.3514908E+001
 40
4.5
  0
LINE
  8
104
  6
CONTINUOUS
 62
40
 10
2.9277613E+002
 20
8.9014904E+001
 11
2.9127613E+002
 21
8.9014904E+001
  0
LINE
  8
104
  6
CONTINUOUS
 62
40
 10
2.9127613E+002
 20
8.9014904E+001
 11
2.9127613E+002
 21
6.4014908E+001
  0
LINE
  8
104
  6
CONTINUOUS
 62
40
 10
2.9127613E+002
 20
6.4014908E+001
 11
2.9277613E+002
 21
6.4014908E+001
  0
LINE
  8
104
  6
CONTINUOUS
 62
40
 10
4.6850861E+002
 20
8.9014904E+001
 11
2.9277613E+002
 21
8.9014904E+001
  0
LINE
  8
104
  6
CONTINUOUS
 62
40
 10
4.6850861E+002
 20
6.4014908E+001
 11
2.9277613E+002
 21
6.4014908E+001
  0
LINE
  8
104
  6
CONTINUOUS
 62
40
 10
5.4127609E+002
 20
9.0514904E+001
 11
4.7121423E+002
 21
9.0514904E+001
  0
LINE
  8
104
  6
CONTINUOUS
 62
40
 10
4.7121423E+002
 20
9.0514904E+001
 11
4.6850861E+002
 21
9.0514904E+001
  0
LINE
  8
104
  6
CONTINUOUS
 62
40
 10
4.7121423E+002
 20
8.9014904E+001
 11
4.6850861E+002
 21
8.9014904E+001
  0
LINE
  8
104
  6
CONTINUOUS
 62
40
 10
4.6850861E+002
 20
8.9014904E+001
 11
5.427761E+002
 21
8.9014904E+001
  0
LINE
  8
104
  6
CONTINUOUS
 62
40
 10
5.427761E+002
 20
6.4014908E+001
 11
4.7121423E+002
 21
6.4014908E+001
  0
LINE
  8
104
  6
CONTINUOUS
 62
40
 10
4.7121423E+002
 20
6.4014908E+001
 11
4.6850861E+002
 21
6.4014908E+001
  0
LINE
  8
104
  6
CONTINUOUS
 62
40
 10
4.7121423E+002
 20
6.2514908E+001
 11
4.6850861E+002
 21
6.2514908E+001
  0
LINE
  8
104
  6
CONTINUOUS
 62
40
 10
4.6850861E+002
 20
6.2514908E+001
 11
5.4127609E+002
 21
6.2514908E+001
  0
LINE
  8
104
  6
CONTINUOUS
 62
40
 10
4.6850861E+002
 20
9.0514904E+001
 11
2.9277613E+002
 21
9.0514904E+001
  0
LINE
  8
104
  6
CONTINUOUS
 62
40
 10
2.9277613E+002
 20
9.0514904E+001
 11
2.9277613E+002
 21
6.2514908E+001
  0
LINE
  8
104
  6
CONTINUOUS
 62
40
 10
2.9277613E+002
 20
6.2514908E+001
 11
4.6850861E+002
 21
6.2514908E+001
  0
TEXT
  8
103
  6
CONTINUOUS
 62
40
 10
3.7726987E+002
 20
3.8406986E+002
 40
1.0E+001
  1
RTS 85 Anschlagtueren
 41
6.6428571E-001
 72
1
 11
3.0751987E+002
 21
3.7906986E+002
 73
2
  0
TEXT
  8
103
  6
CONTINUOUS
 62
40
 10
4.5742577E+002
 20
2.4771188E+002
 40
7.0
  1
Türhebel mit Gleitschiene Art.-Nr.
 41
6.6838237E-001
 72
1
 11
3.7788826E+002
 21
2.4421188E+002
 73
2
  0
TEXT
  8
103
  6
CONTINUOUS
 62
40
 10
4.8205168E+002
 20
2.4746614E+002
 40
6.9999999
  1
8510
 41
6.1875E-001
 72
1
 11
4.7338918E+002
 21
2.4396614E+002
 73
2
  0
CIRCLE
  8
99
  6
CONTINUOUS
 62
1
 10
5.4392843E+002
 20
2.0425329E+002
 40
7.900024
  0
LINE
  8
106
  6
CENTERLINE
 62
1
 10
2.929284E+002
 20
1.8808362E+002
 11
2.929284E+002
 21
2.2051966E+002
  0
LINE
  8
105
  6
HIDDEN
 62
1
 10
2.876784E+002
 20
2.192533E+002
 11
2.876784E+002
 21
2.1175329E+002
  0
LINE
  8
105
  6
HIDDEN
 62
1
 10
2.876784E+002
 20
2.1175329E+002
 11
2.981784E+002
 21
2.1175329E+002
  0
LINE
  8
105
  6
HIDDEN
 62
1
 10
2.981784E+002
 20
2.1175329E+002
 11
2.981784E+002
 21
2.192533E+002
  0
LINE
  8
105
  6
HIDDEN
 62
1
 10
2.894284E+002
 20
2.1175329E+002
 11
2.894284E+002
 21
2.0125329E+002
  0
LINE
  8
105
  6
HIDDEN
 62
1
 10
2.894284E+002
 20
2.0125329E+002
 11
2.964284E+002
 21
2.0125329E+002
  0
LINE
  8
105
  6
HIDDEN
 62
1
 10
2.964284E+002
 20
2.0125329E+002
 11
2.964284E+002
 21
2.1175329E+002
  0
LINE
  8
105
  6
HIDDEN
 62
1
 10
2.899284E+002
 20
2.0125329E+002
 11
2.899284E+002
 21
1.8925329E+002
  0
LINE
  8
105
  6
HIDDEN
 62
1
 10
2.909284E+002
 20
1.8925329E+002
 11
2.909284E+002
 21
2.0125329E+002
  0
LINE
  8
105
  6
HIDDEN
 62
1
 10
2.949284E+002
 20
2.0125329E+002
 11
2.949284E+002
 21
1.8925329E+002
  0
LINE
  8
105
  6
HIDDEN
 62
1
 10
2.959284E+002
 20
1.8925329E+002
 11
2.959284E+002
 21
2.0125329E+002
  0
LINE
  8
105
  6
HIDDEN
 62
1
 10
2.726784E+002
 20
1.8925329E+002
 11
2.726784E+002
 21
1.9675329E+002
  0
LINE
  8
105
  6
HIDDEN
 62
1
 10
2.726784E+002
 20
1.9675329E+002
 11
2.831784E+002
 21
1.9675329E+002
  0
LINE
  8
105
  6
HIDDEN
 62
1
 10
2.831784E+002
 20
1.9675329E+002
 11
2.831784E+002
 21
1.8925329E+002
  0
LINE
  8
105
  6
HIDDEN
 62
1
 10
2.814284E+002
 20
1.9675329E+002
 11
2.814284E+002
 21
2.0725329E+002
  0
LINE
  8
105
  6
HIDDEN
 62
1
 10
2.814284E+002
 20
2.0725329E+002
 11
2.744284E+002
 21
2.0725329E+002
  0
LINE
  8
105
  6
HIDDEN
 62
1
 10
2.744284E+002
 20
2.0725329E+002
 11
2.744284E+002
 21
1.9675329E+002
  0
LINE
  8
105
  6
HIDDEN
 62
1
 10
2.809284E+002
 20
2.0725329E+002
 11
2.809284E+002
 21
2.192533E+002
  0
LINE
  8
105
  6
HIDDEN
 62
1
 10
2.799284E+002
 20
2.192533E+002
 11
2.799284E+002
 21
2.0725329E+002
  0
LINE
  8
105
  6
HIDDEN
 62
1
 10
2.759284E+002
 20
2.0725329E+002
 11
2.759284E+002
 21
2.192533E+002
  0
LINE
  8
105
  6
HIDDEN
 62
1
 10
2.749284E+002
 20
2.192533E+002
 11
2.749284E+002
 21
2.0725329E+002
  0
LINE
  8
106
  6
CENTERLINE
 62
1
 10
2.779284E+002
 20
1.8832531E+002
 11
2.779284E+002
 21
2.2066468E+002
  0
LINE
  8
104
  6
CONTINUOUS
 62
40
 10
2.7207839E+002
 20
2.0325329E+002
 11
3.2221737E+002
 21
2.0325329E+002
  0
LINE
  8
104
  6
CONTINUOUS
 62
40
 10
2.577784E+002
 20
2.0325329E+002
 11
2.5250965E+002
 21
2.0325329E+002
  0
LINE
  8
104
  6
CONTINUOUS
 62
40
 10
2.5250965E+002
 20
2.0325329E+002
 11
2.5250965E+002
 21
2.0525329E+002
  0
LINE
  8
104
  6
CONTINUOUS
 62
40
 10
2.5250965E+002
 20
2.0525329E+002
 11
2.577784E+002
 21
2.0525329E+002
  0
LINE
  8
104
  6
CONTINUOUS
 62
40
 10
2.7207839E+002
 20
2.0525329E+002
 11
3.2221737E+002
 21
2.0525329E+002
  0
LINE
  8
104
  6
CONTINUOUS
 62
40
 10
3.2221737E+002
 20
2.0525329E+002
 11
3.2221737E+002
 21
2.0325329E+002
  0
LINE
  8
105
  6
HIDDEN
 62
1
 10
3.2221737E+002
 20
2.0325329E+002
 11
3.2934713E+002
 21
2.0325329E+002
  0
LINE
  8
105
  6
HIDDEN
 62
1
 10
3.2934713E+002
 20
2.0325329E+002
 11
3.2934713E+002
 21
2.0525329E+002
  0
LINE
  8
105
  6
HIDDEN
 62
1
 10
3.2934713E+002
 20
2.0525329E+002
 11
3.2221737E+002
 21
2.0525329E+002
  0
LINE
  8
99
  6
CONTINUOUS
 62
1
 10
3.2221737E+002
 20
2.0325329E+002
 11
3.2221737E+002
 21
2.0525329E+002
  0
ARC
  8
104
  6
CONTINUOUS
 62
40
 10
2.649284E+002
 20
2.0425329E+002
 40
1.0499998E+001
 50
1.8546503E+002
 51
5.3453497E+002
  0
LINE
  8
104
  6
CONTINUOUS
 62
40
 10
2.577784E+002
 20
2.0525329E+002
 11
2.577784E+002
 21
2.1012185E+002
  0
ARC
  8
104
  6
CONTINUOUS
 62
40
 10
2.649284E+002
 20
2.0425329E+002
 40
9.2499958
 50
1.2937841E+002
 51
1.4062159E+002
  0
LINE
  8
104
  6
CONTINUOUS
 62
40
 10
2.5905983E+002
 20
2.1140329E+002
 11
2.7079696E+002
 21
2.1140329E+002
  0
ARC
  8
104
  6
CONTINUOUS
 62
40
 10
2.649284E+002
 20
2.0425329E+002
 40
9.2499958
 50
3.9378412E+001
 51
5.0621588E+001
  0
LINE
  8
104
  6
CONTINUOUS
 62
40
 10
2.7207839E+002
 20
2.1012185E+002
 11
2.7207839E+002
 21
2.0525329E+002
  0
LINE
  8
104
  6
CONTINUOUS
 62
40
 10
2.7207839E+002
 20
2.0325329E+002
 11
2.7207839E+002
 21
1.9838473E+002
  0
ARC
  8
104
  6
CONTINUOUS
 62
40
 10
2.649284E+002
 20
2.0425329E+002
 40
9.2499952
 50
3.0937842E+002
 51
3.2062159E+002
  0
LINE
  8
104
  6
CONTINUOUS
 62
40
 10
2.7079696E+002
 20
1.971033E+002
 11
2.5905983E+002
 21
1.971033E+002
  0
ARC
  8
104
  6
CONTINUOUS
 62
40
 10
2.649284E+002
 20
2.0425329E+002
 40
9.249995
 50
2.1937841E+002
 51
2.3062158E+002
  0
LINE
  8
104
  6
CONTINUOUS
 62
40
 10
2.577784E+002
 20
1.9838473E+002
 11
2.577784E+002
 21
2.0325329E+002
  0
LINE
  8
104
  6
CONTINUOUS
 62
40
 10
2.999284E+002
 20
2.192533E+002
 11
2.649284E+002
 21
2.192533E+002
  0
ARC
  8
104
  6
CONTINUOUS
 62
40
 10
2.649284E+002
 20
2.042533E+002
 40
1.5000004E+001
 50
9.0E+001
 51
2.7E+002
  0
LINE
  8
104
  6
CONTINUOUS
 62
40
 10
2.649284E+002
 20
1.8925329E+002
 11
2.999284E+002
 21
1.8925329E+002
  0
LINE
  8
104
  6
CONTINUOUS
 62
40
 10
2.999284E+002
 20
1.8925329E+002
 11
5.4392843E+002
 21
1.9425329E+002
  0
ARC
  8
104
  6
CONTINUOUS
 62
40
 10
5.4392843E+002
 20
2.0425329E+002
 40
9.9999995
 50
2.7E+002
 51
4.5E+002
  0
LINE
  8
104
  6
CONTINUOUS
 62
40
 10
5.4392843E+002
 20
2.1425329E+002
 11
2.999284E+002
 21
2.192533E+002
  0
LINE
  8
106
  6
CENTERLINE
 62
1
 10
2.4722136E+002
 20
2.0425329E+002
 11
5.5852999E+002
 21
2.0425329E+002
  0
LINE
  8
106
  6
CENTERLINE
 62
1
 10
5.4392843E+002
 20
1.9071814E+002
 11
5.4392843E+002
 21
2.1740174E+002
  0
LINE
  8
106
  6
CENTERLINE
 62
1
 10
2.649284E+002
 20
1.8569079E+002
 11
2.649284E+002
 21
2.228158E+002
  0
LINE
  8
105
  6
HIDDEN
 62
1
 10
1.2116579E+002
 20
2.8677655E+002
 11
1.2116579E+002
 21
2.8527658E+002
  0
LINE
  8
105
  6
HIDDEN
 62
1
 10
1.2116579E+002
 20
2.8527658E+002
 11
1.0016579E+002
 21
2.8527658E+002
  0
LINE
  8
105
  6
HIDDEN
 62
1
 10
1.0016579E+002
 20
2.8527658E+002
 11
1.0016579E+002
 21
2.8677655E+002
  0
LINE
  8
105
  6
HIDDEN
 62
1
 10
1.0016579E+002
 20
2.7377658E+002
 11
1.0016579E+002
 21
2.7527658E+002
  0
LINE
  8
105
  6
HIDDEN
 62
1
 10
1.0016579E+002
 20
2.7527658E+002
 11
1.2116579E+002
 21
2.7527658E+002
  0
LINE
  8
105
  6
HIDDEN
 62
1
 10
1.2116579E+002
 20
2.7527658E+002
 11
1.2116579E+002
 21
2.7377658E+002
  0
LINE
  8
106
  6
CENTERLINE
 62
1
 10
1.1066579E+002
 20
2.8906131E+002
 11
1.1066579E+002
 21
2.7110002E+002
  0
LINE
  8
104
  6
CONTINUOUS
 62
40
 10
1.2445006E+002
 20
2.7377658E+002
 11
9.6881491E+001
 21
2.7377658E+002
  0
ARC
  8
104
  6
CONTINUOUS
 62
40
 10
9.6881506E+001
 20
2.7477658E+002
 40
9.9999869E-001
 50
1.8599962E+002
 51
2.6999917E+002
  0
LINE
  8
104
  6
CONTINUOUS
 62
40
 10
9.5886985E+001
 20
2.7467206E+002
 11
9.5665793E+001
 21
2.7677652E+002
  0
LINE
  8
104
  6
CONTINUOUS
 62
40
 10
9.5665793E+001
 20
2.7677652E+002
 11
9.6622703E+001
 21
2.8588107E+002
  0
ARC
  8
104
  6
CONTINUOUS
 62
40
 10
9.7617243E+001
 20
2.8577653E+002
 40
1.0000197
 50
9.0000167E+001
 51
1.739993E+002
  0
LINE
  8
104
  6
CONTINUOUS
 62
40
 10
9.761724E+001
 20
2.8677655E+002
 11
1.2371438E+002
 21
2.8677655E+002
  0
ARC
  8
104
  6
CONTINUOUS
 62
40
 10
1.2371436E+002
 20
2.8577655E+002
 40
9.9999678E-001
 50
5.9995191
 51
8.999928E+001
  0
LINE
  8
104
  6
CONTINUOUS
 62
40
 10
1.2470888E+002
 20
2.8588107E+002
 11
1.2639867E+002
 21
2.7977658E+002
  0
LINE
  8
104
  6
CONTINUOUS
 62
40
 10
1.0488149E+002
 20
2.7977658E+002
 11
1.039811E+002
 21
2.7977658E+002
  0
LINE
  8
104
  6
CONTINUOUS
 62
40
 10
1.039811E+002
 20
2.7977658E+002
 11
1.3245009E+002
 21
2.7977658E+002
  0
ARC
  8
104
  6
CONTINUOUS
 62
40
 10
1.3245006E+002
 20
2.7877656E+002
 40
1.000015
 50
5.9986717
 51
8.9998155E+001
  0
LINE
  8
104
  6
CONTINUOUS
 62
40
 10
1.334446E+002
 20
2.7888107E+002
 11
1.3366579E+002
 21
2.7677658E+002
  0
LINE
  8
104
  6
CONTINUOUS
 62
40
 10
1.3366579E+002
 20
2.7677658E+002
 11
1.3344457E+002
 21
2.7467203E+002
  0
LINE
  8
104
  6
CONTINUOUS
 62
40
 10
1.3344457E+002
 20
2.7467203E+002
 11
1.3343517E+002
 21
2.745825E+002
  0
ARC
  8
104
  6
CONTINUOUS
 62
40
 10
1.325401E+002
 20
2.7467656E+002
 40
9.0000023E-001
 50
2.6999939E+002
 51
3.5400092E+002
  0
LINE
  8
104
  6
CONTINUOUS
 62
40
 10
1.3254009E+002
 20
2.7377656E+002
 11
1.2539336E+002
 21
2.7377656E+002
  0
LINE
  8
104
  6
CONTINUOUS
 62
40
 10
1.2539336E+002
 20
2.7377656E+002
 11
1.2445006E+002
 21
2.7377656E+002
  0
LINE
  8
106
  6
CENTERLINE
 62
1
 10
1.2366579E+002
 20
2.8102603E+002
 11
1.2366579E+002
 21
2.7173875E+002
  0
LINE
  8
104
  6
CONTINUOUS
 62
40
 10
9.761724E+001
 20
2.8677658E+002
 11
1.039811E+002
 21
2.7977658E+002
  0
LINE
  8
99
  6
CONTINUOUS
 62
1
 10
1.2766579E+002
 20
2.7377656E+002
 11
1.2766579E+002
 21
2.7327655E+002
  0
LINE
  8
99
  6
CONTINUOUS
 62
1
 10
1.1966579E+002
 20
2.7377658E+002
 11
1.1966579E+002
 21
2.7327655E+002
  0
LINE
  8
104
  6
CONTINUOUS
 62
40
 10
1.1541579E+002
 20
2.7327655E+002
 11
1.1516579E+002
 21
2.7327655E+002
  0
LINE
  8
104
  6
CONTINUOUS
 62
40
 10
1.1516579E+002
 20
2.7327655E+002
 11
1.1516579E+002
 21
2.7077655E+002
  0
LINE
  8
104
  6
CONTINUOUS
 62
40
 10
1.1516579E+002
 20
2.7077655E+002
 11
1.1216579E+002
 21
2.7077655E+002
  0
LINE
  8
104
  6
CONTINUOUS
 62
40
 10
1.1216579E+002
 20
2.7077655E+002
 11
1.1116579E+002
 21
2.6977655E+002
  0
LINE
  8
104
  6
CONTINUOUS
 62
40
 10
1.1116579E+002
 20
2.6977655E+002
 11
1.1116579E+002
 21
2.6527655E+002
  0
LINE
  8
104
  6
CONTINUOUS
 62
40
 10
1.1116579E+002
 20
2.6527655E+002
 11
1.1216579E+002
 21
2.6427655E+002
  0
LINE
  8
104
  6
CONTINUOUS
 62
40
 10
1.1216579E+002
 20
2.6427655E+002
 11
1.1441579E+002
 21
2.6427655E+002
  0
LINE
  8
104
  6
CONTINUOUS
 62
40
 10
1.1441579E+002
 20
2.6427655E+002
 11
1.1541579E+002
 21
2.6527655E+002
  0
LINE
  8
104
  6
CONTINUOUS
 62
40
 10
1.1541579E+002
 20
2.6527655E+002
 11
1.3191579E+002
 21
2.6527655E+002
  0
LINE
  8
104
  6
CONTINUOUS
 62
40
 10
1.3191579E+002
 20
2.6527655E+002
 11
1.3291579E+002
 21
2.6427655E+002
  0
LINE
  8
104
  6
CONTINUOUS
 62
40
 10
1.3291579E+002
 20
2.6427655E+002
 11
1.3516579E+002
 21
2.6427655E+002
  0
LINE
  8
104
  6
CONTINUOUS
 62
40
 10
1.3516579E+002
 20
2.6427655E+002
 11
1.3616579E+002
 21
2.6527655E+002
  0
LINE
  8
104
  6
CONTINUOUS
 62
40
 10
1.3616579E+002
 20
2.6527655E+002
 11
1.3616579E+002
 21
2.6977655E+002
  0
LINE
  8
104
  6
CONTINUOUS
 62
40
 10
1.3616579E+002
 20
2.6977655E+002
 11
1.3516579E+002
 21
2.7077656E+002
  0
LINE
  8
104
  6
CONTINUOUS
 62
40
 10
1.3516579E+002
 20
2.7077656E+002
 11
1.3216579E+002
 21
2.7077656E+002
  0
LINE
  8
104
  6
CONTINUOUS
 62
40
 10
1.3216579E+002
 20
2.7077656E+002
 11
1.3216579E+002
 21
2.7327655E+002
  0
LINE
  8
104
  6
CONTINUOUS
 62
40
 10
1.3216579E+002
 20
2.7327655E+002
 11
1.1516579E+002
 21
2.7327655E+002
  0
LINE
  8
106
  6
CENTERLINE
 62
1
 10
1.2366579E+002
 20
2.7414889E+002
 11
1.2366579E+002
 21
2.6201112E+002
  0
LINE
  8
104
  6
CONTINUOUS
 62
40
 10
1.3266579E+002
 20
2.7277655E+002
 11
1.3616579E+002
 21
2.7277655E+002
  0
ARC
  8
104
  6
CONTINUOUS
 62
40
 10
1.3616578E+002
 20
2.7127654E+002
 40
1.5000086
 50
3.299531E-004
 51
8.999967E+001
  0
LINE
  8
104
  6
CONTINUOUS
 62
40
 10
1.3766579E+002
 20
2.7127655E+002
 11
1.3766579E+002
 21
2.6427655E+002
  0
ARC
  8
104
  6
CONTINUOUS
 62
40
 10
1.3616579E+002
 20
2.6427655E+002
 40
1.4999979
 50
2.6999992E+002
 51
3.6000008E+002
  0
LINE
  8
104
  6
CONTINUOUS
 62
40
 10
1.3616579E+002
 20
2.6277655E+002
 11
1.1116579E+002
 21
2.6277655E+002
  0
ARC
  8
104
  6
CONTINUOUS
 62
40
 10
1.1116579E+002
 20
2.6427655E+002
 40
1.499998
 50
1.7999992E+002
 51
2.7000023E+002
  0
LINE
  8
104
  6
CONTINUOUS
 62
40
 10
1.0966579E+002
 20
2.6427655E+002
 11
1.0966579E+002
 21
2.7127655E+002
  0
ARC
  8
104
  6
CONTINUOUS
 62
40
 10
1.111658E+002
 20
2.7127655E+002
 40
1.5000087
 50
9.0000181E+001
 51
1.7999997E+002
  0
LINE
  8
104
  6
CONTINUOUS
 62
40
 10
1.1116579E+002
 20
2.7277656E+002
 11
1.1466579E+002
 21
2.7277656E+002
  0
LINE
  8
104
  6
CONTINUOUS
 62
40
 10
1.1466579E+002
 20
2.7277656E+002
 11
1.1466579E+002
 21
2.7127655E+002
  0
LINE
  8
104
  6
CONTINUOUS
 62
40
 10
1.1466579E+002
 20
2.7127655E+002
 11
1.1116579E+002
 21
2.7127655E+002
  0
LINE
  8
104
  6
CONTINUOUS
 62
40
 10
1.1116579E+002
 20
2.7127655E+002
 11
1.1116579E+002
 21
2.6427655E+002
  0
LINE
  8
104
  6
CONTINUOUS
 62
40
 10
1.1116579E+002
 20
2.6427655E+002
 11
1.3616579E+002
 21
2.6427655E+002
  0
LINE
  8
104
  6
CONTINUOUS
 62
40
 10
1.3616579E+002
 20
2.6427655E+002
 11
1.3616579E+002
 21
2.7127655E+002
  0
LINE
  8
104
  6
CONTINUOUS
 62
40
 10
1.3616579E+002
 20
2.7127655E+002
 11
1.3266579E+002
 21
2.7127655E+002
  0
LINE
  8
104
  6
CONTINUOUS
 62
40
 10
1.3266579E+002
 20
2.7127655E+002
 11
1.3266579E+002
 21
2.7277655E+002
  0
LINE
  8
106
  6
CENTERLINE
 62
1
 10
5.4392836E+002
 20
2.7327655E+002
 11
5.4392836E+002
 21
2.6327658E+002
  0
LINE
  8
105
  6
HIDDEN
 62
1
 10
5.2642836E+002
 20
2.7327655E+002
 11
5.6142835E+002
 21
2.7327655E+002
  0
LINE
  8
105
  6
HIDDEN
 62
1
 10
5.6142835E+002
 20
2.7327655E+002
 11
5.6142835E+002
 21
2.6427654E+002
  0
LINE
  8
105
  6
HIDDEN
 62
1
 10
5.6142835E+002
 20
2.6427654E+002
 11
5.2642836E+002
 21
2.6427654E+002
  0
LINE
  8
105
  6
HIDDEN
 62
1
 10
5.2642836E+002
 20
2.6427654E+002
 11
5.2642836E+002
 21
2.7327655E+002
  0
LINE
  8
105
  6
HIDDEN
 62
1
 10
5.2642836E+002
 20
2.7077656E+002
 11
5.6142835E+002
 21
2.7077656E+002
  0
LINE
  8
104
  6
CONTINUOUS
 62
40
 10
5.3602834E+002
 20
2.8077655E+002
 11
5.3602834E+002
 21
2.8127655E+002
  0
LINE
  8
104
  6
CONTINUOUS
 62
40
 10
5.3602834E+002
 20
2.8127655E+002
 11
5.5182839E+002
 21
2.8127655E+002
  0
LINE
  8
104
  6
CONTINUOUS
 62
40
 10
5.5182839E+002
 20
2.8127655E+002
 11
5.5182839E+002
 21
2.8077655E+002
  0
LINE
  8
104
  6
CONTINUOUS
 62
40
 10
2.7937178E+002
 20
2.7777656E+002
 11
2.8081514E+002
 21
2.8027655E+002
  0
LINE
  8
104
  6
CONTINUOUS
 62
40
 10
2.8081514E+002
 20
2.8027655E+002
 11
2.7937176E+002
 21
2.8277655E+002
  0
LINE
  8
104
  6
CONTINUOUS
 62
40
 10
2.7937176E+002
 20
2.8277655E+002
 11
2.7648501E+002
 21
2.8277655E+002
  0
LINE
  8
104
  6
CONTINUOUS
 62
40
 10
2.7648501E+002
 20
2.8277655E+002
 11
2.7504165E+002
 21
2.8027655E+002
  0
LINE
  8
104
  6
CONTINUOUS
 62
40
 10
2.7504165E+002
 20
2.8027655E+002
 11
2.7648501E+002
 21
2.7777656E+002
  0
LINE
  8
104
  6
CONTINUOUS
 62
40
 10
2.7648501E+002
 20
2.7777656E+002
 11
2.7937178E+002
 21
2.7777656E+002
  0
CIRCLE
  8
104
  6
CONTINUOUS
 62
40
 10
2.779284E+002
 20
2.8027655E+002
 40
5.25
  0
ARC
  8
104
  6
CONTINUOUS
 62
40
 10
2.9292838E+002
 20
2.8027657E+002
 40
2.7499858
 50
2.4000026E+002
 51
5.700006E+002
  0
LINE
  8
106
  6
CENTERLINE
 62
1
 10
2.929284E+002
 20
2.7647151E+002
 11
2.929284E+002
 21
2.8398834E+002
  0
LINE
  8
106
  6
CENTERLINE
 62
1
 10
2.9692095E+002
 20
2.8027655E+002
 11
2.7207839E+002
 21
2.8027655E+002
  0
LINE
  8
106
  6
CENTERLINE
 62
1
 10
2.779284E+002
 20
2.7377656E+002
 11
2.779284E+002
 21
2.8677655E+002
  0
CIRCLE
  8
99
  6
CONTINUOUS
 62
1
 10
2.929284E+002
 20
2.8027655E+002
 40
2.0
  0
LINE
  8
105
  6
HIDDEN
 62
1
 10
2.5442839E+002
 20
2.7377656E+002
 11
2.5442839E+002
 21
2.7527656E+002
  0
LINE
  8
105
  6
HIDDEN
 62
1
 10
2.5442839E+002
 20
2.7527656E+002
 11
2.754284E+002
 21
2.7527656E+002
  0
LINE
  8
105
  6
HIDDEN
 62
1
 10
2.754284E+002
 20
2.7527656E+002
 11
2.754284E+002
 21
2.7377656E+002
  0
LINE
  8
105
  6
HIDDEN
 62
1
 10
2.754284E+002
 20
2.8677655E+002
 11
2.754284E+002
 21
2.8527655E+002
  0
LINE
  8
105
  6
HIDDEN
 62
1
 10
2.754284E+002
 20
2.8527655E+002
 11
2.5442839E+002
 21
2.8527655E+002
  0
LINE
  8
105
  6
HIDDEN
 62
1
 10
2.5442839E+002
 20
2.8527655E+002
 11
2.5442839E+002
 21
2.8677655E+002
  0
LINE
  8
106
  6
CENTERLINE
 62
1
 10
5.4392836E+002
 20
2.7327655E+002
 11
5.4392836E+002
 21
2.8235687E+002
  0
ARC
  8
104
  6
CONTINUOUS
 62
40
 10
2.5209705E+002
 20
2.7577655E+002
 40
1.9999876
 50
1.8599977E+002
 51
2.7000034E+002
  0
LINE
  8
104
  6
CONTINUOUS
 62
40
 10
2.5010802E+002
 20
2.755675E+002
 11
2.4992839E+002
 21
2.7727656E+002
  0
LINE
  8
104
  6
CONTINUOUS
 62
40
 10
2.4992839E+002
 20
2.7727656E+002
 11
2.5073867E+002
 21
2.8498562E+002
  0
ARC
  8
104
  6
CONTINUOUS
 62
40
 10
2.5272769E+002
 20
2.8477657E+002
 40
1.999979
 50
9.0000254E+001
 51
1.7399999E+002
  0
LINE
  8
104
  6
CONTINUOUS
 62
40
 10
2.5272768E+002
 20
2.8677655E+002
 11
2.9809997E+002
 21
2.8677655E+002
  0
ARC
  8
104
  6
CONTINUOUS
 62
40
 10
2.9809997E+002
 20
2.8477655E+002
 40
1.9999996
 50
4.5000053E+001
 51
9.0000087E+001
  0
LINE
  8
104
  6
CONTINUOUS
 62
40
 10
2.9951418E+002
 20
2.8619076E+002
 11
3.0317104E+002
 21
2.825339E+002
  0
ARC
  8
104
  6
CONTINUOUS
 62
40
 10
3.0741367E+002
 20
2.8677654E+002
 40
5.9999933
 50
2.2500003E+002
 51
2.7000012E+002
  0
LINE
  8
104
  6
CONTINUOUS
 62
40
 10
3.0741369E+002
 20
2.8077655E+002
 11
5.5175972E+002
 21
2.8077655E+002
  0
ARC
  8
104
  6
CONTINUOUS
 62
40
 10
5.5175976E+002
 20
2.7877655E+002
 40
1.9999937
 50
5.9995235
 51
9.0001023E+001
  0
LINE
  8
104
  6
CONTINUOUS
 62
40
 10
5.537488E+002
 20
2.7898559E+002
 11
5.5392836E+002
 21
2.7727656E+002
  0
LINE
  8
104
  6
CONTINUOUS
 62
40
 10
5.5392836E+002
 20
2.7727656E+002
 11
5.5374874E+002
 21
2.7556749E+002
  0
ARC
  8
104
  6
CONTINUOUS
 62
40
 10
5.5175972E+002
 20
2.7577653E+002
 40
1.9999698
 50
2.7000004E+002
 51
3.5400046E+002
  0
LINE
  8
104
  6
CONTINUOUS
 62
40
 10
5.5175972E+002
 20
2.7377656E+002
 11
2.5209707E+002
 21
2.7377656E+002
  0
LINE
  8
104
  6
CONTINUOUS
 62
40
 10
1.5510096E+002
 20
2.9510226E+002
 11
1.4873002E+002
 21
2.9510226E+002
  0
LINE
  8
104
  6
CONTINUOUS
 62
40
 10
1.4873002E+002
 20
2.9510226E+002
 11
1.4873002E+002
 21
2.9277658E+002
  0
LINE
  8
104
  6
CONTINUOUS
 62
40
 10
6.6230637E+001
 20
2.9510226E+002
 11
7.3335006E+001
 21
2.9510226E+002
  0
LINE
  8
104
  6
CONTINUOUS
 62
40
 10
7.3335006E+001
 20
2.9510226E+002
 11
7.3335006E+001
 21
2.9277658E+002
  0
LINE
  8
104
  6
CONTINUOUS
 62
40
 10
6.6311851E+001
 20
2.9277658E+002
 11
8.6614158E+001
 21
2.9277658E+002
  0
LINE
  8
104
  6
CONTINUOUS
 62
40
 10
9.2717429E+001
 20
2.9277658E+002
 11
1.2861416E+002
 21
2.9277658E+002
  0
LINE
  8
104
  6
CONTINUOUS
 62
40
 10
1.3471742E+002
 20
2.9277658E+002
 11
1.5501973E+002
 21
2.9277658E+002
  0
LINE
  8
104
  6
CONTINUOUS
 62
40
 10
6.6329277E+001
 20
3.3027658E+002
 11
6.5665794E+001
 21
3.1127658E+002
  0
LINE
  8
104
  6
CONTINUOUS
 62
40
 10
6.5665794E+001
 20
3.1127658E+002
 11
6.6311851E+001
 21
2.9277658E+002
  0
LINE
  8
104
  6
CONTINUOUS
 62
40
 10
6.9329277E+001
 20
3.3027658E+002
 11
6.8665794E+001
 21
3.1127658E+002
  0
LINE
  8
104
  6
CONTINUOUS
 62
40
 10
6.8665794E+001
 20
3.1127658E+002
 11
6.9230637E+001
 21
2.9510226E+002
  0
LINE
  8
104
  6
CONTINUOUS
 62
40
 10
1.550023E+002
 20
3.3027658E+002
 11
1.5566578E+002
 21
3.1127658E+002
  0
LINE
  8
104
  6
CONTINUOUS
 62
40
 10
1.5566578E+002
 20
3.1127658E+002
 11
1.5501973E+002
 21
2.9277658E+002
  0
LINE
  8
104
  6
CONTINUOUS
 62
40
 10
1.550023E+002
 20
3.3027658E+002
 11
1.5066578E+002
 21
3.3027658E+002
  0
LINE
  8
104
  6
CONTINUOUS
 62
40
 10
7.0665793E+001
 20
3.3027658E+002
 11
6.6329277E+001
 21
3.3027658E+002
  0
LINE
  8
104
  6
CONTINUOUS
 62
40
 10
1.5200233E+002
 20
3.3027658E+002
 11
1.5266581E+002
 21
3.1127658E+002
  0
LINE
  8
104
  6
CONTINUOUS
 62
40
 10
1.5266581E+002
 20
3.1127658E+002
 11
1.52101E+002
 21
2.9510226E+002
  0
LINE
  8
99
  6
CONTINUOUS
 62
1
 10
1.035158E+002
 20
2.8677658E+002
 11
1.035158E+002
 21
2.8577658E+002
  0
LINE
  8
99
  6
CONTINUOUS
 62
1
 10
1.1781579E+002
 20
2.8677658E+002
 11
1.1781579E+002
 21
2.8577658E+002
  0
LINE
  8
106
  6
CENTERLINE
 62
1
 10
1.1066579E+002
 20
3.3733908E+002
 11
1.1066579E+002
 21
2.6994455E+002
  0
LINE
  8
104
  6
CONTINUOUS
 62
40
 10
9.4665793E+001
 20
2.9277658E+002
 11
9.4665793E+001
 21
2.9077658E+002
  0
ARC
  8
104
  6
CONTINUOUS
 62
40
 10
9.6665793E+001
 20
2.9077658E+002
 40
1.9999996
 50
1.7999999E+002
 51
2.7000001E+002
  0
LINE
  8
104
  6
CONTINUOUS
 62
40
 10
9.6665793E+001
 20
2.8877658E+002
 11
1.2466579E+002
 21
2.8877658E+002
  0
ARC
  8
104
  6
CONTINUOUS
 62
40
 10
1.2466579E+002
 20
2.9077658E+002
 40
1.9999999
 50
2.7E+002
 51
3.6E+002
  0
LINE
  8
104
  6
CONTINUOUS
 62
40
 10
1.2666579E+002
 20
2.9077658E+002
 11
1.2666579E+002
 21
2.9277658E+002
  0
LINE
  8
104
  6
CONTINUOUS
 62
40
 10
1.2081579E+002
 20
2.8877658E+002
 11
1.2081579E+002
 21
2.8777658E+002
  0
ARC
  8
104
  6
CONTINUOUS
 62
40
 10
1.1981579E+002
 20
2.8777656E+002
 40
9.9999914E-001
 50
2.6999995E+002
 51
3.6000097E+002
  0
LINE
  8
104
  6
CONTINUOUS
 62
40
 10
1.1981579E+002
 20
2.8677656E+002
 11
1.015158E+002
 21
2.8677656E+002
  0
ARC
  8
104
  6
CONTINUOUS
 62
40
 10
1.015158E+002
 20
2.8777656E+002
 40
9.9999599E-001
 50
1.7999885E+002
 51
2.7E+002
  0
LINE
  8
104
  6
CONTINUOUS
 62
40
 10
1.005158E+002
 20
2.8777658E+002
 11
1.005158E+002
 21
2.8877658E+002
  0
LINE
  8
105
  6
HIDDEN
 62
1
 10
1.035158E+002
 20
2.8677658E+002
 11
1.035158E+002
 21
2.7477658E+002
  0
LINE
  8
105
  6
HIDDEN
 62
1
 10
1.035158E+002
 20
2.7477658E+002
 11
1.1781579E+002
 21
2.7477658E+002
  0
LINE
  8
105
  6
HIDDEN
 62
1
 10
1.1781579E+002
 20
2.7477658E+002
 11
1.1781579E+002
 21
2.8677658E+002
  0
LINE
  8
105
  6
HIDDEN
 62
1
 10
1.035158E+002
 20
2.8677655E+002
 11
1.1781579E+002
 21
2.7477658E+002
  0
LINE
  8
105
  6
HIDDEN
 62
1
 10
1.1781579E+002
 20
2.8677655E+002
 11
1.035158E+002
 21
2.7477658E+002
  0
LINE
  8
105
  6
HIDDEN
 62
1
 10
8.2665793E+001
 20
3.3127658E+002
 11
8.2665793E+001
 21
3.2827658E+002
  0
LINE
  8
105
  6
HIDDEN
 62
1
 10
8.6665793E+001
 20
3.2827658E+002
 11
8.6665793E+001
 21
3.3127658E+002
  0
LINE
  8
105
  6
HIDDEN
 62
1
 10
1.3466578E+002
 20
3.3127658E+002
 11
1.3466578E+002
 21
3.2827658E+002
  0
LINE
  8
105
  6
HIDDEN
 62
1
 10
1.3866578E+002
 20
3.2827658E+002
 11
1.3866578E+002
 21
3.3127658E+002
  0
LINE
  8
106
  6
CENTERLINE
 62
1
 10
7.9812278E+001
 20
3.1227658E+002
 11
9.922634E+001
 21
3.1227658E+002
  0
LINE
  8
106
  6
CENTERLINE
 62
1
 10
1.2233181E+002
 20
3.1227658E+002
 11
1.4078883E+002
 21
3.1227658E+002
  0
LINE
  8
99
  6
CONTINUOUS
 62
1
 10
1.4166578E+002
 20
3.2727658E+002
 11
1.4166578E+002
 21
3.2327658E+002
  0
LINE
  8
99
  6
CONTINUOUS
 62
1
 10
1.4166578E+002
 20
3.2327658E+002
 11
1.3766578E+002
 21
3.2327658E+002
  0
LINE
  8
99
  6
CONTINUOUS
 62
1
 10
1.3766578E+002
 20
3.2327658E+002
 11
1.3766578E+002
 21
3.2469391E+002
  0
LINE
  8
99
  6
CONTINUOUS
 62
1
 10
1.3766578E+002
 20
3.2469391E+002
 11
1.3566578E+002
 21
3.2469391E+002
  0
LINE
  8
99
  6
CONTINUOUS
 62
1
 10
1.3566578E+002
 20
3.2469391E+002
 11
1.3566578E+002
 21
3.2327658E+002
  0
LINE
  8
99
  6
CONTINUOUS
 62
1
 10
1.3566578E+002
 20
3.2327658E+002
 11
1.3166579E+002
 21
3.2327658E+002
  0
LINE
  8
99
  6
CONTINUOUS
 62
1
 10
1.3166579E+002
 20
3.2327658E+002
 11
1.3166579E+002
 21
3.2727658E+002
  0
LINE
  8
99
  6
CONTINUOUS
 62
1
 10
1.1427147E+002
 20
3.0427658E+002
 11
1.1396428E+002
 21
3.0527658E+002
  0
LINE
  8
99
  6
CONTINUOUS
 62
1
 10
1.490601E+002
 20
3.0427658E+002
 11
1.4943843E+002
 21
3.0527658E+002
  0
LINE
  8
99
  6
CONTINUOUS
 62
1
 10
1.0706011E+002
 20
3.0427658E+002
 11
1.0733425E+002
 21
3.0527658E+002
  0
LINE
  8
99
  6
CONTINUOUS
 62
1
 10
7.2271468E+001
 20
3.0427658E+002
 11
7.1948005E+001
 21
3.0527658E+002
  0
LINE
  8
105
  6
HIDDEN
 62
1
 10
8.1665793E+001
 20
3.2827658E+002
 11
8.1665793E+001
 21
3.3127658E+002
  0
LINE
  8
105
  6
HIDDEN
 62
1
 10
8.7665793E+001
 20
3.2827658E+002
 11
8.7665793E+001
 21
3.3127658E+002
  0
LINE
  8
105
  6
HIDDEN
 62
1
 10
1.3366579E+002
 20
3.2827658E+002
 11
1.3366579E+002
 21
3.3127658E+002
  0
LINE
  8
105
  6
HIDDEN
 62
1
 10
1.3966578E+002
 20
3.2827658E+002
 11
1.3966578E+002
 21
3.3127658E+002
  0
LINE
  8
104
  6
CONTINUOUS
 62
40
 10
9.4450583E+001
 20
3.095141E+002
 11
9.4450583E+001
 21
3.1503909E+002
  0
LINE
  8
104
  6
CONTINUOUS
 62
40
 10
9.4450583E+001
 20
3.1503909E+002
 11
8.9665793E+001
 21
3.1780157E+002
  0
LINE
  8
104
  6
CONTINUOUS
 62
40
 10
8.9665793E+001
 20
3.1780157E+002
 11
8.4881003E+001
 21
3.1503909E+002
  0
LINE
  8
104
  6
CONTINUOUS
 62
40
 10
8.4881003E+001
 20
3.1503909E+002
 11
8.4881003E+001
 21
3.0951407E+002
  0
LINE
  8
104
  6
CONTINUOUS
 62
40
 10
8.4881003E+001
 20
3.0951407E+002
 11
8.9665793E+001
 21
3.0675158E+002
  0
LINE
  8
104
  6
CONTINUOUS
 62
40
 10
8.9665793E+001
 20
3.0675158E+002
 11
9.4450583E+001
 21
3.095141E+002
  0
LINE
  8
104
  6
CONTINUOUS
 62
40
 10
1.364506E+002
 20
3.095141E+002
 11
1.364506E+002
 21
3.1503909E+002
  0
LINE
  8
104
  6
CONTINUOUS
 62
40
 10
1.364506E+002
 20
3.1503909E+002
 11
1.3166579E+002
 21
3.1780157E+002
  0
LINE
  8
104
  6
CONTINUOUS
 62
40
 10
1.3166579E+002
 20
3.1780157E+002
 11
1.26881E+002
 21
3.1503909E+002
  0
LINE
  8
104
  6
CONTINUOUS
 62
40
 10
1.26881E+002
 20
3.1503909E+002
 11
1.26881E+002
 21
3.0951407E+002
  0
LINE
  8
104
  6
CONTINUOUS
 62
40
 10
1.26881E+002
 20
3.0951407E+002
 11
1.3166579E+002
 21
3.0675158E+002
  0
LINE
  8
104
  6
CONTINUOUS
 62
40
 10
1.3166579E+002
 20
3.0675158E+002
 11
1.364506E+002
 21
3.095141E+002
  0
CIRCLE
  8
99
  6
CONTINUOUS
 62
1
 10
1.3166579E+002
 20
3.1227658E+002
 40
4.499993
  0
CIRCLE
  8
104
  6
CONTINUOUS
 62
40
 10
1.3166581E+002
 20
3.1227658E+002
 40
6.500007
  0
CIRCLE
  8
104
  6
CONTINUOUS
 62
40
 10
8.9665808E+001
 20
3.1227658E+002
 40
6.5
  0
CIRCLE
  8
99
  6
CONTINUOUS
 62
1
 10
8.9665808E+001
 20
3.1227658E+002
 40
4.5
  0
LINE
  8
106
  6
CENTERLINE
 62
1
 10
8.9665793E+001
 20
3.2028695E+002
 11
8.9665793E+001
 21
3.0380505E+002
  0
LINE
  8
106
  6
CENTERLINE
 62
1
 10
1.3166579E+002
 20
3.2028695E+002
 11
1.3166579E+002
 21
3.0380505E+002
  0
LINE
  8
99
  6
CONTINUOUS
 62
1
 10
8.9665793E+001
 20
3.2727658E+002
 11
8.9665793E+001
 21
3.2327658E+002
  0
LINE
  8
99
  6
CONTINUOUS
 62
1
 10
8.9665793E+001
 20
3.2327658E+002
 11
8.5665793E+001
 21
3.2327658E+002
  0
LINE
  8
99
  6
CONTINUOUS
 62
1
 10
8.5665793E+001
 20
3.2327658E+002
 11
8.5665793E+001
 21
3.2469391E+002
  0
LINE
  8
99
  6
CONTINUOUS
 62
1
 10
8.5665793E+001
 20
3.2469391E+002
 11
8.3665793E+001
 21
3.2469391E+002
  0
LINE
  8
99
  6
CONTINUOUS
 62
1
 10
8.3665793E+001
 20
3.2469391E+002
 11
8.3665793E+001
 21
3.2327658E+002
  0
LINE
  8
99
  6
CONTINUOUS
 62
1
 10
8.3665793E+001
 20
3.2327658E+002
 11
7.9665793E+001
 21
3.2327658E+002
  0
LINE
  8
99
  6
CONTINUOUS
 62
1
 10
7.9665793E+001
 20
3.2327658E+002
 11
7.9665793E+001
 21
3.2727658E+002
  0
LINE
  8
99
  6
CONTINUOUS
 62
1
 10
7.8665793E+001
 20
3.2827658E+002
 11
7.8665793E+001
 21
3.2727658E+002
  0
LINE
  8
99
  6
CONTINUOUS
 62
1
 10
7.8665793E+001
 20
3.2727658E+002
 11
9.0665793E+001
 21
3.2727658E+002
  0
LINE
  8
99
  6
CONTINUOUS
 62
1
 10
9.0665793E+001
 20
3.2727658E+002
 11
9.0665793E+001
 21
3.2827658E+002
  0
LINE
  8
99
  6
CONTINUOUS
 62
1
 10
1.3066579E+002
 20
3.2827658E+002
 11
1.3066579E+002
 21
3.2727658E+002
  0
LINE
  8
99
  6
CONTINUOUS
 62
1
 10
1.3066579E+002
 20
3.2727658E+002
 11
1.4266578E+002
 21
3.2727658E+002
  0
LINE
  8
99
  6
CONTINUOUS
 62
1
 10
1.4266578E+002
 20
3.2727658E+002
 11
1.4266578E+002
 21
3.2827658E+002
  0
LINE
  8
105
  6
HIDDEN
 62
1
 10
1.4716578E+002
 20
3.3127658E+002
 11
1.4716578E+002
 21
3.2827658E+002
  0
LINE
  8
105
  6
HIDDEN
 62
1
 10
1.2616579E+002
 20
3.3127658E+002
 11
1.2616579E+002
 21
3.2827658E+002
  0
LINE
  8
105
  6
HIDDEN
 62
1
 10
9.5165793E+001
 20
3.3127658E+002
 11
9.5165793E+001
 21
3.2827658E+002
  0
LINE
  8
105
  6
HIDDEN
 62
1
 10
7.4165793E+001
 20
3.3127658E+002
 11
7.4165793E+001
 21
3.2827658E+002
  0
ARC
  8
104
  6
CONTINUOUS
 62
40
 10
1.3166579E+002
 20
3.1127657E+002
 40
2.0999999E+001
 50
2.9824256E+002
 51
3.8520879E+002
  0
ARC
  8
104
  6
CONTINUOUS
 62
40
 10
8.9665794E+001
 20
3.1127658E+002
 40
2.1000004E+001
 50
1.5479122E+002
 51
2.4175742E+002
  0
ARC
  8
104
  6
CONTINUOUS
 62
40
 10
8.966579E+001
 20
3.1127658E+002
 40
1.8749998E+001
 50
2.0192134E+002
 51
3.3807866E+002
  0
ARC
  8
104
  6
CONTINUOUS
 62
40
 10
1.3166579E+002
 20
3.1127658E+002
 40
1.874999E+001
 50
2.0192135E+002
 51
3.3807865E+002
  0
LINE
  8
104
  6
CONTINUOUS
 62
40
 10
1.5066578E+002
 20
3.0527658E+002
 11
7.0665793E+001
 21
3.0527658E+002
  0
LINE
  8
104
  6
CONTINUOUS
 62
40
 10
7.0665793E+001
 20
3.0527658E+002
 11
7.0665793E+001
 21
3.3127658E+002
  0
LINE
  8
104
  6
CONTINUOUS
 62
40
 10
7.0665793E+001
 20
3.3127658E+002
 11
1.5066578E+002
 21
3.3127658E+002
  0
LINE
  8
104
  6
CONTINUOUS
 62
40
 10
1.5066578E+002
 20
3.3127658E+002
 11
1.5066578E+002
 21
3.0527658E+002
  0
LINE
  8
104
  6
CONTINUOUS
 62
40
 10
7.0665793E+001
 20
3.2827658E+002
 11
1.5066578E+002
 21
3.2827658E+002
  0
LINE
  8
106
  6
CENTERLINE
 62
1
 10
1.3666578E+002
 20
3.3430588E+002
 11
1.3666578E+002
 21
3.2149371E+002
  0
LINE
  8
106
  6
CENTERLINE
 62
1
 10
8.4665793E+001
 20
3.3416916E+002
 11
8.4665793E+001
 21
3.223096E+002
  0
LINE
  8
106
  6
CENTERLINE
 62
1
 10
4.689284E+002
 20
3.0090939E+002
 11
4.689284E+002
 21
2.8176877E+002
  0
LINE
  8
106
  6
CENTERLINE
 62
1
 10
4.8292836E+002
 20
2.8122189E+002
 11
4.8292836E+002
 21
3.0200314E+002
  0
LINE
  8
105
  6
HIDDEN
 62
1
 10
2.7207839E+002
 20
2.8677655E+002
 11
2.577784E+002
 21
2.7477656E+002
  0
LINE
  8
105
  6
HIDDEN
 62
1
 10
2.577784E+002
 20
2.8677655E+002
 11
2.7207839E+002
 21
2.7477656E+002
  0
LINE
  8
105
  6
HIDDEN
 62
1
 10
2.0512838E+002
 20
3.2727652E+002
 11
2.0512838E+002
 21
3.3127655E+002
  0
LINE
  8
105
  6
HIDDEN
 62
1
 10
2.0872838E+002
 20
3.2727652E+002
 11
2.0872838E+002
 21
3.3127655E+002
  0
LINE
  8
99
  6
CONTINUOUS
 62
1
 10
2.0392839E+002
 20
3.2727652E+002
 11
2.0392839E+002
 21
3.2550409E+002
  0
LINE
  8
99
  6
CONTINUOUS
 62
1
 10
2.0392839E+002
 20
3.2550409E+002
 11
2.0992839E+002
 21
3.2550409E+002
  0
LINE
  8
99
  6
CONTINUOUS
 62
1
 10
2.0992839E+002
 20
3.2550409E+002
 11
2.0992839E+002
 21
3.2727652E+002
  0
LINE
  8
105
  6
HIDDEN
 62
1
 10
2.0392839E+002
 20
3.2727652E+002
 11
2.0392839E+002
 21
3.3128198E+002
  0
LINE
  8
105
  6
HIDDEN
 62
1
 10
2.0992839E+002
 20
3.2727652E+002
 11
2.0992839E+002
 21
3.3127145E+002
  0
LINE
  8
106
  6
CENTERLINE
 62
1
 10
2.0692839E+002
 20
3.2482324E+002
 11
2.0692839E+002
 21
3.3509985E+002
  0
LINE
  8
99
  6
CONTINUOUS
 62
1
 10
2.0512838E+002
 20
3.2727652E+002
 11
2.0512838E+002
 21
3.2550409E+002
  0
LINE
  8
99
  6
CONTINUOUS
 62
1
 10
2.0872838E+002
 20
3.2727652E+002
 11
2.0872838E+002
 21
3.2550409E+002
  0
LINE
  8
104
  6
CONTINUOUS
 62
40
 10
2.0142839E+002
 20
3.2677655E+002
 11
2.0393352E+002
 21
3.2677655E+002
  0
LINE
  8
104
  6
CONTINUOUS
 62
40
 10
2.0993352E+002
 20
3.2677655E+002
 11
2.1092839E+002
 21
3.2677655E+002
  0
LINE
  8
104
  6
CONTINUOUS
 62
40
 10
2.0142839E+002
 20
3.2677655E+002
 11
2.0042839E+002
 21
3.2529654E+002
  0
LINE
  8
104
  6
CONTINUOUS
 62
40
 10
2.0042839E+002
 20
3.2529654E+002
 11
2.0042839E+002
 21
3.1077655E+002
  0
LINE
  8
106
  6
CENTERLINE
 62
1
 10
2.0692839E+002
 20
3.2377655E+002
 11
2.0692839E+002
 21
3.0190338E+002
  0
LINE
  8
104
  6
CONTINUOUS
 62
40
 10
2.0142839E+002
 20
3.2377655E+002
 11
2.0142839E+002
 21
3.2677655E+002
  0
LINE
  8
104
  6
CONTINUOUS
 62
40
 10
2.0142839E+002
 20
3.2377655E+002
 11
2.0122979E+002
 21
3.2270294E+002
  0
LINE
  8
104
  6
CONTINUOUS
 62
40
 10
2.0122979E+002
 20
3.2270294E+002
 11
2.0093364E+002
 21
3.2188849E+002
  0
LINE
  8
104
  6
CONTINUOUS
 62
40
 10
2.0093364E+002
 20
3.2188849E+002
 11
2.0078554E+002
 21
3.2055575E+002
  0
LINE
  8
104
  6
CONTINUOUS
 62
40
 10
2.0078554E+002
 20
3.2055575E+002
 11
2.0048937E+002
 21
3.1944513E+002
  0
LINE
  8
104
  6
CONTINUOUS
 62
40
 10
2.0048937E+002
 20
3.1944513E+002
 11
2.0042839E+002
 21
3.1856244E+002
  0
LINE
  8
104
  6
CONTINUOUS
 62
40
 10
2.0042839E+002
 20
3.1856244E+002
 11
2.0042839E+002
 21
3.1810895E+002
  0
LINE
  8
104
  6
CONTINUOUS
 62
40
 10
2.0042839E+002
 20
3.1810895E+002
 11
2.0054143E+002
 21
3.1775262E+002
  0
LINE
  8
104
  6
CONTINUOUS
 62
40
 10
2.0054143E+002
 20
3.1775262E+002
 11
2.0071959E+002
 21
3.173963E+002
  0
LINE
  8
104
  6
CONTINUOUS
 62
40
 10
2.0071959E+002
 20
3.173963E+002
 11
2.0089775E+002
 21
3.1716955E+002
  0
LINE
  8
104
  6
CONTINUOUS
 62
40
 10
2.0139724E+002
 20
2.9977655E+002
 11
2.0108172E+002
 21
3.0071274E+002
  0
LINE
  8
104
  6
CONTINUOUS
 62
40
 10
2.0108172E+002
 20
3.0071274E+002
 11
2.0078554E+002
 21
3.018974E+002
  0
LINE
  8
104
  6
CONTINUOUS
 62
40
 10
2.0078554E+002
 20
3.018974E+002
 11
2.0048937E+002
 21
3.035263E+002
  0
LINE
  8
104
  6
CONTINUOUS
 62
40
 10
2.0048937E+002
 20
3.035263E+002
 11
2.0041533E+002
 21
3.0485904E+002
  0
LINE
  8
104
  6
CONTINUOUS
 62
40
 10
2.0041533E+002
 20
3.0485904E+002
 11
2.0063747E+002
 21
3.060437E+002
  0
LINE
  8
104
  6
CONTINUOUS
 62
40
 10
2.0063747E+002
 20
3.060437E+002
 11
2.0072905E+002
 21
3.0677655E+002
  0
LINE
  8
104
  6
CONTINUOUS
 62
40
 10
2.0142839E+002
 20
2.9977655E+002
 11
2.0142839E+002
 21
2.9691614E+002
  0
LINE
  8
104
  6
CONTINUOUS
 62
40
 10
2.0042839E+002
 20
3.0677655E+002
 11
2.0042839E+002
 21
2.9791638E+002
  0
LINE
  8
104
  6
CONTINUOUS
 62
40
 10
2.0042839E+002
 20
2.9791638E+002
 11
2.0156792E+002
 21
2.9677655E+002
  0
LINE
  8
104
  6
CONTINUOUS
 62
40
 10
4.7692836E+002
 20
3.3027655E+002
 11
4.7692836E+002
 21
3.3077655E+002
  0
LINE
  8
104
  6
CONTINUOUS
 62
40
 10
4.7692836E+002
 20
3.3077655E+002
 11
4.60997E+002
 21
3.3077655E+002
  0
LINE
  8
104
  6
CONTINUOUS
 62
40
 10
4.60997E+002
 20
3.3077655E+002
 11
4.60997E+002
 21
3.3027655E+002
  0
LINE
  8
104
  6
CONTINUOUS
 62
40
 10
2.1092839E+002
 20
3.2377655E+002
 11
2.0131188E+002
 21
3.2377655E+002
  0
LINE
  8
104
  6
CONTINUOUS
 62
40
 10
2.1092839E+002
 20
2.9977655E+002
 11
2.0139724E+002
 21
2.9977655E+002
  0
LINE
  8
104
  6
CONTINUOUS
 62
40
 10
2.1092839E+002
 20
2.9677655E+002
 11
2.0156792E+002
 21
2.9677655E+002
  0
LINE
  8
104
  6
CONTINUOUS
 62
40
 10
2.1092839E+002
 20
3.0277655E+002
 11
2.1092839E+002
 21
2.96699E+002
  0
ARC
  8
104
  6
CONTINUOUS
 62
40
 10
2.1292838E+002
 20
2.9669898E+002
 40
1.9999815
 50
1.7999947E+002
 51
2.7000053E+002
  0
LINE
  8
104
  6
CONTINUOUS
 62
40
 10
2.1292839E+002
 20
2.94699E+002
 11
2.1601729E+002
 21
2.94699E+002
  0
LINE
  8
104
  6
CONTINUOUS
 62
40
 10
2.1092839E+002
 20
3.2165143E+002
 11
2.1092839E+002
 21
3.2677655E+002
  0
LINE
  8
104
  6
CONTINUOUS
 62
40
 10
2.1092839E+002
 20
3.2677655E+002
 11
2.109919E+002
 21
3.2727655E+002
  0
LINE
  8
104
  6
CONTINUOUS
 62
40
 10
2.1392839E+002
 20
3.2877655E+002
 11
2.1606932E+002
 21
3.2877655E+002
  0
LINE
  8
104
  6
CONTINUOUS
 62
40
 10
2.2840316E+002
 20
3.3027655E+002
 11
2.1800582E+002
 21
3.3027655E+002
  0
ARC
  8
104
  6
CONTINUOUS
 62
40
 10
2.1800585E+002
 20
3.2827652E+002
 40
2.0000263
 50
9.0000809E+001
 51
1.7799942E+002
  0
LINE
  8
104
  6
CONTINUOUS
 62
40
 10
2.1600704E+002
 20
3.2834634E+002
 11
2.1584984E+002
 21
3.2384497E+002
  0
ARC
  8
104
  6
CONTINUOUS
 62
40
 10
2.1385112E+002
 20
3.239147E+002
 40
1.999941
 50
2.7499873E+002
 51
3.5800202E+002
  0
LINE
  8
104
  6
CONTINUOUS
 62
40
 10
2.1402538E+002
 20
3.2192236E+002
 11
2.1132433E+002
 21
3.2168606E+002
  0
LINE
  8
104
  6
CONTINUOUS
 62
40
 10
2.649284E+002
 20
3.3027655E+002
 11
2.3997979E+002
 21
3.3027655E+002
  0
LINE
  8
104
  6
CONTINUOUS
 62
40
 10
2.3997979E+002
 20
3.3027655E+002
 11
2.3997979E+002
 21
3.3077655E+002
  0
LINE
  8
104
  6
CONTINUOUS
 62
40
 10
2.3997979E+002
 20
3.3077655E+002
 11
2.2972603E+002
 21
3.3077655E+002
  0
ARC
  8
104
  6
CONTINUOUS
 62
40
 10
2.2972604E+002
 20
3.2877655E+002
 40
1.9999974
 50
9.0000221E+001
 51
1.7224969E+002
  0
LINE
  8
104
  6
CONTINUOUS
 62
40
 10
2.2774431E+002
 20
3.2904626E+002
 11
2.2714391E+002
 21
3.2463464E+002
  0
ARC
  8
104
  6
CONTINUOUS
 62
40
 10
2.2516216E+002
 20
3.249044E+002
 40
2.0000245
 50
2.7500004E+002
 51
3.5224848E+002
  0
LINE
  8
104
  6
CONTINUOUS
 62
40
 10
2.2533648E+002
 20
3.2291199E+002
 11
2.0275408E+002
 21
3.2093628E+002
  0
ARC
  8
104
  6
CONTINUOUS
 62
40
 10
2.0292841E+002
 20
3.1894386E+002
 40
2.0000291
 50
9.5000464E+001
 51
1.7999865E+002
  0
LINE
  8
104
  6
CONTINUOUS
 62
40
 10
2.0092838E+002
 20
3.1894391E+002
 11
2.0092838E+002
 21
3.1277655E+002
  0
ARC
  8
104
  6
CONTINUOUS
 62
40
 10
2.0292837E+002
 20
3.1277653E+002
 40
1.9999944
 50
1.7999941E+002
 51
2.7000059E+002
  0
LINE
  8
104
  6
CONTINUOUS
 62
40
 10
2.0292839E+002
 20
3.1077653E+002
 11
2.1292839E+002
 21
3.1077653E+002
  0
LINE
  8
104
  6
CONTINUOUS
 62
40
 10
2.6041729E+002
 20
3.1177655E+002
 11
2.1292839E+002
 21
3.1177655E+002
  0
LINE
  8
104
  6
CONTINUOUS
 62
40
 10
2.1292839E+002
 20
3.1177655E+002
 11
2.1292839E+002
 21
3.1077655E+002
  0
LINE
  8
104
  6
CONTINUOUS
 62
40
 10
2.1292839E+002
 20
3.1177655E+002
 11
2.1074737E+002
 21
3.1177655E+002
  0
LINE
  8
104
  6
CONTINUOUS
 62
40
 10
4.609284E+002
 20
3.3027655E+002
 11
4.611596E+002
 21
3.2658465E+002
  0
LINE
  8
104
  6
CONTINUOUS
 62
40
 10
4.611596E+002
 20
3.2658465E+002
 11
4.6144817E+002
 21
3.2273657E+002
  0
ARC
  8
104
  6
CONTINUOUS
 62
40
 10
4.7945897E+002
 20
3.2430904E+002
 40
1.8079311E+001
 50
1.8498967E+002
 51
1.8846723E+002
  0
ARC
  8
104
  6
CONTINUOUS
 62
40
 10
5.1961979E+002
 20
3.300981E+002
 40
5.8655097E+001
 50
1.8828411E+002
 51
1.898709E+002
  0
ARC
  8
104
  6
CONTINUOUS
 62
40
 10
4.7510051E+002
 20
3.2219921E+002
 40
1.3441598E+001
 50
1.8923116E+002
 51
1.9476251E+002
  0
ARC
  8
104
  6
CONTINUOUS
 62
40
 10
4.6791032E+002
 20
3.2033484E+002
 40
6.0137572
 50
1.9504189E+002
 51
1.9973205E+002
  0
ARC
  8
104
  6
CONTINUOUS
 62
40
 10
4.6554368E+002
 20
3.1948043E+002
 40
3.497613
 50
1.9964679E+002
 51
2.0637728E+002
  0
ARC
  8
104
  6
CONTINUOUS
 62
40
 10
4.6735621E+002
 20
3.2041281E+002
 40
5.535763
 50
2.0668814E+002
 51
2.2812177E+002
  0
LINE
  8
104
  6
CONTINUOUS
 62
40
 10
4.7692836E+002
 20
3.3027655E+002
 11
4.7669729E+002
 21
3.2658465E+002
  0
LINE
  8
104
  6
CONTINUOUS
 62
40
 10
4.7669729E+002
 20
3.2658465E+002
 11
4.7640859E+002
 21
3.2273657E+002
  0
ARC
  8
104
  6
CONTINUOUS
 62
40
 10
4.5842501E+002
 20
3.2430476E+002
 40
1.8051825E+001
 50
3.5153352E+002
 51
3.5501636E+002
  0
ARC
  8
104
  6
CONTINUOUS
 62
40
 10
4.1832389E+002
 20
3.3008438E+002
 40
5.8567163E+001
 50
3.5012776E+002
 51
3.5171693E+002
  0
ARC
  8
104
  6
CONTINUOUS
 62
40
 10
4.6277335E+002
 20
3.2219496E+002
 40
1.342409E+001
 50
3.4523656E+002
 51
3.5077507E+002
  0
ARC
  8
104
  6
CONTINUOUS
 62
40
 10
4.699536E+002
 20
3.2033309E+002
 40
6.0065069
 50
3.4026085E+002
 51
3.4495679E+002
  0
ARC
  8
104
  6
CONTINUOUS
 62
40
 10
4.723167E+002
 20
3.1947963E+002
 40
3.4940184
 50
3.3360813E+002
 51
3.4034609E+002
  0
ARC
  8
104
  6
CONTINUOUS
 62
40
 10
4.7050191E+002
 20
3.2041177E+002
 40
5.5340765
 50
3.1187493E+002
 51
3.3331517E+002
  0
LINE
  8
104
  6
CONTINUOUS
 62
40
 10
4.609284E+002
 20
3.1177655E+002
 11
4.6152446E+002
 21
2.9470675E+002
  0
ARC
  8
104
  6
CONTINUOUS
 62
40
 10
4.6352322E+002
 20
2.9477655E+002
 40
1.9999728
 50
1.8199996E+002
 51
2.7000073E+002
  0
LINE
  8
104
  6
CONTINUOUS
 62
40
 10
4.6352324E+002
 20
2.9277658E+002
 11
4.7433352E+002
 21
2.9277658E+002
  0
ARC
  8
104
  6
CONTINUOUS
 62
40
 10
4.7433352E+002
 20
2.9477657E+002
 40
1.999995
 50
2.6999991E+002
 51
3.5799942E+002
  0
LINE
  8
104
  6
CONTINUOUS
 62
40
 10
4.7633229E+002
 20
2.9470675E+002
 11
4.7692836E+002
 21
3.1177667E+002
  0
LINE
  8
104
  6
CONTINUOUS
 62
40
 10
3.244833E+002
 20
3.3027655E+002
 11
3.27351E+002
 21
3.3027655E+002
  0
ARC
  8
104
  6
CONTINUOUS
 62
40
 10
3.2735095E+002
 20
3.2827649E+002
 40
2.0000563
 50
2.0014131
 51
8.9998363E+001
  0
LINE
  8
104
  6
CONTINUOUS
 62
40
 10
3.2934978E+002
 20
3.2834634E+002
 11
3.299284E+002
 21
3.1177655E+002
  0
LINE
  8
104
  6
CONTINUOUS
 62
40
 10
3.299284E+002
 20
3.1177655E+002
 11
3.2933229E+002
 21
2.9470675E+002
  0
ARC
  8
104
  6
CONTINUOUS
 62
40
 10
3.2733353E+002
 20
2.9477656E+002
 40
1.9999856
 50
2.6999965E+002
 51
3.5799968E+002
  0
LINE
  8
104
  6
CONTINUOUS
 62
40
 10
3.2733352E+002
 20
2.9277658E+002
 11
3.2171544E+002
 21
2.9277658E+002
  0
LINE
  8
106
  6
CENTERLINE
 62
1
 10
2.649284E+002
 20
3.3733905E+002
 11
2.649284E+002
 21
2.7052656E+002
  0
LINE
  8
104
  6
CONTINUOUS
 62
40
 10
2.4892839E+002
 20
2.9277655E+002
 11
2.4892839E+002
 21
2.9027655E+002
  0
ARC
  8
104
  6
CONTINUOUS
 62
40
 10
2.5042838E+002
 20
2.9027653E+002
 40
1.4999838
 50
1.7999938E+002
 51
2.7000062E+002
  0
LINE
  8
104
  6
CONTINUOUS
 62
40
 10
2.5042839E+002
 20
2.8877655E+002
 11
2.794284E+002
 21
2.8877655E+002
  0
ARC
  8
104
  6
CONTINUOUS
 62
40
 10
2.7942841E+002
 20
2.9027655E+002
 40
1.5000009
 50
2.6999946E+002
 51
3.5999997E+002
  0
LINE
  8
104
  6
CONTINUOUS
 62
40
 10
2.8092841E+002
 20
2.9027655E+002
 11
2.8092841E+002
 21
2.9277655E+002
  0
LINE
  8
104
  6
CONTINUOUS
 62
40
 10
2.7507839E+002
 20
2.8877655E+002
 11
2.7507839E+002
 21
2.8677655E+002
  0
LINE
  8
104
  6
CONTINUOUS
 62
40
 10
2.7507839E+002
 20
2.8677655E+002
 11
2.547784E+002
 21
2.8677655E+002
  0
LINE
  8
104
  6
CONTINUOUS
 62
40
 10
2.547784E+002
 20
2.8677655E+002
 11
2.547784E+002
 21
2.8877655E+002
  0
LINE
  8
105
  6
HIDDEN
 62
1
 10
2.577784E+002
 20
2.8577655E+002
 11
2.577784E+002
 21
2.8677655E+002
  0
LINE
  8
105
  6
HIDDEN
 62
1
 10
2.577784E+002
 20
2.8677655E+002
 11
2.577784E+002
 21
2.7477656E+002
  0
LINE
  8
105
  6
HIDDEN
 62
1
 10
2.577784E+002
 20
2.7477656E+002
 11
2.7207839E+002
 21
2.7477656E+002
  0
LINE
  8
105
  6
HIDDEN
 62
1
 10
2.7207839E+002
 20
2.7477656E+002
 11
2.7207839E+002
 21
2.8677655E+002
  0
LINE
  8
104
  6
CONTINUOUS
 62
40
 10
2.848846E+002
 20
2.9277655E+002
 11
2.848846E+002
 21
2.9477655E+002
  0
LINE
  8
104
  6
CONTINUOUS
 62
40
 10
2.848846E+002
 20
2.9477655E+002
 11
2.3653518E+002
 21
2.9477655E+002
  0
LINE
  8
104
  6
CONTINUOUS
 62
40
 10
2.3653518E+002
 20
2.9477655E+002
 11
2.3653518E+002
 21
2.9277655E+002
  0
LINE
  8
104
  6
CONTINUOUS
 62
40
 10
4.922737E+002
 20
2.9302655E+002
 11
4.9742849E+002
 21
2.9302655E+002
  0
LINE
  8
104
  6
CONTINUOUS
 62
40
 10
4.9742849E+002
 20
2.9302655E+002
 11
4.9842849E+002
 21
2.9402655E+002
  0
LINE
  8
104
  6
CONTINUOUS
 62
40
 10
4.9842849E+002
 20
2.9402655E+002
 11
4.9842849E+002
 21
3.2952655E+002
  0
LINE
  8
104
  6
CONTINUOUS
 62
40
 10
4.9842849E+002
 20
3.2952655E+002
 11
4.9742849E+002
 21
3.3052655E+002
  0
LINE
  8
104
  6
CONTINUOUS
 62
40
 10
4.9742849E+002
 20
3.3052655E+002
 11
4.922737E+002
 21
3.3052655E+002
  0
LINE
  8
104
  6
CONTINUOUS
 62
40
 10
4.922737E+002
 20
3.3052655E+002
 11
4.922737E+002
 21
3.3027655E+002
  0
LINE
  8
104
  6
CONTINUOUS
 62
40
 10
4.9226491E+002
 20
2.9277655E+002
 11
4.9292849E+002
 21
3.1177655E+002
  0
LINE
  8
104
  6
CONTINUOUS
 62
40
 10
4.9292849E+002
 20
3.1177655E+002
 11
4.9228237E+002
 21
3.3027655E+002
  0
LINE
  8
104
  6
CONTINUOUS
 62
40
 10
4.9228237E+002
 20
3.3027655E+002
 11
4.7591945E+002
 21
3.3027655E+002
  0
LINE
  8
104
  6
CONTINUOUS
 62
40
 10
4.6243987E+002
 20
3.3027655E+002
 11
2.649284E+002
 21
3.3027655E+002
  0
LINE
  8
104
  6
CONTINUOUS
 62
40
 10
2.3997979E+002
 20
3.3027655E+002
 11
2.3748562E+002
 21
3.3027655E+002
  0
LINE
  8
104
  6
CONTINUOUS
 62
40
 10
2.2589611E+002
 20
2.9277655E+002
 11
4.9226491E+002
 21
2.9277655E+002
  0
LINE
  8
104
  6
CONTINUOUS
 62
40
 10
2.2589611E+002
 20
2.9277655E+002
 11
2.180158E+002
 21
2.9277655E+002
  0
ARC
  8
104
  6
CONTINUOUS
 62
40
 10
2.180158E+002
 20
2.9477656E+002
 40
2.0000164
 50
1.8222251E+002
 51
2.6999977E+002
  0
LINE
  8
104
  6
CONTINUOUS
 62
40
 10
2.1601729E+002
 20
2.94699E+002
 11
2.1539348E+002
 21
3.1077655E+002
  0
LINE
  8
104
  6
CONTINUOUS
 62
40
 10
2.1539348E+002
 20
3.1077655E+002
 11
2.1542839E+002
 21
3.1177655E+002
  0
LINE
  8
105
  6
HIDDEN
 62
1
 10
5.1292849E+002
 20
3.3127658E+002
 11
5.1292849E+002
 21
3.2827655E+002
  0
LINE
  8
105
  6
HIDDEN
 62
1
 10
5.1692849E+002
 20
3.2827655E+002
 11
5.1692849E+002
 21
3.3127658E+002
  0
LINE
  8
104
  6
CONTINUOUS
 62
40
 10
2.1192839E+002
 20
3.0677655E+002
 11
2.1192839E+002
 21
3.0277655E+002
  0
LINE
  8
104
  6
CONTINUOUS
 62
40
 10
2.1192839E+002
 20
3.0277655E+002
 11
2.0792839E+002
 21
3.0277655E+002
  0
LINE
  8
104
  6
CONTINUOUS
 62
40
 10
2.0792839E+002
 20
3.0277655E+002
 11
2.0792839E+002
 21
3.0419388E+002
  0
LINE
  8
104
  6
CONTINUOUS
 62
40
 10
2.0792839E+002
 20
3.0419388E+002
 11
2.0592839E+002
 21
3.0419388E+002
  0
LINE
  8
104
  6
CONTINUOUS
 62
40
 10
2.0592839E+002
 20
3.0419388E+002
 11
2.0592839E+002
 21
3.0277655E+002
  0
LINE
  8
104
  6
CONTINUOUS
 62
40
 10
2.0592839E+002
 20
3.0277655E+002
 11
2.0192839E+002
 21
3.0277655E+002
  0
LINE
  8
104
  6
CONTINUOUS
 62
40
 10
2.0192839E+002
 20
3.0277655E+002
 11
2.0192839E+002
 21
3.0677655E+002
  0
LINE
  8
99
  6
CONTINUOUS
 62
1
 10
5.1992849E+002
 20
3.2667654E+002
 11
5.1992849E+002
 21
3.2267654E+002
  0
LINE
  8
99
  6
CONTINUOUS
 62
1
 10
5.1992849E+002
 20
3.2267654E+002
 11
5.1592849E+002
 21
3.2267654E+002
  0
LINE
  8
99
  6
CONTINUOUS
 62
1
 10
5.1592849E+002
 20
3.2267654E+002
 11
5.1592849E+002
 21
3.2409387E+002
  0
LINE
  8
99
  6
CONTINUOUS
 62
1
 10
5.1592849E+002
 20
3.2409387E+002
 11
5.1392849E+002
 21
3.2409387E+002
  0
LINE
  8
99
  6
CONTINUOUS
 62
1
 10
5.1392849E+002
 20
3.2409387E+002
 11
5.1392849E+002
 21
3.2267654E+002
  0
LINE
  8
99
  6
CONTINUOUS
 62
1
 10
5.1392849E+002
 20
3.2267654E+002
 11
5.0992849E+002
 21
3.2267654E+002
  0
LINE
  8
99
  6
CONTINUOUS
 62
1
 10
5.0992849E+002
 20
3.2267654E+002
 11
5.0992849E+002
 21
3.2667654E+002
  0
LINE
  8
105
  6
HIDDEN
 62
1
 10
2.0392839E+002
 20
3.0677655E+002
 11
2.0392839E+002
 21
3.2103903E+002
  0
LINE
  8
105
  6
HIDDEN
 62
1
 10
2.0472838E+002
 20
3.0677655E+002
 11
2.0472838E+002
 21
3.2110901E+002
  0
LINE
  8
105
  6
HIDDEN
 62
1
 10
2.0912838E+002
 20
3.0677655E+002
 11
2.0912838E+002
 21
3.2149396E+002
  0
LINE
  8
105
  6
HIDDEN
 62
1
 10
2.0992839E+002
 20
3.2156396E+002
 11
2.0992839E+002
 21
3.0677655E+002
  0
LINE
  8
104
  6
CONTINUOUS
 62
40
 10
2.0392839E+002
 20
3.2103903E+002
 11
2.0392839E+002
 21
3.2260058E+002
  0
LINE
  8
104
  6
CONTINUOUS
 62
40
 10
2.0392839E+002
 20
3.2260058E+002
 11
2.0992839E+002
 21
3.2260058E+002
  0
LINE
  8
104
  6
CONTINUOUS
 62
40
 10
2.0992839E+002
 20
3.2260058E+002
 11
2.0992839E+002
 21
3.2156396E+002
  0
LINE
  8
99
  6
CONTINUOUS
 62
1
 10
2.0472838E+002
 20
3.2110901E+002
 11
2.0472838E+002
 21
3.2260058E+002
  0
LINE
  8
99
  6
CONTINUOUS
 62
1
 10
2.0912838E+002
 20
3.2149396E+002
 11
2.0912838E+002
 21
3.2260058E+002
  0
LINE
  8
105
  6
HIDDEN
 62
1
 10
5.1192849E+002
 20
3.3127658E+002
 11
5.1192849E+002
 21
3.2827655E+002
  0
LINE
  8
105
  6
HIDDEN
 62
1
 10
5.1792849E+002
 20
3.3127658E+002
 11
5.1792849E+002
 21
3.2827655E+002
  0
LINE
  8
99
  6
CONTINUOUS
 62
1
 10
5.0867849E+002
 20
3.2827655E+002
 11
5.0867849E+002
 21
3.2667654E+002
  0
LINE
  8
99
  6
CONTINUOUS
 62
1
 10
5.0867849E+002
 20
3.2667654E+002
 11
5.2117849E+002
 21
3.2667654E+002
  0
LINE
  8
99
  6
CONTINUOUS
 62
1
 10
5.2117849E+002
 20
3.2667654E+002
 11
5.2117849E+002
 21
3.2827655E+002
  0
LINE
  8
106
  6
CENTERLINE
 62
1
 10
5.1492849E+002
 20
3.2206833E+002
 11
5.1492849E+002
 21
3.3362225E+002
  0
LINE
  8
104
  6
CONTINUOUS
 62
40
 10
5.0302846E+002
 20
3.1727655E+002
 11
5.0802846E+002
 21
3.1727655E+002
  0
LINE
  8
104
  6
CONTINUOUS
 62
40
 10
5.0802846E+002
 20
3.1727655E+002
 11
5.0802846E+002
 21
3.0727655E+002
  0
LINE
  8
99
  6
CONTINUOUS
 62
1
 10
5.0302846E+002
 20
3.1227655E+002
 11
5.074352E+002
 21
3.1227655E+002
  0
LINE
  8
99
  6
CONTINUOUS
 62
1
 10
5.074352E+002
 20
3.1227655E+002
 11
5.0802846E+002
 21
3.1227655E+002
  0
LINE
  8
104
  6
CONTINUOUS
 62
40
 10
5.0302846E+002
 20
3.0727655E+002
 11
5.0802846E+002
 21
3.0727655E+002
  0
LINE
  8
104
  6
CONTINUOUS
 62
40
 10
5.0142849E+002
 20
3.0602655E+002
 11
5.0302846E+002
 21
3.0602655E+002
  0
LINE
  8
104
  6
CONTINUOUS
 62
40
 10
5.0302846E+002
 20
3.0602655E+002
 11
5.0302846E+002
 21
3.1852655E+002
  0
LINE
  8
104
  6
CONTINUOUS
 62
40
 10
5.0302846E+002
 20
3.1852655E+002
 11
5.0142849E+002
 21
3.1852655E+002
  0
LINE
  8
106
  6
CENTERLINE
 62
1
 10
5.094424E+002
 20
3.1227655E+002
 11
4.9381093E+002
 21
3.1227655E+002
  0
LINE
  8
104
  6
CONTINUOUS
 62
40
 10
5.2342849E+002
 20
3.3127655E+002
 11
5.2342849E+002
 21
3.2827655E+002
  0
LINE
  8
104
  6
CONTINUOUS
 62
40
 10
5.2342849E+002
 20
3.2827655E+002
 11
5.0242849E+002
 21
3.2827655E+002
  0
ARC
  8
104
  6
CONTINUOUS
 62
40
 10
5.0242845E+002
 20
3.2727649E+002
 40
1.0000537
 50
8.9997804E+001
 51
1.7999692E+002
  0
LINE
  8
104
  6
CONTINUOUS
 62
40
 10
5.014284E+002
 20
3.2727655E+002
 11
5.014284E+002
 21
3.0527655E+002
  0
LINE
  8
104
  6
CONTINUOUS
 62
40
 10
5.014284E+002
 20
3.0527655E+002
 11
4.9842849E+002
 21
3.0527655E+002
  0
LINE
  8
104
  6
CONTINUOUS
 62
40
 10
4.9842849E+002
 20
3.0527655E+002
 11
4.9842849E+002
 21
3.2727655E+002
  0
ARC
  8
104
  6
CONTINUOUS
 62
40
 10
5.0242854E+002
 20
3.2727651E+002
 40
4.0000567
 50
9.0000812E+001
 51
1.799994E+002
  0
LINE
  8
104
  6
CONTINUOUS
 62
40
 10
5.0242849E+002
 20
3.3127656E+002
 11
5.2342849E+002
 21
3.3127656E+002
  0
LINE
  8
105
  6
HIDDEN
 62
1
 10
1.9842388E+002
 20
3.0700827E+002
 11
1.9616234E+002
 21
3.0477655E+002
  0
LINE
  8
105
  6
HIDDEN
 62
1
 10
1.9616234E+002
 20
3.0477655E+002
 11
1.9492839E+002
 21
3.0477655E+002
  0
LINE
  8
105
  6
HIDDEN
 62
1
 10
1.9492839E+002
 20
2.9877655E+002
 11
1.9616234E+002
 21
2.9877655E+002
  0
LINE
  8
105
  6
HIDDEN
 62
1
 10
1.9616234E+002
 20
2.9877655E+002
 11
1.9616234E+002
 21
3.0477655E+002
  0
LINE
  8
105
  6
HIDDEN
 62
1
 10
1.9616234E+002
 20
2.9877655E+002
 11
1.9892839E+002
 21
2.9604699E+002
  0
LINE
  8
106
  6
CENTERLINE
 62
1
 10
1.9953136E+002
 20
3.0177655E+002
 11
1.8707583E+002
 21
3.0177655E+002
  0
LINE
  8
105
  6
HIDDEN
 62
1
 10
1.9616234E+002
 20
3.2227655E+002
 11
1.9492841E+002
 21
3.2227655E+002
  0
LINE
  8
105
  6
HIDDEN
 62
1
 10
1.9492841E+002
 20
3.1627655E+002
 11
1.9616234E+002
 21
3.1627655E+002
  0
LINE
  8
106
  6
CENTERLINE
 62
1
 10
1.9953136E+002
 20
3.1927655E+002
 11
1.8734926E+002
 21
3.1927655E+002
  0
LINE
  8
105
  6
HIDDEN
 62
1
 10
1.9892839E+002
 20
3.250061E+002
 11
1.9619884E+002
 21
3.2231256E+002
  0
LINE
  8
105
  6
HIDDEN
 62
1
 10
1.9619884E+002
 20
3.2231256E+002
 11
1.9616234E+002
 21
3.1627655E+002
  0
LINE
  8
105
  6
HIDDEN
 62
1
 10
1.9616234E+002
 20
3.1627655E+002
 11
1.9892839E+002
 21
3.1354699E+002
  0
LINE
  8
104
  6
CONTINUOUS
 62
40
 10
1.9492839E+002
 20
3.1702777E+002
 11
1.9492839E+002
 21
2.9331872E+002
  0
LINE
  8
104
  6
CONTINUOUS
 62
40
 10
1.9492839E+002
 20
2.9331872E+002
 11
1.9892839E+002
 21
2.9327655E+002
  0
LINE
  8
104
  6
CONTINUOUS
 62
40
 10
1.9892839E+002
 20
2.9327655E+002
 11
1.9892839E+002
 21
3.0687756E+002
  0
LINE
  8
104
  6
CONTINUOUS
 62
40
 10
2.1392839E+002
 20
3.3127655E+002
 11
1.9992839E+002
 21
3.3127655E+002
  0
ARC
  8
104
  6
CONTINUOUS
 62
40
 10
1.9992839E+002
 20
3.2627656E+002
 40
4.9999863
 50
8.9999935E+001
 51
1.8000016E+002
  0
LINE
  8
104
  6
CONTINUOUS
 62
40
 10
1.949284E+002
 20
3.2627655E+002
 11
1.949284E+002
 21
3.1177655E+002
  0
ARC
  8
104
  6
CONTINUOUS
 62
40
 10
1.999284E+002
 20
3.1177653E+002
 40
5.0000002
 50
1.7999983E+002
 51
2.6999991E+002
  0
LINE
  8
104
  6
CONTINUOUS
 62
40
 10
1.9992839E+002
 20
3.0677653E+002
 11
2.1392839E+002
 21
3.0677653E+002
  0
LINE
  8
104
  6
CONTINUOUS
 62
40
 10
2.1392839E+002
 20
3.0677653E+002
 11
2.1392839E+002
 21
3.1077655E+002
  0
LINE
  8
104
  6
CONTINUOUS
 62
40
 10
2.1392839E+002
 20
3.1077655E+002
 11
1.9992839E+002
 21
3.1077655E+002
  0
ARC
  8
104
  6
CONTINUOUS
 62
40
 10
1.999284E+002
 20
3.1177654E+002
 40
9.9999545E-001
 50
1.7999974E+002
 51
2.699998E+002
  0
LINE
  8
104
  6
CONTINUOUS
 62
40
 10
1.989284E+002
 20
3.1177655E+002
 11
1.989284E+002
 21
3.2627655E+002
  0
ARC
  8
104
  6
CONTINUOUS
 62
40
 10
1.9992838E+002
 20
3.2627654E+002
 40
9.9998089E-001
 50
8.9999364E+001
 51
1.7999938E+002
  0
LINE
  8
104
  6
CONTINUOUS
 62
40
 10
1.9992839E+002
 20
3.2727652E+002
 11
2.1392839E+002
 21
3.2727652E+002
  0
LINE
  8
104
  6
CONTINUOUS
 62
40
 10
2.1392839E+002
 20
3.2727652E+002
 11
2.1392839E+002
 21
3.3127655E+002
  0
LINE
  8
99
  6
CONTINUOUS
 62
1
 10
1.9492841E+002
 20
3.2227655E+002
 11
1.8816234E+002
 21
3.2227655E+002
  0
LINE
  8
99
  6
CONTINUOUS
 62
1
 10
1.8816234E+002
 20
3.2227655E+002
 11
1.8816234E+002
 21
3.1627655E+002
  0
LINE
  8
99
  6
CONTINUOUS
 62
1
 10
1.8816234E+002
 20
3.1627655E+002
 11
1.9492839E+002
 21
3.1627655E+002
  0
LINE
  8
99
  6
CONTINUOUS
 62
1
 10
1.9492841E+002
 20
3.2127655E+002
 11
1.8816234E+002
 21
3.2127655E+002
  0
LINE
  8
99
  6
CONTINUOUS
 62
1
 10
1.8816234E+002
 20
3.1727655E+002
 11
1.9492841E+002
 21
3.1727655E+002
  0
LINE
  8
105
  6
HIDDEN
 62
1
 10
1.9492841E+002
 20
3.2127655E+002
 11
1.9619257E+002
 21
3.2127655E+002
  0
LINE
  8
105
  6
HIDDEN
 62
1
 10
1.9616839E+002
 20
3.1727655E+002
 11
1.9492839E+002
 21
3.1727655E+002
  0
LINE
  8
99
  6
CONTINUOUS
 62
1
 10
1.9492839E+002
 20
3.0477655E+002
 11
1.8816234E+002
 21
3.0477655E+002
  0
LINE
  8
99
  6
CONTINUOUS
 62
1
 10
1.8816234E+002
 20
3.0477655E+002
 11
1.8816234E+002
 21
2.9877655E+002
  0
LINE
  8
99
  6
CONTINUOUS
 62
1
 10
1.8816234E+002
 20
2.9877655E+002
 11
1.9492839E+002
 21
2.9877655E+002
  0
LINE
  8
99
  6
CONTINUOUS
 62
1
 10
1.8816234E+002
 20
2.9977655E+002
 11
1.9492839E+002
 21
2.9977655E+002
  0
LINE
  8
99
  6
CONTINUOUS
 62
1
 10
1.9492839E+002
 20
3.0377655E+002
 11
1.8816234E+002
 21
3.0377655E+002
  0
LINE
  8
105
  6
HIDDEN
 62
1
 10
1.9492839E+002
 20
3.0377655E+002
 11
1.9616234E+002
 21
3.0377655E+002
  0
LINE
  8
105
  6
HIDDEN
 62
1
 10
1.9616234E+002
 20
2.9977655E+002
 11
1.9492839E+002
 21
2.9977655E+002
  0
LINE
  8
98
  6
CONTINUOUS
 62
1
 10
5.0
 20
5.0
 11
5.89E+002
 21
5.0
  0
LINE
  8
98
  6
CONTINUOUS
 62
1
 10
5.89E+002
 20
5.0
 11
5.89E+002
 21
4.15E+002
  0
LINE
  8
98
  6
CONTINUOUS
 62
1
 10
5.89E+002
 20
4.15E+002
 11
5.0
 21
4.15E+002
  0
LINE
  8
98
  6
CONTINUOUS
 62
1
 10
5.0
 20
4.15E+002
 11
5.0
 21
5.0
  0
ENDSEC
  0
EOF
