  0
SECTION
  2
HEADER
  9
$ACADVER
  1
AC1009
999
I-DEAS 8 Not Encoded
  9
$EXTMIN
 10
0.0
 20
0.0
  9
$EXTMAX
 10
4.2E+002
 20
2.97E+002
  9
$TEXTSIZE
 40
1.25E-001
  9
$LTSCALE
 40
1.0
  9
$CLAYER
  8
104
  9
$CECOLOR
 62
40
  9
$DIMASZ
 40
1.25E-001
  9
$DIMEXO
 40
6.25E-002
  9
$DIMDLI
 40
2.5E-001
  9
$DIMEXE
 40
1.25E-001
  9
$DIMTP
 40
5.0E-003
  9
$DIMTM
 40
-5.0E-003
  9
$DIMTXT
 40
3.0
  9
$DIMLIM
 70
0
  9
$DIMTIH
 70
1
  9
$DIMTOH
 70
1
  9
$DIMSE1
 70
0
  9
$DIMSE2
 70
0
  9
$DIMTAD
 70
0
  9
$DIMASO
 70
1
  9
$DIMALT
 70
0
  9
$DIMALTD
 70
0
  9
$DIMTOFL
 70
1
  9
$DIMTIX
 70
0
  9
$DIMSAH
 70
0
  9
$DIMTFAC
 40
1.0
  9
$DIMGAP
 40
6.25E-002
  9
$LUNITS
 70
2
  9
$LUPREC
 70
3
  9
$FILLETRAD
 40
2.0
  9
$AUNITS
 70
0
  9
$AUPREC
 70
1
  9
$CHAMFERA
 40
1.0E+001
  9
$CHAMFERB
 40
1.0E+001
  9
$ANGBASE
 50
0.0
  9
$ANGDIR
 70
0
  9
$PDMODE
 70
2
  9
$PDSIZE
 40
-1.0E-002
  9
$SPLINETYPE
 70
6
  0
ENDSEC
  0
SECTION
  2
TABLES
  0
TABLE
  2
LTYPE
 70
7
  0
LTYPE
  2
HIDDENNEW00
  3
_ 
 70
64
 72
65
 73
3
 40
4.5
 49
1.5
 49
-1.5
 49
1.5
  0
LTYPE
  2
HIDDENNEW01
  3
_ 
 70
64
 72
65
 73
3
 40
4.5
 49
1.5
 49
-1.5
 49
1.5
  0
LTYPE
  2
HIDDEN
  3
_ 
 70
64
 72
65
 73
3
 40
4.5
 49
1.5
 49
-1.5
 49
1.5
  0
LTYPE
  2
CENTERLINE
  3
_ 
 70
64
 72
65
 73
5
 40
3.0E+001
 49
1.2E+001
 49
-1.5
 49
3.0
 49
-1.5
 49
1.2E+001
  0
LTYPE
  2
PHANTOM
  3
_ 
 70
64
 72
65
 73
7
 40
2.95E+001
 49
9.5
 49
-1.5
 49
3.0
 49
-1.5
 49
3.0
 49
-1.5
 49
9.5
  0
LTYPE
  2
SHORT_DASH
  3
_ 
 70
64
 72
65
 73
3
 40
3.0
 49
7.5E-001
 49
-1.5
 49
7.5E-001
  0
LTYPE
  2
LONG_DASH
  3
_ 
 70
64
 72
65
 73
3
 40
9.0
 49
2.25
 49
-4.5
 49
2.25
  0
ENDTAB
  0
TABLE
  2
LAYER
 70
258
  0
LAYER
  2
MED-1
 70
0
 62
3
  6
HIDDENNEW00
  0
LAYER
  2
2
 70
0
 62
7
  6
CONTINUOUS
  0
LAYER
  2
3
 70
0
 62
7
  6
CONTINUOUS
  0
LAYER
  2
4
 70
0
 62
7
  6
CONTINUOUS
  0
LAYER
  2
5
 70
0
 62
7
  6
CONTINUOUS
  0
LAYER
  2
MED-6
 70
0
 62
6
  6
HIDDENNEW00
  0
LAYER
  2
7
 70
0
 62
7
  6
CONTINUOUS
  0
LAYER
  2
8
 70
0
 62
7
  6
CONTINUOUS
  0
LAYER
  2
9
 70
0
 62
7
  6
CONTINUOUS
  0
LAYER
  2
10
 70
0
 62
7
  6
CONTINUOUS
  0
LAYER
  2
MED-11
 70
0
 62
70
  6
HIDDENNEW00
  0
LAYER
  2
12
 70
0
 62
7
  6
CONTINUOUS
  0
LAYER
  2
13
 70
0
 62
7
  6
CONTINUOUS
  0
LAYER
  2
14
 70
0
 62
7
  6
CONTINUOUS
  0
LAYER
  2
15
 70
0
 62
7
  6
CONTINUOUS
  0
LAYER
  2
16
 70
0
 62
7
  6
CONTINUOUS
  0
LAYER
  2
17
 70
0
 62
7
  6
CONTINUOUS
  0
LAYER
  2
18
 70
0
 62
7
  6
CONTINUOUS
  0
LAYER
  2
19
 70
0
 62
7
  6
CONTINUOUS
  0
LAYER
  2
20
 70
0
 62
7
  6
CONTINUOUS
  0
LAYER
  2
21
 70
0
 62
7
  6
CONTINUOUS
  0
LAYER
  2
22
 70
0
 62
7
  6
CONTINUOUS
  0
LAYER
  2
23
 70
0
 62
7
  6
CONTINUOUS
  0
LAYER
  2
24
 70
0
 62
7
  6
CONTINUOUS
  0
LAYER
  2
25
 70
0
 62
7
  6
CONTINUOUS
  0
LAYER
  2
26
 70
0
 62
7
  6
CONTINUOUS
  0
LAYER
  2
27
 70
0
 62
7
  6
CONTINUOUS
  0
LAYER
  2
28
 70
0
 62
7
  6
CONTINUOUS
  0
LAYER
  2
29
 70
0
 62
7
  6
CONTINUOUS
  0
LAYER
  2
30
 70
0
 62
7
  6
CONTINUOUS
  0
LAYER
  2
31
 70
0
 62
7
  6
CONTINUOUS
  0
LAYER
  2
32
 70
0
 62
7
  6
CONTINUOUS
  0
LAYER
  2
33
 70
0
 62
7
  6
CONTINUOUS
  0
LAYER
  2
34
 70
0
 62
7
  6
CONTINUOUS
  0
LAYER
  2
35
 70
0
 62
7
  6
CONTINUOUS
  0
LAYER
  2
36
 70
0
 62
7
  6
CONTINUOUS
  0
LAYER
  2
37
 70
0
 62
7
  6
CONTINUOUS
  0
LAYER
  2
38
 70
0
 62
7
  6
CONTINUOUS
  0
LAYER
  2
39
 70
0
 62
7
  6
CONTINUOUS
  0
LAYER
  2
40
 70
0
 62
7
  6
CONTINUOUS
  0
LAYER
  2
41
 70
0
 62
7
  6
CONTINUOUS
  0
LAYER
  2
42
 70
0
 62
7
  6
CONTINUOUS
  0
LAYER
  2
43
 70
0
 62
7
  6
CONTINUOUS
  0
LAYER
  2
44
 70
0
 62
7
  6
CONTINUOUS
  0
LAYER
  2
45
 70
0
 62
7
  6
CONTINUOUS
  0
LAYER
  2
46
 70
0
 62
7
  6
CONTINUOUS
  0
LAYER
  2
47
 70
0
 62
7
  6
CONTINUOUS
  0
LAYER
  2
48
 70
0
 62
7
  6
CONTINUOUS
  0
LAYER
  2
49
 70
0
 62
7
  6
CONTINUOUS
  0
LAYER
  2
50
 70
0
 62
7
  6
CONTINUOUS
  0
LAYER
  2
51
 70
0
 62
7
  6
CONTINUOUS
  0
LAYER
  2
52
 70
0
 62
7
  6
CONTINUOUS
  0
LAYER
  2
53
 70
0
 62
7
  6
CONTINUOUS
  0
LAYER
  2
54
 70
0
 62
7
  6
CONTINUOUS
  0
LAYER
  2
55
 70
0
 62
7
  6
CONTINUOUS
  0
LAYER
  2
56
 70
0
 62
7
  6
CONTINUOUS
  0
LAYER
  2
57
 70
0
 62
7
  6
CONTINUOUS
  0
LAYER
  2
58
 70
0
 62
7
  6
CONTINUOUS
  0
LAYER
  2
59
 70
0
 62
7
  6
CONTINUOUS
  0
LAYER
  2
60
 70
0
 62
7
  6
CONTINUOUS
  0
LAYER
  2
61
 70
0
 62
7
  6
CONTINUOUS
  0
LAYER
  2
62
 70
0
 62
7
  6
CONTINUOUS
  0
LAYER
  2
63
 70
0
 62
7
  6
CONTINUOUS
  0
LAYER
  2
64
 70
0
 62
7
  6
CONTINUOUS
  0
LAYER
  2
65
 70
0
 62
7
  6
CONTINUOUS
  0
LAYER
  2
66
 70
0
 62
7
  6
CONTINUOUS
  0
LAYER
  2
67
 70
0
 62
7
  6
CONTINUOUS
  0
LAYER
  2
68
 70
0
 62
7
  6
CONTINUOUS
  0
LAYER
  2
69
 70
0
 62
7
  6
CONTINUOUS
  0
LAYER
  2
70
 70
0
 62
7
  6
CONTINUOUS
  0
LAYER
  2
71
 70
0
 62
7
  6
CONTINUOUS
  0
LAYER
  2
72
 70
0
 62
7
  6
CONTINUOUS
  0
LAYER
  2
73
 70
0
 62
7
  6
CONTINUOUS
  0
LAYER
  2
74
 70
0
 62
7
  6
CONTINUOUS
  0
LAYER
  2
75
 70
0
 62
7
  6
CONTINUOUS
  0
LAYER
  2
76
 70
0
 62
7
  6
CONTINUOUS
  0
LAYER
  2
77
 70
0
 62
7
  6
CONTINUOUS
  0
LAYER
  2
78
 70
0
 62
7
  6
CONTINUOUS
  0
LAYER
  2
79
 70
0
 62
7
  6
CONTINUOUS
  0
LAYER
  2
80
 70
0
 62
7
  6
CONTINUOUS
  0
LAYER
  2
81
 70
0
 62
7
  6
CONTINUOUS
  0
LAYER
  2
82
 70
0
 62
7
  6
CONTINUOUS
  0
LAYER
  2
83
 70
0
 62
7
  6
CONTINUOUS
  0
LAYER
  2
84
 70
0
 62
7
  6
CONTINUOUS
  0
LAYER
  2
85
 70
0
 62
7
  6
CONTINUOUS
  0
LAYER
  2
86
 70
0
 62
7
  6
CONTINUOUS
  0
LAYER
  2
87
 70
0
 62
7
  6
CONTINUOUS
  0
LAYER
  2
88
 70
0
 62
7
  6
CONTINUOUS
  0
LAYER
  2
89
 70
0
 62
7
  6
CONTINUOUS
  0
LAYER
  2
90
 70
0
 62
7
  6
CONTINUOUS
  0
LAYER
  2
91
 70
0
 62
7
  6
CONTINUOUS
  0
LAYER
  2
92
 70
0
 62
7
  6
CONTINUOUS
  0
LAYER
  2
93
 70
0
 62
7
  6
CONTINUOUS
  0
LAYER
  2
94
 70
0
 62
7
  6
CONTINUOUS
  0
LAYER
  2
95
 70
0
 62
7
  6
CONTINUOUS
  0
LAYER
  2
96
 70
0
 62
7
  6
CONTINUOUS
  0
LAYER
  2
97
 70
0
 62
7
  6
CONTINUOUS
  0
LAYER
  2
98
 70
0
 62
7
  6
CONTINUOUS
  0
LAYER
  2
99
 70
0
 62
7
  6
CONTINUOUS
  0
LAYER
  2
MED-0
 70
0
 62
230
  6
HIDDENNEW00
  0
LAYER
  2
101
 70
0
 62
7
  6
CONTINUOUS
  0
LAYER
  2
102
 70
0
 62
7
  6
CONTINUOUS
  0
LAYER
  2
103
 70
0
 62
7
  6
CONTINUOUS
  0
LAYER
  2
104
 70
0
 62
7
  6
CONTINUOUS
  0
LAYER
  2
105
 70
0
 62
7
  6
CONTINUOUS
  0
LAYER
  2
106
 70
0
 62
7
  6
CONTINUOUS
  0
LAYER
  2
Drafting_Hidden_Entities
 70
1
 62
7
  6
CONTINUOUS
  0
ENDTAB
  0
TABLE
  2
STYLE
 70
1
  0
STYLE
  2
STANDARD
 70
64
 40
0.0
 41
1.0
 50
0.0
 71
0
 42
1.0
  3
monotxt.shx
  4

  0
ENDTAB
  0
TABLE
  2
VIEW
 70
0
  0
ENDTAB
  0
TABLE
  2
DIMSTYLE
 70
0
  0
ENDTAB
  0
ENDSEC
  0
SECTION
  2
BLOCKS
  0
BLOCK
  2
1
 10
0.0
 20
0.0
 70
0
  0
TEXT
  8
103
  6
CONTINUOUS
 62
40
 10
-6.6192931
 20
4.0163639E+001
 40
5.0
  1
Tuerhebel 8021
 41
6.5892857E-001
 72
1
 11
-2.9681793E+001
 21
3.7663639E+001
 73
2
  0
LINE
  8
105
  6
HIDDEN
 62
1
 10
-1.4729999E+002
 20
1.53E-005
 11
-1.468111E+002
 21
1.4E+001
  0
LINE
  8
105
  6
HIDDEN
 62
1
 10
-1.2469998E+002
 20
0.0
 11
-1.2518887E+002
 21
1.4E+001
  0
LINE
  8
105
  6
HIDDEN
 62
1
 10
-9.7499985E+001
 20
0.0
 11
-1.0074999E+002
 21
3.25
  0
LINE
  8
105
  6
HIDDEN
 62
1
 10
-1.0074999E+002
 20
3.25
 11
-1.0724999E+002
 21
3.25
  0
LINE
  8
105
  6
HIDDEN
 62
1
 10
-1.0724999E+002
 20
3.25
 11
-1.1049999E+002
 21
0.0
  0
LINE
  8
105
  6
HIDDEN
 62
1
 10
-1.0724999E+002
 20
3.25
 11
-1.0724999E+002
 21
9.75
  0
LINE
  8
105
  6
HIDDEN
 62
1
 10
-1.0074999E+002
 20
1.0E+001
 11
-1.0074999E+002
 21
3.25
  0
LINE
  8
105
  6
HIDDEN
 62
1
 10
-1.5974998E+002
 20
1.0E+001
 11
-1.5974998E+002
 21
3.25
  0
LINE
  8
105
  6
HIDDEN
 62
1
 10
-1.6624998E+002
 20
1.0E+001
 11
-1.6624998E+002
 21
3.25
  0
LINE
  8
105
  6
HIDDEN
 62
1
 10
-1.6786349E+002
 20
1.6364899
 11
-1.6624998E+002
 21
3.25
  0
LINE
  8
105
  6
HIDDEN
 62
1
 10
-1.6624998E+002
 20
3.25
 11
-1.5974998E+002
 21
3.25
  0
LINE
  8
105
  6
HIDDEN
 62
1
 10
-1.5974998E+002
 20
3.25
 11
-1.5649998E+002
 21
0.0
  0
LINE
  8
106
  6
CENTERLINE
 62
1
 10
-1.6299998E+002
 20
1.233606E+001
 11
-1.6299998E+002
 21
-2.4222412
  0
LINE
  8
105
  6
HIDDEN
 62
1
 10
-9.9499985E+001
 20
1.0E+001
 11
-9.9499985E+001
 21
6.0
  0
LINE
  8
105
  6
HIDDEN
 62
1
 10
-9.6499985E+001
 20
6.0
 11
-9.6499985E+001
 21
0.0
  0
LINE
  8
105
  6
HIDDEN
 62
1
 10
-1.7049998E+002
 20
0.0
 11
-1.7049998E+002
 21
6.0
  0
LINE
  8
105
  6
HIDDEN
 62
1
 10
-1.6749998E+002
 20
1.0E+001
 11
-1.6749998E+002
 21
6.0
  0
LINE
  8
104
  6
CONTINUOUS
 62
40
 10
-1.2099999E+002
 20
1.0E+001
 11
-1.2099999E+002
 21
1.25E+001
  0
LINE
  8
104
  6
CONTINUOUS
 62
40
 10
-1.2099999E+002
 20
1.25E+001
 11
-1.2249999E+002
 21
1.4E+001
  0
LINE
  8
104
  6
CONTINUOUS
 62
40
 10
-1.2249999E+002
 20
1.4E+001
 11
-1.4949998E+002
 21
1.4E+001
  0
LINE
  8
104
  6
CONTINUOUS
 62
40
 10
-1.4949998E+002
 20
1.4E+001
 11
-1.5099998E+002
 21
1.25E+001
  0
LINE
  8
104
  6
CONTINUOUS
 62
40
 10
-1.5099998E+002
 20
1.25E+001
 11
-1.5099998E+002
 21
1.0E+001
  0
LINE
  8
104
  6
CONTINUOUS
 62
40
 10
-1.5099998E+002
 20
1.25E+001
 11
-1.2099999E+002
 21
1.25E+001
  0
LINE
  8
106
  6
CENTERLINE
 62
1
 10
-1.3599999E+002
 20
2.2296875E+001
 11
-1.3599999E+002
 21
-1.1988281E+001
  0
LINE
  8
105
  6
HIDDEN
 62
1
 10
-5.525E+001
 20
7.5
 11
-5.675E+001
 21
6.0
  0
LINE
  8
105
  6
HIDDEN
 62
1
 10
-4.875E+001
 20
7.5
 11
-4.725E+001
 21
6.0
  0
LINE
  8
105
  6
HIDDEN
 62
1
 10
-1.325E+001
 20
7.5
 11
-1.475E+001
 21
6.0
  0
LINE
  8
105
  6
HIDDEN
 62
1
 10
-6.75
 20
7.5
 11
-4.916077
 21
6.0
  0
LINE
  8
105
  6
HIDDEN
 62
1
 10
-1.325E+001
 20
1.0E+001
 11
-1.325E+001
 21
7.5
  0
LINE
  8
105
  6
HIDDEN
 62
1
 10
-1.325E+001
 20
7.5
 11
-6.75
 21
7.5
  0
LINE
  8
105
  6
HIDDEN
 62
1
 10
-6.75
 20
7.5
 11
-6.75
 21
1.0E+001
  0
LINE
  8
105
  6
HIDDEN
 62
1
 10
-5.525E+001
 20
1.0E+001
 11
-5.525E+001
 21
7.5
  0
LINE
  8
105
  6
HIDDEN
 62
1
 10
-5.525E+001
 20
7.5
 11
-4.875E+001
 21
7.5
  0
LINE
  8
105
  6
HIDDEN
 62
1
 10
-4.875E+001
 20
7.5
 11
-4.875E+001
 21
1.0E+001
  0
LINE
  8
106
  6
CENTERLINE
 62
1
 10
-5.2E+001
 20
1.3103744E+001
 11
-5.2E+001
 21
-2.2372284
  0
LINE
  8
106
  6
CENTERLINE
 62
1
 10
-1.0E+001
 20
1.3776474E+001
 11
-1.0E+001
 21
-4.4235992
  0
LINE
  8
106
  6
CENTERLINE
 62
1
 10
-1.0399999E+002
 20
1.4281021E+001
 11
-1.0399999E+002
 21
-3.9190521
  0
LINE
  8
104
  6
CONTINUOUS
 62
40
 10
-1.7399998E+002
 20
0.0
 11
0.0
 21
0.0
  0
LINE
  8
104
  6
CONTINUOUS
 62
40
 10
0.0
 20
0.0
 11
0.0
 21
1.0E+001
  0
LINE
  8
104
  6
CONTINUOUS
 62
40
 10
0.0
 20
1.0E+001
 11
-1.7399998E+002
 21
1.0E+001
  0
LINE
  8
104
  6
CONTINUOUS
 62
40
 10
-1.7399998E+002
 20
1.0E+001
 11
-1.7399998E+002
 21
0.0
  0
LINE
  8
105
  6
HIDDEN
 62
1
 10
-1.7399998E+002
 20
6.0
 11
-3.3078766E+001
 21
6.0
  0
LINE
  8
105
  6
HIDDEN
 62
1
 10
-3.3078766E+001
 20
6.0
 11
0.0
 21
6.0
  0
LINE
  8
MED-11
  6
SHORT_DASH
 62
40
 10
4.2841614E+001
 20
0.0
 11
4.3575317E+001
 21
1.4E+001
  0
LINE
  8
MED-11
  6
SHORT_DASH
 62
40
 10
5.360791E+001
 20
1.4E+001
 11
5.4341644E+001
 21
0.0
  0
LINE
  8
104
  6
CONTINUOUS
 62
40
 10
6.0591644E+001
 20
0.0
 11
3.6591644E+001
 21
0.0
  0
LINE
  8
104
  6
CONTINUOUS
 62
40
 10
3.7591644E+001
 20
1.2499973E+001
 11
3.9091614E+001
 21
1.4E+001
  0
LINE
  8
104
  6
CONTINUOUS
 62
40
 10
3.9091614E+001
 20
1.4E+001
 11
5.8091614E+001
 21
1.4E+001
  0
LINE
  8
104
  6
CONTINUOUS
 62
40
 10
5.8091614E+001
 20
1.4E+001
 11
5.9591644E+001
 21
1.2500004E+001
  0
LINE
  8
104
  6
CONTINUOUS
 62
40
 10
3.7591644E+001
 20
1.0E+001
 11
3.7591644E+001
 21
1.25E+001
  0
LINE
  8
104
  6
CONTINUOUS
 62
40
 10
3.7591644E+001
 20
1.25E+001
 11
5.9591644E+001
 21
1.25E+001
  0
LINE
  8
104
  6
CONTINUOUS
 62
40
 10
5.9591644E+001
 20
1.25E+001
 11
5.9591644E+001
 21
1.0E+001
  0
LINE
  8
104
  6
CONTINUOUS
 62
40
 10
6.4591658E+001
 20
0.0
 11
6.4591658E+001
 21
6.0
  0
ARC
  8
104
  6
CONTINUOUS
 62
40
 10
6.0591657E+001
 20
5.9999992
 40
4.0000008
 50
1.15572E-005
 51
8.9999988E+001
  0
LINE
  8
104
  6
CONTINUOUS
 62
40
 10
6.0591658E+001
 20
1.0E+001
 11
3.6591658E+001
 21
1.0E+001
  0
ARC
  8
104
  6
CONTINUOUS
 62
40
 10
3.659165E+001
 20
5.9999998
 40
4.0000002
 50
8.9999888E+001
 51
1.8E+002
  0
LINE
  8
104
  6
CONTINUOUS
 62
40
 10
3.259165E+001
 20
6.0
 11
3.259165E+001
 21
0.0
  0
LINE
  8
104
  6
CONTINUOUS
 62
40
 10
3.259165E+001
 20
0.0
 11
3.6591658E+001
 21
0.0
  0
LINE
  8
104
  6
CONTINUOUS
 62
40
 10
3.6591658E+001
 20
0.0
 11
3.6591658E+001
 21
6.0
  0
LINE
  8
104
  6
CONTINUOUS
 62
40
 10
3.6591658E+001
 20
6.0
 11
6.0591658E+001
 21
6.0
  0
LINE
  8
104
  6
CONTINUOUS
 62
40
 10
6.0591658E+001
 20
6.0
 11
6.0591658E+001
 21
0.0
  0
LINE
  8
104
  6
CONTINUOUS
 62
40
 10
6.0591658E+001
 20
0.0
 11
6.4591658E+001
 21
0.0
  0
LINE
  8
106
  6
CENTERLINE
 62
1
 10
4.8591644E+001
 20
-1.7092209
 11
4.8591644E+001
 21
1.515271E+001
  0
POINT
  8
Drafting_Hidden_Entities
  6
CONTINUOUS
 62
1
 10
0.0
 20
0.0
  0
ENDBLK
  0
ENDSEC
  0
SECTION
  2
ENTITIES
  0
TEXT
  8
103
  6
CONTINUOUS
 62
40
 10
4.1209079E+002
 20
1.3656717E+001
 40
5.0
  1
BTS-Zubehör Anschweißbänder
 41
6.6E-001
 72
1
 11
3.6754079E+002
 21
1.1156717E+001
 73
2
  0
TEXT
  8
103
  6
CONTINUOUS
 62
40
 10
2.8018146E+001
 20
2.8641965E+002
 40
5.0
  1
M 1:1
 41
6.3E-001
 72
1
 11
2.0143146E+001
 21
2.8391965E+002
 73
2
  0
TEXT
  8
103
  6
CONTINUOUS
 62
40
 10
3.3239107E+002
 20
1.59493E+002
 40
5.0
  1
Anschweisslager 7472K
 41
6.6428571E-001
 72
1
 11
2.9751607E+002
 21
1.56993E+002
 73
2
  0
LINE
  8
104
  6
CONTINUOUS
 62
40
 10
2.8568978E+002
 20
1.0776924E+002
 11
2.7905654E+002
 21
1.01136E+002
  0
LINE
  8
104
  6
CONTINUOUS
 62
40
 10
2.801172E+002
 20
1.0007533E+002
 11
2.8675044E+002
 21
1.0670857E+002
  0
CIRCLE
  8
104
  6
CONTINUOUS
 62
40
 10
2.8290349E+002
 20
1.0392229E+002
 40
4.75
  0
CIRCLE
  8
104
  6
CONTINUOUS
 62
40
 10
2.8290349E+002
 20
1.0392229E+002
 40
1.75E+001
  0
LINE
  8
104
  6
CONTINUOUS
 62
40
 10
3.5090349E+002
 20
1.3992229E+002
 11
3.1590349E+002
 21
1.3992229E+002
  0
LINE
  8
104
  6
CONTINUOUS
 62
40
 10
3.5090349E+002
 20
1.3992229E+002
 11
3.3437639E+002
 21
1.0072945E+002
  0
ARC
  8
104
  6
CONTINUOUS
 62
40
 10
3.2976939E+002
 20
1.0267207E+002
 40
4.999823
 50
2.83933E+002
 51
3.3713642E+002
  0
LINE
  8
104
  6
CONTINUOUS
 62
40
 10
3.3097328E+002
 20
9.7819353E+001
 11
2.8691817E+002
 21
8.6889025E+001
  0
ARC
  8
104
  6
CONTINUOUS
 62
40
 10
2.8290348E+002
 20
1.0392229E+002
 40
1.7499999E+001
 50
1.8663124E+002
 51
2.8326239E+002
  0
ARC
  8
104
  6
CONTINUOUS
 62
40
 10
2.8290348E+002
 20
1.0392229E+002
 40
1.7499998E+001
 50
8.9999962E+001
 51
1.8663123E+002
  0
LINE
  8
104
  6
CONTINUOUS
 62
40
 10
2.8290349E+002
 20
1.2142229E+002
 11
3.1090349E+002
 21
1.2142229E+002
  0
ARC
  8
104
  6
CONTINUOUS
 62
40
 10
3.1090348E+002
 20
1.2642226E+002
 40
4.9999742
 50
2.7000005E+002
 51
3.600003E+002
  0
LINE
  8
104
  6
CONTINUOUS
 62
40
 10
3.1590346E+002
 20
1.2642229E+002
 11
3.1590346E+002
 21
1.3992229E+002
  0
LINE
  8
104
  6
CONTINUOUS
 62
40
 10
3.1590346E+002
 20
1.3992229E+002
 11
3.5090349E+002
 21
1.3992229E+002
  0
LINE
  8
104
  6
CONTINUOUS
 62
40
 10
2.9305513E+002
 20
1.2142229E+002
 11
2.8247536E+002
 21
1.3992229E+002
  0
LINE
  8
104
  6
CONTINUOUS
 62
40
 10
2.8247536E+002
 20
1.3992229E+002
 11
2.5224199E+002
 21
1.3992229E+002
  0
LINE
  8
104
  6
CONTINUOUS
 62
40
 10
2.5224199E+002
 20
1.3992229E+002
 11
2.6632741E+002
 21
9.8311251E+001
  0
LINE
  8
106
  6
CENTERLINE
 62
1
 10
2.5949266E+002
 20
1.0392229E+002
 11
3.0564211E+002
 21
1.0392229E+002
  0
LINE
  8
106
  6
CENTERLINE
 62
1
 10
2.8290349E+002
 20
8.1626299E+001
 11
2.8290349E+002
 21
1.2712541E+002
  0
LINE
  8
104
  6
CONTINUOUS
 62
40
 10
3.0040349E+002
 20
2.246883E+002
 11
2.6540349E+002
 21
2.246883E+002
  0
LINE
  8
104
  6
CONTINUOUS
 62
40
 10
2.6540349E+002
 20
2.246883E+002
 11
2.6540349E+002
 21
2.221883E+002
  0
LINE
  8
104
  6
CONTINUOUS
 62
40
 10
2.6540349E+002
 20
2.221883E+002
 11
3.0040349E+002
 21
2.221883E+002
  0
LINE
  8
104
  6
CONTINUOUS
 62
40
 10
3.0040349E+002
 20
2.221883E+002
 11
3.0040349E+002
 21
2.246883E+002
  0
LINE
  8
104
  6
CONTINUOUS
 62
40
 10
2.7020348E+002
 20
2.021883E+002
 11
2.7020348E+002
 21
1.961883E+002
  0
LINE
  8
104
  6
CONTINUOUS
 62
40
 10
2.7020348E+002
 20
1.961883E+002
 11
2.9560347E+002
 21
1.961883E+002
  0
LINE
  8
104
  6
CONTINUOUS
 62
40
 10
2.9560347E+002
 20
1.961883E+002
 11
2.9560347E+002
 21
2.021883E+002
  0
LINE
  8
104
  6
CONTINUOUS
 62
40
 10
2.9560347E+002
 20
2.021883E+002
 11
2.7020348E+002
 21
2.021883E+002
  0
LINE
  8
105
  6
HIDDEN
 62
1
 10
2.6540349E+002
 20
1.8618836E+002
 11
2.6611864E+002
 21
1.7801401E+002
  0
LINE
  8
105
  6
HIDDEN
 62
1
 10
2.6611864E+002
 20
1.9436267E+002
 11
2.6540349E+002
 21
1.8618836E+002
  0
LINE
  8
106
  6
CENTERLINE
 62
1
 10
2.8290349E+002
 20
1.9813465E+002
 11
2.8290349E+002
 21
2.0025403E+002
  0
LINE
  8
106
  6
CENTERLINE
 62
1
 10
2.8290349E+002
 20
2.0025403E+002
 11
2.8290349E+002
 21
1.7338465E+002
  0
LINE
  8
104
  6
CONTINUOUS
 62
40
 10
3.0040349E+002
 20
1.861883E+002
 11
2.9968834E+002
 21
1.9436267E+002
  0
ARC
  8
104
  6
CONTINUOUS
 62
40
 10
2.9769599E+002
 20
1.9418836E+002
 40
1.9999636
 50
5.0000652
 51
9.0001378E+001
  0
LINE
  8
104
  6
CONTINUOUS
 62
40
 10
2.9769594E+002
 20
1.9618833E+002
 11
2.6811104E+002
 21
1.9618833E+002
  0
ARC
  8
104
  6
CONTINUOUS
 62
40
 10
2.6811105E+002
 20
1.941883E+002
 40
2.0000267
 50
9.000028E+001
 51
1.7499828E+002
  0
LINE
  8
104
  6
CONTINUOUS
 62
40
 10
2.6611864E+002
 20
1.9436267E+002
 11
2.6600066E+002
 21
1.9301404E+002
  0
ARC
  8
104
  6
CONTINUOUS
 62
40
 10
2.6400826E+002
 20
1.9318833E+002
 40
2.0000043
 50
2.6999984E+002
 51
3.5500062E+002
  0
LINE
  8
104
  6
CONTINUOUS
 62
40
 10
2.6400826E+002
 20
1.9118833E+002
 11
2.5274974E+002
 21
1.9118833E+002
  0
LINE
  8
104
  6
CONTINUOUS
 62
40
 10
2.5274974E+002
 20
1.9118833E+002
 11
2.5190349E+002
 21
1.8868836E+002
  0
LINE
  8
104
  6
CONTINUOUS
 62
40
 10
2.5190349E+002
 20
1.8868836E+002
 11
2.5190349E+002
 21
1.8368836E+002
  0
LINE
  8
104
  6
CONTINUOUS
 62
40
 10
2.5190349E+002
 20
1.8368836E+002
 11
2.5274974E+002
 21
1.8118836E+002
  0
LINE
  8
104
  6
CONTINUOUS
 62
40
 10
2.5274974E+002
 20
1.8118836E+002
 11
2.6400826E+002
 21
1.8118836E+002
  0
ARC
  8
104
  6
CONTINUOUS
 62
40
 10
2.6400829E+002
 20
1.7918838E+002
 40
1.9999771
 50
4.9995579
 51
9.0000947E+001
  0
LINE
  8
104
  6
CONTINUOUS
 62
40
 10
2.6600066E+002
 20
1.7936267E+002
 11
2.6611864E+002
 21
1.7801401E+002
  0
ARC
  8
104
  6
CONTINUOUS
 62
40
 10
2.6811106E+002
 20
1.7818836E+002
 40
2.0000325
 50
1.8500101E+002
 51
2.6999949E+002
  0
LINE
  8
104
  6
CONTINUOUS
 62
40
 10
2.6811104E+002
 20
1.7618833E+002
 11
2.9769594E+002
 21
1.7618833E+002
  0
ARC
  8
104
  6
CONTINUOUS
 62
40
 10
2.9769596E+002
 20
1.7818832E+002
 40
1.99999
 50
2.6999947E+002
 51
3.55001E+002
  0
LINE
  8
104
  6
CONTINUOUS
 62
40
 10
2.9968834E+002
 20
1.7801404E+002
 11
3.0040349E+002
 21
1.861883E+002
  0
LINE
  8
104
  6
CONTINUOUS
 62
40
 10
3.0143935E+002
 20
2.171883E+002
 11
2.8490349E+002
 21
2.171883E+002
  0
ARC
  8
104
  6
CONTINUOUS
 62
40
 10
2.8490347E+002
 20
2.1918831E+002
 40
2.0000115
 50
1.8000033E+002
 51
2.7000053E+002
  0
LINE
  8
104
  6
CONTINUOUS
 62
40
 10
3.0143935E+002
 20
2.071883E+002
 11
2.8490349E+002
 21
2.071883E+002
  0
ARC
  8
104
  6
CONTINUOUS
 62
40
 10
2.8490348E+002
 20
2.0518827E+002
 40
2.0000208
 50
8.9999735E+001
 51
1.7999941E+002
  0
ARC
  8
104
  6
CONTINUOUS
 62
40
 10
2.6854747E+002
 20
2.201883E+002
 40
1.9999918
 50
8.9999952E+001
 51
1.7200007E+002
  0
LINE
  8
104
  6
CONTINUOUS
 62
40
 10
2.6854747E+002
 20
2.221883E+002
 11
2.9725951E+002
 21
2.221883E+002
  0
ARC
  8
104
  6
CONTINUOUS
 62
40
 10
2.9725955E+002
 20
2.2018836E+002
 40
1.9999389
 50
7.9986161
 51
9.0001366E+001
  0
LINE
  8
104
  6
CONTINUOUS
 62
40
 10
2.9924004E+002
 20
2.2046665E+002
 11
2.9945882E+002
 21
2.1890994E+002
  0
ARC
  8
104
  6
CONTINUOUS
 62
40
 10
3.0143936E+002
 20
2.1918827E+002
 40
2.0000042
 50
1.8799938E+002
 51
2.6999959E+002
  0
LINE
  8
104
  6
CONTINUOUS
 62
40
 10
3.0143935E+002
 20
2.1718827E+002
 11
3.493315E+002
 21
2.1718827E+002
  0
ARC
  8
104
  6
CONTINUOUS
 62
40
 10
3.4933153E+002
 20
2.161883E+002
 40
9.9996944E-001
 50
8.0012495
 51
9.0001732E+001
  0
LINE
  8
104
  6
CONTINUOUS
 62
40
 10
3.5032176E+002
 20
2.1632749E+002
 11
3.5090349E+002
 21
2.1218823E+002
  0
LINE
  8
104
  6
CONTINUOUS
 62
40
 10
3.5090349E+002
 20
2.1218823E+002
 11
3.5032176E+002
 21
2.0804914E+002
  0
ARC
  8
104
  6
CONTINUOUS
 62
40
 10
3.4933151E+002
 20
2.0818831E+002
 40
9.999815E-001
 50
2.6999911E+002
 51
3.5199989E+002
  0
LINE
  8
104
  6
CONTINUOUS
 62
40
 10
3.493315E+002
 20
2.0718833E+002
 11
3.0143935E+002
 21
2.0718833E+002
  0
ARC
  8
104
  6
CONTINUOUS
 62
40
 10
3.0143934E+002
 20
2.0518835E+002
 40
1.9999765
 50
8.9999724E+001
 51
1.7200134E+002
  0
LINE
  8
104
  6
CONTINUOUS
 62
40
 10
2.9945882E+002
 20
2.0546665E+002
 11
2.9924004E+002
 21
2.0390994E+002
  0
ARC
  8
104
  6
CONTINUOUS
 62
40
 10
2.972595E+002
 20
2.0418826E+002
 40
1.9999919
 50
2.7000008E+002
 51
3.5200093E+002
  0
LINE
  8
104
  6
CONTINUOUS
 62
40
 10
2.9725951E+002
 20
2.0218827E+002
 11
2.6854747E+002
 21
2.0218827E+002
  0
ARC
  8
104
  6
CONTINUOUS
 62
40
 10
2.6854749E+002
 20
2.0418827E+002
 40
2.0000092
 50
1.879995E+002
 51
2.6999949E+002
  0
LINE
  8
104
  6
CONTINUOUS
 62
40
 10
2.6656694E+002
 20
2.0390994E+002
 11
2.6540349E+002
 21
2.121883E+002
  0
LINE
  8
104
  6
CONTINUOUS
 62
40
 10
2.6540349E+002
 20
2.121883E+002
 11
2.6656694E+002
 21
2.2046665E+002
  0
LINE
  8
106
  6
CENTERLINE
 62
1
 10
2.8290349E+002
 20
2.2530747E+002
 11
2.8290349E+002
 21
2.0025403E+002
  0
TEXT
  8
103
  6
CONTINUOUS
 62
40
 10
1.2487171E+002
 20
1.6453107E+002
 40
5.0
  1
Anschweissband 7472M
 41
6.6375E-001
 72
1
 11
9.1684208E+001
 21
1.6203107E+002
 73
2
  0
LINE
  8
104
  6
CONTINUOUS
 62
40
 10
6.3389255E+001
 20
2.0629496E+002
 11
9.5389255E+001
 21
2.0629496E+002
  0
LINE
  8
104
  6
CONTINUOUS
 62
40
 10
9.5389255E+001
 20
2.0629496E+002
 11
9.5389255E+001
 21
2.0429498E+002
  0
LINE
  8
104
  6
CONTINUOUS
 62
40
 10
9.5389255E+001
 20
2.0429498E+002
 11
6.3389255E+001
 21
2.0429498E+002
  0
LINE
  8
104
  6
CONTINUOUS
 62
40
 10
6.3389255E+001
 20
2.0429498E+002
 11
6.3389255E+001
 21
2.0629496E+002
  0
LINE
  8
104
  6
CONTINUOUS
 62
40
 10
7.2389255E+001
 20
2.0829496E+002
 11
7.2389255E+001
 21
2.0629496E+002
  0
LINE
  8
104
  6
CONTINUOUS
 62
40
 10
8.6389255E+001
 20
2.0829496E+002
 11
8.6389255E+001
 21
2.0629496E+002
  0
LINE
  8
105
  6
HIDDEN
 62
1
 10
6.1889255E+001
 20
1.9429504E+002
 11
6.2604404E+001
 21
1.8612069E+002
  0
LINE
  8
105
  6
HIDDEN
 62
1
 10
6.2604404E+001
 20
2.0246935E+002
 11
6.1889255E+001
 21
1.9429504E+002
  0
LINE
  8
106
  6
CENTERLINE
 62
1
 10
7.9389255E+001
 20
2.0624131E+002
 11
7.9389255E+001
 21
2.083607E+002
  0
LINE
  8
106
  6
CENTERLINE
 62
1
 10
7.9389255E+001
 20
2.083607E+002
 11
7.9389255E+001
 21
1.8149132E+002
  0
LINE
  8
104
  6
CONTINUOUS
 62
40
 10
9.6889255E+001
 20
1.9429498E+002
 11
9.6174106E+001
 21
2.0246935E+002
  0
ARC
  8
104
  6
CONTINUOUS
 62
40
 10
9.4181741E+001
 20
2.0229503E+002
 40
1.9999775
 50
5.0004011
 51
9.0001013E+001
  0
LINE
  8
104
  6
CONTINUOUS
 62
40
 10
9.4181705E+001
 20
2.0429501E+002
 11
6.4596805E+001
 21
2.0429501E+002
  0
ARC
  8
104
  6
CONTINUOUS
 62
40
 10
6.4596794E+001
 20
2.02295E+002
 40
2.000004
 50
8.9999683E+001
 51
1.749989E+002
  0
LINE
  8
104
  6
CONTINUOUS
 62
40
 10
6.2604404E+001
 20
2.0246935E+002
 11
6.2486423E+001
 21
2.0112072E+002
  0
ARC
  8
104
  6
CONTINUOUS
 62
40
 10
6.0494024E+001
 20
2.0129502E+002
 40
2.0000084
 50
2.6999995E+002
 51
3.5500051E+002
  0
LINE
  8
104
  6
CONTINUOUS
 62
40
 10
6.0494022E+001
 20
1.9929501E+002
 11
4.9235508E+001
 21
1.9929501E+002
  0
LINE
  8
104
  6
CONTINUOUS
 62
40
 10
4.9235508E+001
 20
1.9929501E+002
 11
4.8389255E+001
 21
1.9679504E+002
  0
LINE
  8
104
  6
CONTINUOUS
 62
40
 10
4.8389255E+001
 20
1.9679504E+002
 11
4.8389255E+001
 21
1.9179502E+002
  0
LINE
  8
104
  6
CONTINUOUS
 62
40
 10
4.8389255E+001
 20
1.9179502E+002
 11
4.9235508E+001
 21
1.8929502E+002
  0
LINE
  8
104
  6
CONTINUOUS
 62
40
 10
4.9235508E+001
 20
1.8929502E+002
 11
6.0494022E+001
 21
1.8929502E+002
  0
ARC
  8
104
  6
CONTINUOUS
 62
40
 10
6.0494031E+001
 20
1.8729502E+002
 40
2.0000035
 50
5.0002209
 51
9.0000256E+001
  0
LINE
  8
104
  6
CONTINUOUS
 62
40
 10
6.2486423E+001
 20
1.8746934E+002
 11
6.2604404E+001
 21
1.8612069E+002
  0
ARC
  8
104
  6
CONTINUOUS
 62
40
 10
6.4596795E+001
 20
1.8629501E+002
 40
2.0000024
 50
1.8500031E+002
 51
2.7000029E+002
  0
LINE
  8
104
  6
CONTINUOUS
 62
40
 10
6.4596805E+001
 20
1.8429501E+002
 11
9.4181705E+001
 21
1.8429501E+002
  0
ARC
  8
104
  6
CONTINUOUS
 62
40
 10
9.4181728E+001
 20
1.86295E+002
 40
1.999987
 50
2.6999934E+002
 51
3.5500053E+002
  0
LINE
  8
104
  6
CONTINUOUS
 62
40
 10
9.6174106E+001
 20
1.8612071E+002
 11
9.6889255E+001
 21
1.9429498E+002
  0
LINE
  8
104
  6
CONTINUOUS
 62
40
 10
9.7925113E+001
 20
2.2329496E+002
 11
8.1389255E+001
 21
2.2329496E+002
  0
ARC
  8
104
  6
CONTINUOUS
 62
40
 10
8.1389225E+001
 20
2.2529495E+002
 40
1.9999847
 50
1.7999956E+002
 51
2.7000088E+002
  0
LINE
  8
104
  6
CONTINUOUS
 62
40
 10
9.7925113E+001
 20
2.1329496E+002
 11
8.1389255E+001
 21
2.1329496E+002
  0
ARC
  8
104
  6
CONTINUOUS
 62
40
 10
8.1389263E+001
 20
2.1129494E+002
 40
2.0000228
 50
9.0000214E+001
 51
1.7999935E+002
  0
ARC
  8
104
  6
CONTINUOUS
 62
40
 10
6.5033263E+001
 20
2.2629499E+002
 40
2.0000157
 50
9.0000738E+001
 51
1.720008E+002
  0
LINE
  8
104
  6
CONTINUOUS
 62
40
 10
6.5033237E+001
 20
2.2829501E+002
 11
9.3745273E+001
 21
2.2829501E+002
  0
ARC
  8
104
  6
CONTINUOUS
 62
40
 10
9.3745261E+001
 20
2.2629501E+002
 40
2.0000007
 50
7.9988253
 51
8.9999635E+001
  0
LINE
  8
104
  6
CONTINUOUS
 62
40
 10
9.5725803E+001
 20
2.2657331E+002
 11
9.5944584E+001
 21
2.2501661E+002
  0
ARC
  8
104
  6
CONTINUOUS
 62
40
 10
9.7925096E+001
 20
2.2529494E+002
 40
1.9999749
 50
1.8799972E+002
 51
2.7000049E+002
  0
LINE
  8
104
  6
CONTINUOUS
 62
40
 10
9.7925113E+001
 20
2.2329497E+002
 11
1.4581726E+002
 21
2.2329497E+002
  0
ARC
  8
104
  6
CONTINUOUS
 62
40
 10
1.4581727E+002
 20
2.2229497E+002
 40
9.9999469E-001
 50
8.0003082
 51
9.0000168E+001
  0
LINE
  8
104
  6
CONTINUOUS
 62
40
 10
1.4680753E+002
 20
2.2243415E+002
 11
1.4738925E+002
 21
2.182949E+002
  0
LINE
  8
104
  6
CONTINUOUS
 62
40
 10
1.4738925E+002
 20
2.182949E+002
 11
1.4680753E+002
 21
2.141558E+002
  0
ARC
  8
104
  6
CONTINUOUS
 62
40
 10
1.4581728E+002
 20
2.1429499E+002
 40
9.9998655E-001
 50
2.6999931E+002
 51
3.5199923E+002
  0
LINE
  8
104
  6
CONTINUOUS
 62
40
 10
1.4581726E+002
 20
2.13295E+002
 11
9.7925113E+001
 21
2.13295E+002
  0
ARC
  8
104
  6
CONTINUOUS
 62
40
 10
9.7925123E+001
 20
2.11295E+002
 40
1.9999988
 50
9.0000284E+001
 51
1.7200099E+002
  0
LINE
  8
104
  6
CONTINUOUS
 62
40
 10
9.5944584E+001
 20
2.1157331E+002
 11
9.5725803E+001
 21
2.1001661E+002
  0
ARC
  8
104
  6
CONTINUOUS
 62
40
 10
9.3745286E+001
 20
2.1029496E+002
 40
1.9999818
 50
2.6999965E+002
 51
3.5199988E+002
  0
LINE
  8
104
  6
CONTINUOUS
 62
40
 10
9.3745273E+001
 20
2.0829498E+002
 11
6.5033237E+001
 21
2.0829498E+002
  0
ARC
  8
104
  6
CONTINUOUS
 62
40
 10
6.5033216E+001
 20
2.1029495E+002
 40
1.9999715
 50
1.8799986E+002
 51
2.7000061E+002
  0
LINE
  8
104
  6
CONTINUOUS
 62
40
 10
6.3052707E+001
 20
2.1001661E+002
 11
6.1889255E+001
 21
2.1829496E+002
  0
LINE
  8
104
  6
CONTINUOUS
 62
40
 10
6.1889255E+001
 20
2.1829496E+002
 11
6.3052707E+001
 21
2.2657331E+002
  0
LINE
  8
106
  6
CENTERLINE
 62
1
 10
7.9389255E+001
 20
2.3141413E+002
 11
7.9389255E+001
 21
2.063607E+002
  0
CIRCLE
  8
104
  6
CONTINUOUS
 62
40
 10
7.9389255E+001
 20
1.0392229E+002
 40
1.0E+001
  0
CIRCLE
  8
104
  6
CONTINUOUS
 62
40
 10
7.9389255E+001
 20
1.0392229E+002
 40
1.1E+001
  0
CIRCLE
  8
104
  6
CONTINUOUS
 62
40
 10
7.9389255E+001
 20
1.0392229E+002
 40
1.75E+001
  0
LINE
  8
104
  6
CONTINUOUS
 62
40
 10
1.4738925E+002
 20
1.399223E+002
 11
1.1238926E+002
 21
1.399223E+002
  0
LINE
  8
104
  6
CONTINUOUS
 62
40
 10
1.4738925E+002
 20
1.399223E+002
 11
1.3086216E+002
 21
1.0072945E+002
  0
ARC
  8
104
  6
CONTINUOUS
 62
40
 10
1.2625512E+002
 20
1.0267211E+002
 40
4.9998688
 50
2.8393326E+002
 51
3.3713615E+002
  0
LINE
  8
104
  6
CONTINUOUS
 62
40
 10
1.2745905E+002
 20
9.7819356E+001
 11
8.3403934E+001
 21
8.6889028E+001
  0
ARC
  8
104
  6
CONTINUOUS
 62
40
 10
7.9389242E+001
 20
1.0392229E+002
 40
1.7499995E+001
 50
1.866312E+002
 51
2.832624E+002
  0
ARC
  8
104
  6
CONTINUOUS
 62
40
 10
7.9389248E+001
 20
1.039223E+002
 40
1.7500003E+001
 50
8.9999976E+001
 51
1.8663123E+002
  0
LINE
  8
104
  6
CONTINUOUS
 62
40
 10
7.9389255E+001
 20
1.214223E+002
 11
1.0738926E+002
 21
1.214223E+002
  0
ARC
  8
104
  6
CONTINUOUS
 62
40
 10
1.0738925E+002
 20
1.2642228E+002
 40
4.9999731
 50
2.7000004E+002
 51
3.6000017E+002
  0
LINE
  8
104
  6
CONTINUOUS
 62
40
 10
1.1238923E+002
 20
1.2642229E+002
 11
1.1238923E+002
 21
1.399223E+002
  0
LINE
  8
104
  6
CONTINUOUS
 62
40
 10
1.1238923E+002
 20
1.399223E+002
 11
1.4738925E+002
 21
1.399223E+002
  0
LINE
  8
105
  6
HIDDEN
 62
1
 10
8.1889255E+001
 20
9.4239824E+001
 11
8.1889255E+001
 21
8.6601786E+001
  0
LINE
  8
105
  6
HIDDEN
 62
1
 10
8.1189243E+001
 20
9.4085619E+001
 11
8.1189243E+001
 21
8.6515108E+001
  0
LINE
  8
105
  6
HIDDEN
 62
1
 10
7.6889255E+001
 20
8.6601778E+001
 11
7.6889255E+001
 21
9.4239824E+001
  0
LINE
  8
105
  6
HIDDEN
 62
1
 10
7.7589237E+001
 20
9.4085619E+001
 11
7.7589237E+001
 21
8.6515108E+001
  0
LINE
  8
104
  6
CONTINUOUS
 62
40
 10
8.9540897E+001
 20
1.214223E+002
 11
7.8961124E+001
 21
1.399223E+002
  0
LINE
  8
104
  6
CONTINUOUS
 62
40
 10
7.8961124E+001
 20
1.399223E+002
 11
4.8727756E+001
 21
1.399223E+002
  0
LINE
  8
104
  6
CONTINUOUS
 62
40
 10
4.8727756E+001
 20
1.399223E+002
 11
6.2813175E+001
 21
9.8311254E+001
  0
LINE
  8
106
  6
CENTERLINE
 62
1
 10
5.5978428E+001
 20
1.0392229E+002
 11
1.0212787E+002
 21
1.0392229E+002
  0
LINE
  8
106
  6
CENTERLINE
 62
1
 10
7.9389255E+001
 20
8.1626302E+001
 11
7.9389255E+001
 21
1.2712542E+002
  0
LINE
  8
98
  6
CONTINUOUS
 62
1
 10
5.0
 20
5.0
 11
4.15E+002
 21
5.0
  0
LINE
  8
98
  6
CONTINUOUS
 62
1
 10
4.15E+002
 20
5.0
 11
4.15E+002
 21
2.92E+002
  0
LINE
  8
98
  6
CONTINUOUS
 62
1
 10
4.15E+002
 20
2.92E+002
 11
5.0
 21
2.92E+002
  0
LINE
  8
98
  6
CONTINUOUS
 62
1
 10
5.0
 20
2.92E+002
 11
5.0
 21
5.0
  0
ENDSEC
  0
EOF
