  0
SECTION
  2
HEADER
  9
$ACADVER
  1
AC1009
  9
$DWGCODEPAGE
  3
ISO8859-1
  9
$ATTMODE
 70
1
  9
$FILLMODE
 70
1
  9
$PDMODE
 70
0
  9
$PDSIZE
 40
0.0
  9
$PSLTSCALE
 70
0
  9
$QTEXTMODE
 70
0
  9
$SPLFRAME
 70
0
  9
$TILEMODE
 70
1
  9
$VISRETAIN
 70
1
  9
$LTSCALE
 40
12.0
  9
$LUNITS
 70
2
  9
$DIMSTYLE
  2
MEDDIM
  9
$DIMLFAC
 40
1.0
  9
$EXTMIN
 10
0.0
 20
0.0
  9
$EXTMAX
 10
594.0
 20
420.0
  9
$LIMMIN
 10
0.0
 20
0.0
  9
$LIMMAX
 10
594.0
 20
420.0
  0
ENDSEC
  0
SECTION
  2
TABLES
  0
TABLE
  2
LTYPE
 70
6
  0
LTYPE
  2
SL2
 70
0
  3
SL2
 72
65
 73
4
 40
1.125
 49
0.75
 49
-0.125
 49
0.125
 49
-0.125
  0
LTYPE
  2
SL0
 70
0
  3
SL0
 72
65
 73
0
 40
0.0
  0
LTYPE
  2
SL5
 70
0
  3
SL5
 72
65
 73
0
 40
0.0
  0
LTYPE
  2
SL1
 70
0
  3
SL1
 72
65
 73
2
 40
0.25
 49
0.0
 49
-0.25
  0
LTYPE
  2
L0
 70
0
  3
L0
 72
65
 73
0
 40
0.0
  0
LTYPE
  2
CONTINUOUS
 70
0
  3
CONTINUOUS
 72
65
 73
0
 40
0.0
  0
ENDTAB
  0
TABLE
  2
STYLE
 70
1
  0
STYLE
  2
T3
 70
64
 40
5.0
 41
0.675
 50
0.0
 71
0
 42
0.0
  3
medtext
  0
ENDTAB
  0
TABLE
  2
LAYER
 70
3
  0
LAYER
  2
6
  6
CONTINUOUS
 62
7
 70
0
  0
LAYER
  2
11
  6
CONTINUOUS
 62
7
 70
0
  0
LAYER
  2
0
  6
CONTINUOUS
 62
7
 70
0
  0
ENDTAB
  0
TABLE
  2
DIMSTYLE
 70
1
  0
DIMSTYLE
  2
MEDDIM
 70
0
  3

  4

  5

  6

  7

 40
1.0
 41
3.5
 42
0.1
 43
7.0
 44
0.5
 45
0.01
 46
0.0
 47
0.0
 48
0.0
140
3.5
141
1.5
142
0.0
143
0.03937
144
1.0
145
0.0
146
0.7
147
1.0
 71
0
 72
0
 73
0
 74
0
 75
0
 76
0
 77
1
 78
12
170
0
171
2
172
1
173
0
174
0
175
0
176
7
177
7
178
7
  0
ENDTAB
  0
ENDSEC
  0
SECTION
  2
BLOCKS
  0
BLOCK
  8
0
  2
MEDCLUMP_SET_248_
 70
64
 10
0.0
 20
0.0
 30
0.0
  0
POLYLINE
  6
SL5
  8
11
 62
2
 66
1
 70
0
  0
VERTEX
  6
SL5
  8
11
 62
2
 10
497.575217
 20
97.294251
 30
0.0
  0
VERTEX
  6
SL5
  8
11
 62
2
 10
499.575217
 20
97.294251
 30
0.0
  0
SEQEND
  0
POLYLINE
  6
SL5
  8
11
 62
2
 66
1
 70
0
  0
VERTEX
  6
SL5
  8
11
 62
2
 10
497.575217
 20
72.370483
 30
0.0
  0
VERTEX
  6
SL5
  8
11
 62
2
 10
499.575217
 20
72.370483
 30
0.0
  0
SEQEND
  0
POLYLINE
  6
SL2
  8
11
 62
1
 66
1
 70
0
  0
VERTEX
  6
SL2
  8
11
 62
1
 10
495.702537
 20
84.870483
 30
0.0
  0
VERTEX
  6
SL2
  8
11
 62
1
 10
502.035056
 20
84.870483
 30
0.0
  0
SEQEND
  0
POLYLINE
  6
SL5
  8
11
 62
2
 66
1
 70
0
  0
VERTEX
  6
SL5
  8
11
 62
2
 10
497.575217
 20
37.755615
 30
0.0
  0
VERTEX
  6
SL5
  8
11
 62
2
 10
497.575217
 20
131.985291
 30
0.0
  0
VERTEX
  6
SL5
  8
11
 62
2
 10
495.718223
 20
136.627686
 30
0.0
  0
VERTEX
  6
SL5
  8
11
 62
2
 10
497.575217
 20
137.370483
 30
0.0
  0
VERTEX
  6
SL5
  8
11
 62
2
 10
499.575217
 20
132.370483
 30
0.0
  0
VERTEX
  6
SL5
  8
11
 62
2
 10
499.575217
 20
37.370483
 30
0.0
  0
VERTEX
  6
SL5
  8
11
 62
2
 10
497.575217
 20
32.370483
 30
0.0
  0
VERTEX
  6
SL5
  8
11
 62
2
 10
495.718284
 20
33.113251
 30
0.0
  0
VERTEX
  6
SL5
  8
11
 62
2
 10
497.575217
 20
37.755615
 30
0.0
  0
SEQEND
  0
ENDBLK
  8
0
  0
BLOCK
  8
0
  2
MEDCLUMP_SET_217_
 70
64
 10
0.0
 20
0.0
 30
0.0
  0
POLYLINE
  6
SL0
  8
11
 62
7
 66
1
 70
0
  0
VERTEX
  6
SL0
  8
11
 62
7
 10
268.357334
 20
99.291844
 30
0.0
  0
VERTEX
  6
SL0
  8
11
 62
7
 10
268.357334
 20
100.592717
 30
0.0
  0
VERTEX
  6
SL0
  8
11
 62
7
 10
265.825627
 20
100.137029
 30
0.0
  0
VERTEX
  6
SL0
  8
11
 62
7
 10
265.825627
 20
99.747518
 30
0.0
  0
VERTEX
  6
SL0
  8
11
 62
7
 10
268.357334
 20
99.291844
 30
0.0
  0
SEQEND
  0
POLYLINE
  6
SL0
  8
11
 62
7
 66
1
 70
0
  0
VERTEX
  6
SL0
  8
11
 62
7
 10
270.694279
 20
96.534245
 30
0.0
  0
VERTEX
  6
SL0
  8
11
 62
7
 10
264.072926
 20
98.092183
 30
0.0
  0
VERTEX
  6
SL0
  8
11
 62
7
 10
264.072926
 20
101.792333
 30
0.0
  0
VERTEX
  6
SL0
  8
11
 62
7
 10
270.694279
 20
103.350316
 30
0.0
  0
VERTEX
  6
SL0
  8
11
 62
7
 10
270.694279
 20
101.013387
 30
0.0
  0
VERTEX
  6
SL0
  8
11
 62
7
 10
269.525822
 20
100.803029
 30
0.0
  0
VERTEX
  6
SL0
  8
11
 62
7
 10
269.525822
 20
99.081487
 30
0.0
  0
VERTEX
  6
SL0
  8
11
 62
7
 10
270.694279
 20
98.871159
 30
0.0
  0
VERTEX
  6
SL0
  8
11
 62
7
 10
270.694279
 20
96.534245
 30
0.0
  0
SEQEND
  0
POLYLINE
  6
SL0
  8
11
 62
7
 66
1
 70
0
  0
VERTEX
  6
SL0
  8
11
 62
7
 10
270.694279
 20
89.912877
 30
0.0
  0
VERTEX
  6
SL0
  8
11
 62
7
 10
270.694279
 20
87.965428
 30
0.0
  0
VERTEX
  6
SL0
  8
11
 62
7
 10
264.072926
 20
87.965428
 30
0.0
  0
VERTEX
  6
SL0
  8
11
 62
7
 10
264.072926
 20
91.081334
 30
0.0
  0
VERTEX
  6
SL0
  8
11
 62
7
 10
267.967839
 20
91.938237
 30
0.0
  0
VERTEX
  6
SL0
  8
11
 62
7
 10
267.967839
 20
92.055058
 30
0.0
  0
VERTEX
  6
SL0
  8
11
 62
7
 10
267.967839
 20
92.171925
 30
0.0
  0
VERTEX
  6
SL0
  8
11
 62
7
 10
264.072926
 20
93.028829
 30
0.0
  0
VERTEX
  6
SL0
  8
11
 62
7
 10
264.072926
 20
96.144734
 30
0.0
  0
VERTEX
  6
SL0
  8
11
 62
7
 10
270.694279
 20
96.144734
 30
0.0
  0
VERTEX
  6
SL0
  8
11
 62
7
 10
270.694279
 20
94.197286
 30
0.0
  0
VERTEX
  6
SL0
  8
11
 62
7
 10
265.825627
 20
94.197286
 30
0.0
  0
VERTEX
  6
SL0
  8
11
 62
7
 10
265.825627
 20
94.002553
 30
0.0
  0
VERTEX
  6
SL0
  8
11
 62
7
 10
270.694279
 20
92.931416
 30
0.0
  0
VERTEX
  6
SL0
  8
11
 62
7
 10
270.694279
 20
91.1787
 30
0.0
  0
VERTEX
  6
SL0
  8
11
 62
7
 10
265.825627
 20
90.10761
 30
0.0
  0
VERTEX
  6
SL0
  8
11
 62
7
 10
265.825627
 20
89.912877
 30
0.0
  0
VERTEX
  6
SL0
  8
11
 62
7
 10
270.694279
 20
89.912877
 30
0.0
  0
SEQEND
  0
POLYLINE
  6
SL0
  8
11
 62
7
 66
1
 70
0
  0
VERTEX
  6
SL0
  8
11
 62
7
 10
266.088566
 20
84.849477
 30
0.0
 42
-0.414214
  0
VERTEX
  6
SL0
  8
11
 62
7
 10
266.75066
 20
84.187352
 30
0.0
  0
VERTEX
  6
SL0
  8
11
 62
7
 10
266.75066
 20
83.291539
 30
0.0
  0
VERTEX
  6
SL0
  8
11
 62
7
 10
265.290104
 20
83.291539
 30
0.0
  0
VERTEX
  6
SL0
  8
11
 62
7
 10
265.290104
 20
84.187352
 30
0.0
 42
-0.414214
  0
VERTEX
  6
SL0
  8
11
 62
7
 10
265.952244
 20
84.849507
 30
0.0
  0
VERTEX
  6
SL0
  8
11
 62
7
 10
266.088566
 20
84.849477
 30
0.0
  0
SEQEND
  0
POLYLINE
  6
SL0
  8
11
 62
7
 66
1
 70
0
  0
VERTEX
  6
SL0
  8
11
 62
7
 10
270.694279
 20
81.34406
 30
0.0
  0
VERTEX
  6
SL0
  8
11
 62
7
 10
264.072926
 20
81.34406
 30
0.0
  0
VERTEX
  6
SL0
  8
11
 62
7
 10
264.072926
 20
85.238988
 30
0.0
 42
-0.414214
  0
VERTEX
  6
SL0
  8
11
 62
7
 10
266.02039
 20
87.186437
 30
0.0
  0
VERTEX
  6
SL0
  8
11
 62
7
 70
16
 10
266.02039
 20
87.186437
 30
0.0
  0
VERTEX
  6
SL0
  8
11
 62
7
 70
8
 10
266.02039
 20
87.186437
 30
0.0
  0
VERTEX
  6
SL0
  8
11
 62
7
 70
8
 10
266.358255
 20
87.15986
 30
0.0
  0
VERTEX
  6
SL0
  8
11
 62
7
 70
8
 10
266.529438
 20
87.125469
 30
0.0
  0
VERTEX
  6
SL0
  8
11
 62
7
 70
8
 10
266.699529
 20
87.076325
 30
0.0
  0
VERTEX
  6
SL0
  8
11
 62
7
 70
8
 10
266.866419
 20
87.012308
 30
0.0
  0
VERTEX
  6
SL0
  8
11
 62
7
 70
8
 10
267.027959
 20
86.933655
 30
0.0
  0
VERTEX
  6
SL0
  8
11
 62
7
 70
8
 10
267.182041
 20
86.840971
 30
0.0
  0
VERTEX
  6
SL0
  8
11
 62
7
 70
8
 10
267.326691
 20
86.735216
 30
0.0
  0
VERTEX
  6
SL0
  8
11
 62
7
 70
8
 10
267.460146
 20
86.617679
 30
0.0
  0
VERTEX
  6
SL0
  8
11
 62
7
 70
8
 10
267.58093
 20
86.489922
 30
0.0
  0
VERTEX
  6
SL0
  8
11
 62
7
 70
8
 10
267.687902
 20
86.353716
 30
0.0
  0
VERTEX
  6
SL0
  8
11
 62
7
 70
8
 10
267.780293
 20
86.210958
 30
0.0
  0
VERTEX
  6
SL0
  8
11
 62
7
 70
8
 10
267.85771
 20
86.063595
 30
0.0
  0
VERTEX
  6
SL0
  8
11
 62
7
 70
8
 10
267.920124
 20
85.913547
 30
0.0
  0
VERTEX
  6
SL0
  8
11
 62
7
 70
8
 10
267.967839
 20
85.762639
 30
0.0
  0
VERTEX
  6
SL0
  8
11
 62
7
 70
16
 10
267.967839
 20
85.762639
 30
0.0
  0
VERTEX
  6
SL0
  8
11
 62
7
 10
267.967839
 20
85.762639
 30
0.0
  0
VERTEX
  6
SL0
  8
11
 62
7
 10
270.694279
 20
87.186437
 30
0.0
  0
VERTEX
  6
SL0
  8
11
 62
7
 10
270.694279
 20
85.044255
 30
0.0
  0
VERTEX
  6
SL0
  8
11
 62
7
 10
267.967839
 20
83.953664
 30
0.0
  0
VERTEX
  6
SL0
  8
11
 62
7
 10
267.967839
 20
83.291539
 30
0.0
  0
VERTEX
  6
SL0
  8
11
 62
7
 10
270.694279
 20
83.291539
 30
0.0
  0
VERTEX
  6
SL0
  8
11
 62
7
 10
270.694279
 20
81.34406
 30
0.0
  0
SEQEND
  0
POLYLINE
  6
SL0
  8
11
 62
7
 66
1
 70
0
  0
VERTEX
  6
SL0
  8
11
 62
7
 10
268.668919
 20
78.374196
 30
0.0
 42
-0.414214
  0
VERTEX
  6
SL0
  8
11
 62
7
 10
269.331059
 20
77.712071
 30
0.0
  0
VERTEX
  6
SL0
  8
11
 62
7
 10
269.331059
 20
77.575749
 30
0.0
 42
-0.414214
  0
VERTEX
  6
SL0
  8
11
 62
7
 10
268.668919
 20
76.913625
 30
0.0
  0
VERTEX
  6
SL0
  8
11
 62
7
 10
266.098271
 20
76.913625
 30
0.0
 42
-0.414214
  0
VERTEX
  6
SL0
  8
11
 62
7
 10
265.436131
 20
77.575749
 30
0.0
  0
VERTEX
  6
SL0
  8
11
 62
7
 10
265.436131
 20
77.712071
 30
0.0
 42
-0.414214
  0
VERTEX
  6
SL0
  8
11
 62
7
 10
266.098271
 20
78.374181
 30
0.0
  0
VERTEX
  6
SL0
  8
11
 62
7
 10
268.668919
 20
78.374196
 30
0.0
  0
SEQEND
  0
POLYLINE
  6
SL0
  8
11
 62
7
 66
1
 70
0
  0
VERTEX
  6
SL0
  8
11
 62
7
 10
268.357334
 20
80.565068
 30
0.0
 42
-0.414214
  0
VERTEX
  6
SL0
  8
11
 62
7
 10
270.694279
 20
78.228139
 30
0.0
  0
VERTEX
  6
SL0
  8
11
 62
7
 10
270.694279
 20
77.059682
 30
0.0
 42
-0.414214
  0
VERTEX
  6
SL0
  8
11
 62
7
 10
268.357334
 20
74.722699
 30
0.0
  0
VERTEX
  6
SL0
  8
11
 62
7
 10
266.409886
 20
74.722699
 30
0.0
 42
-0.414214
  0
VERTEX
  6
SL0
  8
11
 62
7
 10
264.072926
 20
77.059682
 30
0.0
  0
VERTEX
  6
SL0
  8
11
 62
7
 10
264.072926
 20
78.228139
 30
0.0
 42
-0.414214
  0
VERTEX
  6
SL0
  8
11
 62
7
 10
266.409886
 20
80.565099
 30
0.0
  0
VERTEX
  6
SL0
  8
11
 62
7
 10
268.357334
 20
80.565068
 30
0.0
  0
SEQEND
  0
POLYLINE
  6
SL0
  8
11
 62
7
 66
1
 70
0
  0
VERTEX
  6
SL0
  8
11
 62
7
 10
268.552067
 20
73.94373
 30
0.0
 42
-0.414214
  0
VERTEX
  6
SL0
  8
11
 62
7
 10
270.694279
 20
71.801549
 30
0.0
  0
VERTEX
  6
SL0
  8
11
 62
7
 10
270.694279
 20
68.296132
 30
0.0
  0
VERTEX
  6
SL0
  8
11
 62
7
 10
264.072926
 20
68.296132
 30
0.0
  0
VERTEX
  6
SL0
  8
11
 62
7
 10
264.072926
 20
71.801549
 30
0.0
 42
-0.414214
  0
VERTEX
  6
SL0
  8
11
 62
7
 10
266.215123
 20
73.94373
 30
0.0
  0
VERTEX
  6
SL0
  8
11
 62
7
 10
268.552067
 20
73.94373
 30
0.0
  0
SEQEND
  0
POLYLINE
  6
SL0
  8
11
 62
7
 66
1
 70
0
  0
VERTEX
  6
SL0
  8
11
 62
7
 10
268.941563
 20
71.801549
 30
0.0
 42
-0.414214
  0
VERTEX
  6
SL0
  8
11
 62
7
 10
269.331059
 20
71.412038
 30
0.0
  0
VERTEX
  6
SL0
  8
11
 62
7
 10
269.331059
 20
70.438313
 30
0.0
  0
VERTEX
  6
SL0
  8
11
 62
7
 10
265.436131
 20
70.438313
 30
0.0
  0
VERTEX
  6
SL0
  8
11
 62
7
 10
265.436131
 20
71.412038
 30
0.0
 42
-0.414214
  0
VERTEX
  6
SL0
  8
11
 62
7
 10
265.825627
 20
71.801534
 30
0.0
  0
VERTEX
  6
SL0
  8
11
 62
7
 10
268.941563
 20
71.801549
 30
0.0
  0
SEQEND
  0
POLYLINE
  6
SL0
  8
11
 62
7
 66
1
 70
0
  0
VERTEX
  6
SL0
  8
11
 62
7
 10
257.825596
 20
80.625295
 30
0.0
 42
-0.138351
  0
VERTEX
  6
SL0
  8
11
 62
7
 10
250.957417
 20
64.785024
 30
0.0
  0
VERTEX
  6
SL0
  8
11
 62
7
 10
262.880619
 20
68.185872
 30
0.0
  0
VERTEX
  6
SL0
  8
11
 62
7
 10
262.880619
 20
70.684682
 30
0.0
  0
VERTEX
  6
SL0
  8
11
 62
7
 10
257.036656
 20
69.008962
 30
0.0
 42
0.077617
  0
VERTEX
  6
SL0
  8
11
 62
7
 10
260.412525
 20
79.131749
 30
0.0
 42
0.018678
  0
VERTEX
  6
SL0
  8
11
 62
7
 10
260.746342
 20
81.692555
 30
0.0
  0
VERTEX
  6
SL0
  8
11
 62
7
 10
255.228367
 20
84.878362
 30
0.0
  0
VERTEX
  6
SL0
  8
11
 62
7
 10
260.746342
 20
88.064183
 30
0.0
 42
0.096435
  0
VERTEX
  6
SL0
  8
11
 62
7
 10
257.036671
 20
100.747777
 30
0.0
  0
VERTEX
  6
SL0
  8
11
 62
7
 10
262.880619
 20
99.072057
 30
0.0
  0
VERTEX
  6
SL0
  8
11
 62
7
 10
262.880619
 20
101.570851
 30
0.0
  0
VERTEX
  6
SL0
  8
11
 62
7
 10
250.957417
 20
104.971715
 30
0.0
 42
-0.138351
  0
VERTEX
  6
SL0
  8
11
 62
7
 10
257.825596
 20
89.131444
 30
0.0
  0
VERTEX
  6
SL0
  8
11
 62
7
 10
250.45908
 20
84.878362
 30
0.0
  0
VERTEX
  6
SL0
  8
11
 62
7
 10
257.825596
 20
80.625295
 30
0.0
  0
SEQEND
  0
POLYLINE
  6
SL2
  8
11
 62
1
 66
1
 70
0
  0
VERTEX
  6
SL2
  8
11
 62
1
 10
234.05959
 20
44.585332
 30
0.0
  0
VERTEX
  6
SL2
  8
11
 62
1
 10
234.05959
 20
62.374394
 30
0.0
  0
SEQEND
  0
POLYLINE
  6
SL2
  8
11
 62
1
 66
1
 70
0
  0
VERTEX
  6
SL2
  8
11
 62
1
 10
287.059517
 20
62.374409
 30
0.0
  0
VERTEX
  6
SL2
  8
11
 62
1
 10
287.059517
 20
44.585347
 30
0.0
  0
SEQEND
  0
POLYLINE
  6
SL2
  8
11
 62
1
 66
1
 70
0
  0
VERTEX
  6
SL2
  8
11
 62
1
 10
295.731392
 20
52.870503
 30
0.0
  0
VERTEX
  6
SL2
  8
11
 62
1
 10
277.168892
 20
52.870503
 30
0.0
  0
SEQEND
  0
POLYLINE
  6
SL2
  8
11
 62
1
 66
1
 70
0
  0
VERTEX
  6
SL2
  8
11
 62
1
 10
244.676777
 20
52.870488
 30
0.0
  0
VERTEX
  6
SL2
  8
11
 62
1
 10
224.567402
 20
52.870488
 30
0.0
  0
SEQEND
  0
CIRCLE
  6
SL5
  8
11
 62
2
 10
234.05959
 20
52.870488
 30
0.0
 40
4.75
  0
CIRCLE
  6
SL5
  8
11
 62
2
 10
287.059517
 20
52.870503
 30
0.0
 40
4.75
  0
CIRCLE
  6
SL5
  8
11
 62
2
 10
234.05959
 20
52.870488
 30
0.0
 40
3.25
  0
CIRCLE
  6
SL5
  8
11
 62
2
 10
287.059517
 20
52.870503
 30
0.0
 40
3.25
  0
POLYLINE
  6
SL0
  8
11
 62
7
 66
1
 70
0
  0
VERTEX
  6
SL0
  8
11
 62
7
 10
73.059577
 20
37.370468
 30
0.0
  0
VERTEX
  6
SL0
  8
11
 62
7
 10
146.059546
 20
37.370468
 30
0.0
  0
SEQEND
  0
POLYLINE
  6
SL0
  8
11
 62
7
 66
1
 70
0
  0
VERTEX
  6
SL0
  8
11
 62
7
 10
148.059546
 20
37.370468
 30
0.0
  0
VERTEX
  6
SL0
  8
11
 62
7
 10
354.059562
 20
37.370483
 30
0.0
  0
VERTEX
  6
SL0
  8
11
 62
7
 10
354.059562
 20
84.870483
 30
0.0
  0
SEQEND
  0
POLYLINE
  6
SL0
  8
11
 62
7
 66
1
 70
0
  0
VERTEX
  6
SL0
  8
11
 62
7
 10
354.059591
 20
37.370497
 30
0.0
  0
VERTEX
  6
SL0
  8
11
 62
7
 10
359.05959
 20
32.370497
 30
0.0
  0
SEQEND
  0
POLYLINE
  6
SL2
  8
11
 62
1
 66
1
 70
0
  0
VERTEX
  6
SL2
  8
11
 62
1
 10
70.301764
 20
84.870468
 30
0.0
  0
VERTEX
  6
SL2
  8
11
 62
1
 10
171.043982
 20
84.870468
 30
0.0
  0
SEQEND
  0
POLYLINE
  6
SL5
  8
11
 62
2
 66
1
 70
0
  0
VERTEX
  6
SL5
  8
11
 62
2
 10
359.05959
 20
84.870497
 30
0.0
  0
VERTEX
  6
SL5
  8
11
 62
2
 10
359.05959
 20
32.370497
 30
0.0
  0
VERTEX
  6
SL5
  8
11
 62
2
 10
148.059559
 20
32.370482
 30
0.0
  0
VERTEX
  6
SL5
  8
11
 62
2
 10
148.059559
 20
45.870482
 30
0.0
  0
VERTEX
  6
SL5
  8
11
 62
2
 10
73.05959
 20
45.870482
 30
0.0
  0
VERTEX
  6
SL5
  8
11
 62
2
 10
73.05959
 20
64.870482
 30
0.0
  0
VERTEX
  6
SL5
  8
11
 62
2
 10
134.05959
 20
64.870482
 30
0.0
 42
0.414214
  0
VERTEX
  6
SL5
  8
11
 62
2
 10
154.05959
 20
84.870482
 30
0.0
  0
SEQEND
  0
POLYLINE
  6
SL5
  8
11
 62
2
 66
1
 70
0
  0
VERTEX
  6
SL5
  8
11
 62
2
 10
146.059546
 20
45.870468
 30
0.0
  0
VERTEX
  6
SL5
  8
11
 62
2
 10
146.059546
 20
32.370468
 30
0.0
  0
VERTEX
  6
SL5
  8
11
 62
2
 10
73.059577
 20
32.370468
 30
0.0
  0
VERTEX
  6
SL5
  8
11
 62
2
 10
73.059577
 20
45.870468
 30
0.0
  0
SEQEND
  0
POLYLINE
  6
SL2
  8
11
 62
1
 66
1
 70
0
  0
VERTEX
  6
SL2
  8
11
 62
1
 10
134.059577
 20
112.601486
 30
0.0
  0
VERTEX
  6
SL2
  8
11
 62
1
 10
134.059577
 20
60.685089
 30
0.0
  0
SEQEND
  0
POLYLINE
  6
SL2
  8
11
 62
1
 66
1
 70
0
  0
VERTEX
  6
SL2
  8
11
 62
1
 10
234.05959
 20
125.155659
 30
0.0
  0
VERTEX
  6
SL2
  8
11
 62
1
 10
234.05959
 20
107.366597
 30
0.0
  0
SEQEND
  0
POLYLINE
  6
SL2
  8
11
 62
1
 66
1
 70
0
  0
VERTEX
  6
SL2
  8
11
 62
1
 10
287.059517
 20
107.366582
 30
0.0
  0
VERTEX
  6
SL2
  8
11
 62
1
 10
287.059517
 20
125.155644
 30
0.0
  0
SEQEND
  0
POLYLINE
  6
SL2
  8
11
 62
1
 66
1
 70
0
  0
VERTEX
  6
SL2
  8
11
 62
1
 10
295.731392
 20
116.870488
 30
0.0
  0
VERTEX
  6
SL2
  8
11
 62
1
 10
283.564729
 20
116.870488
 30
0.0
  0
SEQEND
  0
POLYLINE
  6
SL2
  8
11
 62
1
 66
1
 70
0
  0
VERTEX
  6
SL2
  8
11
 62
1
 10
244.676777
 20
116.870503
 30
0.0
  0
VERTEX
  6
SL2
  8
11
 62
1
 10
224.567402
 20
116.870503
 30
0.0
  0
SEQEND
  0
CIRCLE
  6
SL5
  8
11
 62
2
 10
234.05959
 20
116.870503
 30
0.0
 40
4.75
  0
CIRCLE
  6
SL5
  8
11
 62
2
 10
287.059517
 20
116.870488
 30
0.0
 40
4.75
  0
CIRCLE
  6
SL5
  8
11
 62
2
 10
234.05959
 20
116.870503
 30
0.0
 40
3.25
  0
CIRCLE
  6
SL5
  8
11
 62
2
 10
287.059517
 20
116.870488
 30
0.0
 40
3.25
  0
POLYLINE
  6
SL0
  8
11
 62
7
 66
1
 70
0
  0
VERTEX
  6
SL0
  8
11
 62
7
 10
73.05959
 20
132.370482
 30
0.0
  0
VERTEX
  6
SL0
  8
11
 62
7
 10
146.059559
 20
132.370482
 30
0.0
  0
SEQEND
  0
POLYLINE
  6
SL0
  8
11
 62
7
 66
1
 70
0
  0
VERTEX
  6
SL0
  8
11
 62
7
 10
148.059559
 20
132.370482
 30
0.0
  0
VERTEX
  6
SL0
  8
11
 62
7
 10
354.059591
 20
132.370466
 30
0.0
  0
VERTEX
  6
SL0
  8
11
 62
7
 10
354.059591
 20
84.870467
 30
0.0
  0
SEQEND
  0
POLYLINE
  6
SL0
  8
11
 62
7
 66
1
 70
0
  0
VERTEX
  6
SL0
  8
11
 62
7
 10
354.059591
 20
132.370466
 30
0.0
  0
VERTEX
  6
SL0
  8
11
 62
7
 10
359.05959
 20
137.370466
 30
0.0
  0
SEQEND
  0
POLYLINE
  6
SL5
  8
11
 62
2
 66
1
 70
0
  0
VERTEX
  6
SL5
  8
11
 62
2
 10
359.059562
 20
84.870453
 30
0.0
  0
VERTEX
  6
SL5
  8
11
 62
2
 10
359.059562
 20
137.370453
 30
0.0
  0
VERTEX
  6
SL5
  8
11
 62
2
 10
148.059546
 20
137.370468
 30
0.0
  0
VERTEX
  6
SL5
  8
11
 62
2
 10
148.059546
 20
123.870468
 30
0.0
  0
VERTEX
  6
SL5
  8
11
 62
2
 10
73.059577
 20
123.870468
 30
0.0
  0
VERTEX
  6
SL5
  8
11
 62
2
 10
73.059577
 20
104.870468
 30
0.0
  0
VERTEX
  6
SL5
  8
11
 62
2
 10
134.059577
 20
104.870468
 30
0.0
 42
-0.414214
  0
VERTEX
  6
SL5
  8
11
 62
2
 10
154.059577
 20
84.870468
 30
0.0
  0
SEQEND
  0
POLYLINE
  6
SL5
  8
11
 62
2
 66
1
 70
0
  0
VERTEX
  6
SL5
  8
11
 62
2
 10
146.059546
 20
123.870468
 30
0.0
  0
VERTEX
  6
SL5
  8
11
 62
2
 10
146.059546
 20
137.370468
 30
0.0
  0
VERTEX
  6
SL5
  8
11
 62
2
 10
73.059577
 20
137.370468
 30
0.0
  0
VERTEX
  6
SL5
  8
11
 62
2
 10
73.059577
 20
123.870468
 30
0.0
  0
SEQEND
  0
ENDBLK
  8
0
  0
BLOCK
  8
0
  2
MEDCLUMP_SET_215_
 70
64
 10
0.0
 20
0.0
 30
0.0
  0
POLYLINE
  6
SL5
  8
11
 62
2
 66
1
 70
0
  0
VERTEX
  6
SL5
  8
11
 62
2
 10
426.887702
 20
350.758128
 30
0.0
  0
VERTEX
  6
SL5
  8
11
 62
2
 10
426.887702
 20
301.258136
 30
0.0
  0
VERTEX
  6
SL5
  8
11
 62
2
 10
508.887702
 20
301.258136
 30
0.0
  0
VERTEX
  6
SL5
  8
11
 62
2
 10
508.887702
 20
350.758128
 30
0.0
  0
VERTEX
  6
SL5
  8
11
 62
2
 10
426.887702
 20
350.758128
 30
0.0
  0
SEQEND
  0
ENDBLK
  8
0
  0
BLOCK
  8
0
  2
MEDCLUMP_SET_212_
 70
64
 10
0.0
 20
0.0
 30
0.0
  0
POLYLINE
  6
SL2
  8
11
 62
1
 66
1
 70
0
  0
VERTEX
  6
SL2
  8
11
 62
1
 10
134.059569
 20
293.691226
 30
0.0
  0
VERTEX
  6
SL2
  8
11
 62
1
 10
134.059569
 20
357.805064
 30
0.0
  0
SEQEND
  0
POLYLINE
  6
SL5
  8
11
 62
2
 66
1
 70
0
  0
VERTEX
  6
SL5
  8
11
 62
2
 10
79.059577
 20
350.758128
 30
0.0
  0
VERTEX
  6
SL5
  8
11
 62
2
 10
79.059577
 20
301.258136
 30
0.0
  0
VERTEX
  6
SL5
  8
11
 62
2
 10
354.059577
 20
301.258136
 30
0.0
  0
VERTEX
  6
SL5
  8
11
 62
2
 10
354.059577
 20
350.758128
 30
0.0
  0
VERTEX
  6
SL5
  8
11
 62
2
 10
79.059577
 20
350.758128
 30
0.0
  0
SEQEND
  0
ENDBLK
  8
0
  0
BLOCK
  8
0
  2
MEDCLUMP_SET_210_
 70
64
 10
0.0
 20
0.0
 30
0.0
  0
POLYLINE
  6
SL2
  8
11
 62
1
 66
1
 70
0
  0
VERTEX
  6
SL2
  8
11
 62
1
 10
467.887702
 20
290.774463
 30
0.0
  0
VERTEX
  6
SL2
  8
11
 62
1
 10
467.887702
 20
359.978419
 30
0.0
  0
SEQEND
  0
ENDBLK
  8
0
  0
BLOCK
  8
0
  2
MEDCLUMP_SET_203_
 70
64
 10
0.0
 20
0.0
 30
0.0
  0
POLYLINE
  6
SL0
  8
11
 62
7
 66
1
 70
0
  0
VERTEX
  6
SL0
  8
11
 62
7
 10
338.059468
 20
227.302604
 30
0.0
  0
VERTEX
  6
SL0
  8
11
 62
7
 10
353.032025
 20
227.302598
 30
0.0
  0
SEQEND
  0
POLYLINE
  6
SL0
  8
11
 62
7
 66
1
 70
0
  0
VERTEX
  6
SL0
  8
11
 62
7
 10
338.059468
 20
231.702604
 30
0.0
  0
VERTEX
  6
SL0
  8
11
 62
7
 10
353.032025
 20
231.702598
 30
0.0
  0
SEQEND
  0
POLYLINE
  6
SL5
  8
11
 62
2
 66
1
 70
0
  0
VERTEX
  6
SL5
  8
11
 62
2
 10
355.832025
 20
226.615846
 30
0.0
  0
VERTEX
  6
SL5
  8
11
 62
2
 10
353.032025
 20
226.615846
 30
0.0
  0
SEQEND
  0
POLYLINE
  6
SL5
  8
11
 62
2
 66
1
 70
0
  0
VERTEX
  6
SL5
  8
11
 62
2
 10
353.032025
 20
232.377531
 30
0.0
  0
VERTEX
  6
SL5
  8
11
 62
2
 10
355.816107
 20
232.377531
 30
0.0
  0
SEQEND
  0
POLYLINE
  6
SL5
  8
11
 62
2
 66
1
 70
0
  0
VERTEX
  6
SL5
  8
11
 62
2
 10
353.032025
 20
226.502598
 30
0.0
  0
VERTEX
  6
SL5
  8
11
 62
2
 10
353.032025
 20
232.502598
 30
0.0
  0
SEQEND
  0
POLYLINE
  6
SL5
  8
11
 62
2
 66
1
 70
0
  0
VERTEX
  6
SL5
  8
11
 62
2
 10
338.059498
 20
226.502603
 30
0.0
  0
VERTEX
  6
SL5
  8
11
 62
2
 10
353.032025
 20
226.502598
 30
0.0
  0
VERTEX
  6
SL5
  8
11
 62
2
 10
353.032025
 20
225.183795
 30
0.0
  0
VERTEX
  6
SL5
  8
11
 62
2
 10
353.032025
 20
224.229095
 30
0.0
 42
0.414214
  0
VERTEX
  6
SL5
  8
11
 62
2
 10
353.532025
 20
223.729095
 30
0.0
  0
VERTEX
  6
SL5
  8
11
 62
2
 10
355.846832
 20
223.729095
 30
0.0
 42
0.480805
  0
VERTEX
  6
SL5
  8
11
 62
2
 10
355.832025
 20
226.615846
 30
0.0
  0
VERTEX
  6
SL5
  8
11
 62
2
 70
16
 10
355.832025
 20
226.615846
 30
0.0
  0
VERTEX
  6
SL5
  8
11
 62
2
 70
8
 10
355.832025
 20
226.615846
 30
0.0
  0
VERTEX
  6
SL5
  8
11
 62
2
 70
8
 10
356.159123
 20
227.320774
 30
0.0
  0
VERTEX
  6
SL5
  8
11
 62
2
 70
8
 10
356.289722
 20
227.695459
 30
0.0
  0
VERTEX
  6
SL5
  8
11
 62
2
 70
8
 10
356.396045
 20
228.082266
 30
0.0
  0
VERTEX
  6
SL5
  8
11
 62
2
 70
8
 10
356.476684
 20
228.47885
 30
0.0
  0
VERTEX
  6
SL5
  8
11
 62
2
 70
8
 10
356.530538
 20
228.882651
 30
0.0
  0
VERTEX
  6
SL5
  8
11
 62
2
 70
8
 10
356.556858
 20
229.290953
 30
0.0
  0
VERTEX
  6
SL5
  8
11
 62
2
 70
8
 10
356.555268
 20
229.700934
 30
0.0
  0
VERTEX
  6
SL5
  8
11
 62
2
 70
8
 10
356.52578
 20
230.109741
 30
0.0
  0
VERTEX
  6
SL5
  8
11
 62
2
 70
8
 10
356.46879
 20
230.514546
 30
0.0
  0
VERTEX
  6
SL5
  8
11
 62
2
 70
8
 10
356.385071
 20
230.912617
 30
0.0
  0
VERTEX
  6
SL5
  8
11
 62
2
 70
8
 10
356.27574
 20
231.301375
 30
0.0
  0
VERTEX
  6
SL5
  8
11
 62
2
 70
8
 10
356.142226
 20
231.678451
 30
0.0
  0
VERTEX
  6
SL5
  8
11
 62
2
 70
8
 10
355.986223
 20
232.041721
 30
0.0
  0
VERTEX
  6
SL5
  8
11
 62
2
 70
8
 10
355.809638
 20
232.389349
 30
0.0
  0
VERTEX
  6
SL5
  8
11
 62
2
 70
16
 10
355.809638
 20
232.389349
 30
0.0
  0
VERTEX
  6
SL5
  8
11
 62
2
 10
355.846832
 20
232.389349
 30
0.0
 42
0.479973
  0
VERTEX
  6
SL5
  8
11
 62
2
 10
355.838411
 20
235.2761
 30
0.0
  0
VERTEX
  6
SL5
  8
11
 62
2
 10
353.532025
 20
235.2761
 30
0.0
 42
0.414214
  0
VERTEX
  6
SL5
  8
11
 62
2
 10
353.032025
 20
234.7761
 30
0.0
  0
VERTEX
  6
SL5
  8
11
 62
2
 10
353.032025
 20
234.1214
 30
0.0
  0
VERTEX
  6
SL5
  8
11
 62
2
 10
353.032025
 20
232.502598
 30
0.0
  0
VERTEX
  6
SL5
  8
11
 62
2
 10
338.059498
 20
232.502603
 30
0.0
  0
SEQEND
  0
ENDBLK
  8
0
  0
BLOCK
  8
0
  2
MEDCLUMP_SET_196_
 70
64
 10
0.0
 20
0.0
 30
0.0
  0
POLYLINE
  6
SL0
  8
11
 62
7
 66
1
 70
0
  0
VERTEX
  6
SL0
  8
11
 62
7
 10
338.059468
 20
173.302558
 30
0.0
  0
VERTEX
  6
SL0
  8
11
 62
7
 10
353.032025
 20
173.302552
 30
0.0
  0
SEQEND
  0
POLYLINE
  6
SL0
  8
11
 62
7
 66
1
 70
0
  0
VERTEX
  6
SL0
  8
11
 62
7
 10
338.059468
 20
177.702558
 30
0.0
  0
VERTEX
  6
SL0
  8
11
 62
7
 10
353.032025
 20
177.702552
 30
0.0
  0
SEQEND
  0
POLYLINE
  6
SL5
  8
11
 62
2
 66
1
 70
0
  0
VERTEX
  6
SL5
  8
11
 62
2
 10
355.832025
 20
172.6158
 30
0.0
  0
VERTEX
  6
SL5
  8
11
 62
2
 10
353.032025
 20
172.6158
 30
0.0
  0
SEQEND
  0
POLYLINE
  6
SL5
  8
11
 62
2
 66
1
 70
0
  0
VERTEX
  6
SL5
  8
11
 62
2
 10
353.032025
 20
178.377485
 30
0.0
  0
VERTEX
  6
SL5
  8
11
 62
2
 10
355.816107
 20
178.377485
 30
0.0
  0
SEQEND
  0
POLYLINE
  6
SL5
  8
11
 62
2
 66
1
 70
0
  0
VERTEX
  6
SL5
  8
11
 62
2
 10
353.032025
 20
172.502552
 30
0.0
  0
VERTEX
  6
SL5
  8
11
 62
2
 10
353.032025
 20
178.502552
 30
0.0
  0
SEQEND
  0
POLYLINE
  6
SL5
  8
11
 62
2
 66
1
 70
0
  0
VERTEX
  6
SL5
  8
11
 62
2
 10
338.059498
 20
172.502558
 30
0.0
  0
VERTEX
  6
SL5
  8
11
 62
2
 10
353.032025
 20
172.502552
 30
0.0
  0
VERTEX
  6
SL5
  8
11
 62
2
 10
353.032025
 20
171.18375
 30
0.0
  0
VERTEX
  6
SL5
  8
11
 62
2
 10
353.032025
 20
170.229049
 30
0.0
 42
0.414214
  0
VERTEX
  6
SL5
  8
11
 62
2
 10
353.532025
 20
169.729049
 30
0.0
  0
VERTEX
  6
SL5
  8
11
 62
2
 10
355.846832
 20
169.729049
 30
0.0
 42
0.480805
  0
VERTEX
  6
SL5
  8
11
 62
2
 10
355.832025
 20
172.6158
 30
0.0
  0
VERTEX
  6
SL5
  8
11
 62
2
 70
16
 10
355.832025
 20
172.6158
 30
0.0
  0
VERTEX
  6
SL5
  8
11
 62
2
 70
8
 10
355.832025
 20
172.6158
 30
0.0
  0
VERTEX
  6
SL5
  8
11
 62
2
 70
8
 10
356.159123
 20
173.320728
 30
0.0
  0
VERTEX
  6
SL5
  8
11
 62
2
 70
8
 10
356.289722
 20
173.695413
 30
0.0
  0
VERTEX
  6
SL5
  8
11
 62
2
 70
8
 10
356.396045
 20
174.08222
 30
0.0
  0
VERTEX
  6
SL5
  8
11
 62
2
 70
8
 10
356.476684
 20
174.478804
 30
0.0
  0
VERTEX
  6
SL5
  8
11
 62
2
 70
8
 10
356.530538
 20
174.882605
 30
0.0
  0
VERTEX
  6
SL5
  8
11
 62
2
 70
8
 10
356.556858
 20
175.290907
 30
0.0
  0
VERTEX
  6
SL5
  8
11
 62
2
 70
8
 10
356.555268
 20
175.700889
 30
0.0
  0
VERTEX
  6
SL5
  8
11
 62
2
 70
8
 10
356.52578
 20
176.109695
 30
0.0
  0
VERTEX
  6
SL5
  8
11
 62
2
 70
8
 10
356.46879
 20
176.5145
 30
0.0
  0
VERTEX
  6
SL5
  8
11
 62
2
 70
8
 10
356.385071
 20
176.912571
 30
0.0
  0
VERTEX
  6
SL5
  8
11
 62
2
 70
8
 10
356.27574
 20
177.30133
 30
0.0
  0
VERTEX
  6
SL5
  8
11
 62
2
 70
8
 10
356.142226
 20
177.678405
 30
0.0
  0
VERTEX
  6
SL5
  8
11
 62
2
 70
8
 10
355.986223
 20
178.041675
 30
0.0
  0
VERTEX
  6
SL5
  8
11
 62
2
 70
8
 10
355.809638
 20
178.389303
 30
0.0
  0
VERTEX
  6
SL5
  8
11
 62
2
 70
16
 10
355.809638
 20
178.389303
 30
0.0
  0
VERTEX
  6
SL5
  8
11
 62
2
 10
355.846832
 20
178.389303
 30
0.0
 42
0.479973
  0
VERTEX
  6
SL5
  8
11
 62
2
 10
355.838411
 20
181.276054
 30
0.0
  0
VERTEX
  6
SL5
  8
11
 62
2
 10
353.532025
 20
181.276054
 30
0.0
 42
0.414214
  0
VERTEX
  6
SL5
  8
11
 62
2
 10
353.032025
 20
180.776054
 30
0.0
  0
VERTEX
  6
SL5
  8
11
 62
2
 10
353.032025
 20
180.121354
 30
0.0
  0
VERTEX
  6
SL5
  8
11
 62
2
 10
353.032025
 20
178.502552
 30
0.0
  0
VERTEX
  6
SL5
  8
11
 62
2
 10
338.059498
 20
178.502558
 30
0.0
  0
SEQEND
  0
ENDBLK
  8
0
  0
BLOCK
  8
0
  2
MEDCLUMP_SET_194_
 70
64
 10
0.0
 20
0.0
 30
0.0
  0
POLYLINE
  6
SL5
  8
11
 62
2
 66
1
 70
0
  0
VERTEX
  6
SL5
  8
11
 62
2
 10
70.059524
 20
350.758113
 30
0.0
  0
VERTEX
  6
SL5
  8
11
 62
2
 10
70.059623
 20
354.258113
 30
0.0
  0
VERTEX
  6
SL5
  8
11
 62
2
 10
121.709617
 20
354.258082
 30
0.0
  0
SEQEND
  0
POLYLINE
  6
SL5
  8
11
 62
2
 66
1
 70
0
  0
VERTEX
  6
SL5
  8
11
 62
2
 10
146.457313
 20
354.258113
 30
0.0
  0
VERTEX
  6
SL5
  8
11
 62
2
 10
121.709617
 20
354.258082
 30
0.0
  0
VERTEX
  6
SL5
  8
11
 62
2
 10
161.88716
 20
354.258128
 30
0.0
  0
VERTEX
  6
SL5
  8
11
 62
2
 10
163.059516
 20
354.258143
 30
0.0
  0
VERTEX
  6
SL5
  8
11
 62
2
 10
163.559516
 20
353.758098
 30
0.0
  0
VERTEX
  6
SL5
  8
11
 62
2
 10
163.559417
 20
352.758113
 30
0.0
  0
VERTEX
  6
SL5
  8
11
 62
2
 10
154.496123
 20
352.758113
 30
0.0
  0
VERTEX
  6
SL5
  8
11
 62
2
 10
149.559623
 20
352.758082
 30
0.0
  0
VERTEX
  6
SL5
  8
11
 62
2
 10
149.559615
 20
350.758113
 30
0.0
  0
VERTEX
  6
SL5
  8
11
 62
2
 10
70.059524
 20
350.758113
 30
0.0
  0
SEQEND
  0
ENDBLK
  8
0
  0
BLOCK
  8
0
  2
MEDCLUMP_SET_166_
 70
64
 10
0.0
 20
0.0
 30
0.0
  0
POLYLINE
  6
SL5
  8
11
 62
2
 66
1
 70
0
  0
VERTEX
  6
SL5
  8
11
 62
2
 10
119.523695
 20
174.961875
 30
0.0
 42
-1.732073
  0
VERTEX
  6
SL5
  8
11
 62
2
 10
112.595509
 20
174.961875
 30
0.0
  0
SEQEND
  0
POLYLINE
  6
SL5
  8
11
 62
2
 66
1
 70
0
  0
VERTEX
  6
SL5
  8
11
 62
2
 10
119.523686
 20
229.961875
 30
0.0
 42
1.732051
  0
VERTEX
  6
SL5
  8
11
 62
2
 10
112.595483
 20
229.961875
 30
0.0
  0
SEQEND
  0
CIRCLE
  6
SL2
  8
11
 62
1
 10
134.059577
 20
202.461886
 30
0.0
 40
12.649994
  0
CIRCLE
  6
SL5
  8
11
 62
2
 10
163.059569
 20
177.461844
 30
0.0
 40
4.0
  0
CIRCLE
  6
SL5
  8
11
 62
2
 10
93.0596
 20
202.46189
 30
0.0
 40
1.849991
  0
POLYLINE
  6
SL2
  8
11
 62
1
 66
1
 70
0
  0
VERTEX
  6
SL2
  8
11
 62
1
 10
134.059577
 20
202.461875
 30
0.0
  0
VERTEX
  6
SL2
  8
11
 62
1
 10
134.059577
 20
166.710013
 30
0.0
  0
SEQEND
  0
POLYLINE
  6
SL5
  8
11
 62
2
 66
1
 70
0
  0
VERTEX
  6
SL5
  8
11
 62
2
 10
168.559554
 20
202.461871
 30
0.0
  0
VERTEX
  6
SL5
  8
11
 62
2
 10
168.559562
 20
173.961856
 30
0.0
 42
-0.414214
  0
VERTEX
  6
SL5
  8
11
 62
2
 10
166.559562
 20
171.961856
 30
0.0
  0
VERTEX
  6
SL5
  8
11
 62
2
 10
165.059554
 20
171.961856
 30
0.0
 42
0.414214
  0
VERTEX
  6
SL5
  8
11
 62
2
 10
163.059554
 20
169.961856
 30
0.0
  0
VERTEX
  6
SL5
  8
11
 62
2
 10
163.059554
 20
169.961825
 30
0.0
 42
-0.414214
  0
VERTEX
  6
SL5
  8
11
 62
2
 10
161.059554
 20
167.961825
 30
0.0
  0
VERTEX
  6
SL5
  8
11
 62
2
 10
113.059585
 20
167.961825
 30
0.0
 42
-0.414214
  0
VERTEX
  6
SL5
  8
11
 62
2
 10
111.059585
 20
169.961825
 30
0.0
  0
VERTEX
  6
SL5
  8
11
 62
2
 10
111.059585
 20
174.961871
 30
0.0
  0
SEQEND
  0
POLYLINE
  6
SL2
  8
11
 62
1
 66
1
 70
0
  0
VERTEX
  6
SL2
  8
11
 62
1
 10
134.059577
 20
202.46189
 30
0.0
  0
VERTEX
  6
SL2
  8
11
 62
1
 10
134.059577
 20
166.709998
 30
0.0
  0
SEQEND
  0
CIRCLE
  6
SL5
  8
11
 62
2
 10
163.059569
 20
227.461905
 30
0.0
 40
4.0
  0
CIRCLE
  6
SL5
  8
11
 62
2
 10
93.0596
 20
202.461875
 30
0.0
 40
1.849991
  0
POLYLINE
  6
SL2
  8
11
 62
1
 66
1
 70
0
  0
VERTEX
  6
SL2
  8
11
 62
1
 10
134.059577
 20
202.46189
 30
0.0
  0
VERTEX
  6
SL2
  8
11
 62
1
 10
134.059577
 20
238.213736
 30
0.0
  0
SEQEND
  0
POLYLINE
  6
SL5
  8
11
 62
2
 66
1
 70
0
  0
VERTEX
  6
SL5
  8
11
 62
2
 10
168.559569
 20
202.461875
 30
0.0
  0
VERTEX
  6
SL5
  8
11
 62
2
 10
168.559569
 20
230.961875
 30
0.0
 42
0.414214
  0
VERTEX
  6
SL5
  8
11
 62
2
 10
166.559569
 20
232.961875
 30
0.0
  0
VERTEX
  6
SL5
  8
11
 62
2
 10
165.059562
 20
232.961875
 30
0.0
 42
-0.414214
  0
VERTEX
  6
SL5
  8
11
 62
2
 10
163.059562
 20
234.961875
 30
0.0
  0
VERTEX
  6
SL5
  8
11
 62
2
 10
163.059562
 20
234.961905
 30
0.0
 42
0.414214
  0
VERTEX
  6
SL5
  8
11
 62
2
 10
161.059554
 20
236.961905
 30
0.0
  0
VERTEX
  6
SL5
  8
11
 62
2
 10
113.059585
 20
236.961905
 30
0.0
 42
0.414214
  0
VERTEX
  6
SL5
  8
11
 62
2
 10
111.059585
 20
234.961905
 30
0.0
  0
VERTEX
  6
SL5
  8
11
 62
2
 10
111.059569
 20
229.961875
 30
0.0
  0
SEQEND
  0
POLYLINE
  6
SL2
  8
11
 62
1
 66
1
 70
0
  0
VERTEX
  6
SL2
  8
11
 62
1
 10
134.059577
 20
202.46189
 30
0.0
  0
VERTEX
  6
SL2
  8
11
 62
1
 10
134.059577
 20
238.213767
 30
0.0
  0
SEQEND
  0
POLYLINE
  6
SL5
  8
11
 62
2
 66
1
 70
0
  0
VERTEX
  6
SL5
  8
11
 62
2
 10
114.459609
 20
172.033118
 30
0.0
  0
VERTEX
  6
SL5
  8
11
 62
2
 10
116.059585
 20
171.111792
 30
0.0
  0
VERTEX
  6
SL5
  8
11
 62
2
 10
117.659621
 20
172.033118
 30
0.0
  0
VERTEX
  6
SL5
  8
11
 62
2
 10
117.659621
 20
173.89054
 30
0.0
  0
VERTEX
  6
SL5
  8
11
 62
2
 10
116.059585
 20
174.811804
 30
0.0
  0
VERTEX
  6
SL5
  8
11
 62
2
 10
114.459609
 20
173.89054
 30
0.0
  0
VERTEX
  6
SL5
  8
11
 62
2
 10
114.459609
 20
172.033118
 30
0.0
  0
SEQEND
  0
POLYLINE
  6
SL5
  8
11
 62
2
 66
1
 70
0
  0
VERTEX
  6
SL5
  8
11
 62
2
 10
114.459609
 20
232.890616
 30
0.0
  0
VERTEX
  6
SL5
  8
11
 62
2
 10
116.059585
 20
233.811942
 30
0.0
  0
VERTEX
  6
SL5
  8
11
 62
2
 10
117.659621
 20
232.890616
 30
0.0
  0
VERTEX
  6
SL5
  8
11
 62
2
 10
117.659621
 20
231.033194
 30
0.0
  0
VERTEX
  6
SL5
  8
11
 62
2
 10
116.059585
 20
230.11193
 30
0.0
  0
VERTEX
  6
SL5
  8
11
 62
2
 10
114.459609
 20
231.033194
 30
0.0
  0
VERTEX
  6
SL5
  8
11
 62
2
 10
114.459609
 20
232.890616
 30
0.0
  0
SEQEND
  0
POLYLINE
  6
SL5
  8
11
 62
2
 66
1
 70
0
  0
VERTEX
  6
SL5
  8
11
 62
2
 10
161.459586
 20
226.533133
 30
0.0
  0
VERTEX
  6
SL5
  8
11
 62
2
 10
163.059562
 20
225.611808
 30
0.0
  0
VERTEX
  6
SL5
  8
11
 62
2
 10
164.659598
 20
226.533133
 30
0.0
  0
VERTEX
  6
SL5
  8
11
 62
2
 10
164.659598
 20
228.390555
 30
0.0
  0
VERTEX
  6
SL5
  8
11
 62
2
 10
163.059562
 20
229.31182
 30
0.0
  0
VERTEX
  6
SL5
  8
11
 62
2
 10
161.459586
 20
228.390555
 30
0.0
  0
VERTEX
  6
SL5
  8
11
 62
2
 10
161.459586
 20
226.533133
 30
0.0
  0
SEQEND
  0
CIRCLE
  6
SL5
  8
11
 62
2
 10
163.059562
 20
227.461844
 30
0.0
 40
4.0
  0
POLYLINE
  6
SL5
  8
11
 62
2
 66
1
 70
0
  0
VERTEX
  6
SL5
  8
11
 62
2
 10
161.459586
 20
178.390616
 30
0.0
  0
VERTEX
  6
SL5
  8
11
 62
2
 10
163.059562
 20
179.311942
 30
0.0
  0
VERTEX
  6
SL5
  8
11
 62
2
 10
164.659598
 20
178.390616
 30
0.0
  0
VERTEX
  6
SL5
  8
11
 62
2
 10
164.659598
 20
176.533194
 30
0.0
  0
VERTEX
  6
SL5
  8
11
 62
2
 10
163.059562
 20
175.61193
 30
0.0
  0
VERTEX
  6
SL5
  8
11
 62
2
 10
161.459586
 20
176.533194
 30
0.0
  0
VERTEX
  6
SL5
  8
11
 62
2
 10
161.459586
 20
178.390616
 30
0.0
  0
SEQEND
  0
CIRCLE
  6
SL5
  8
11
 62
2
 10
163.059562
 20
177.461905
 30
0.0
 40
4.0
  0
CIRCLE
  6
SL2
  8
11
 62
1
 10
134.059577
 20
202.461871
 30
0.0
 40
2.150002
  0
POLYLINE
  6
SL5
  8
11
 62
2
 66
1
 70
0
  0
VERTEX
  6
SL5
  8
11
 62
2
 10
125.032805
 20
197.296866
 30
0.0
  0
VERTEX
  6
SL5
  8
11
 62
2
 10
125.032805
 20
197.296866
 30
0.0
  0
SEQEND
  0
POLYLINE
  6
SL2
  8
11
 62
1
 66
1
 70
0
  0
VERTEX
  6
SL2
  8
11
 62
1
 10
124.305098
 20
196.561877
 30
0.0
  0
VERTEX
  6
SL2
  8
11
 62
1
 10
143.814055
 20
196.561877
 30
0.0
 42
0.2789
  0
VERTEX
  6
SL2
  8
11
 62
1
 10
143.814055
 20
208.361857
 30
0.0
  0
VERTEX
  6
SL2
  8
11
 62
1
 10
124.305098
 20
208.361857
 30
0.0
 42
0.2789
  0
VERTEX
  6
SL2
  8
11
 62
1
 10
124.305098
 20
196.561877
 30
0.0
  0
SEQEND
  0
POLYLINE
  6
SL2
  8
11
 62
1
 66
1
 70
0
  0
VERTEX
  6
SL2
  8
11
 62
1
 10
126.473342
 20
202.461875
 30
0.0
  0
VERTEX
  6
SL2
  8
11
 62
1
 10
128.358596
 20
202.461875
 30
0.0
  0
SEQEND
  0
POLYLINE
  6
SL2
  8
11
 62
1
 66
1
 70
0
  0
VERTEX
  6
SL2
  8
11
 62
1
 10
134.059577
 20
202.461844
 30
0.0
  0
VERTEX
  6
SL2
  8
11
 62
1
 10
134.059577
 20
163.028525
 30
0.0
  0
SEQEND
  0
POLYLINE
  6
SL2
  8
11
 62
1
 66
1
 70
0
  0
VERTEX
  6
SL2
  8
11
 62
1
 10
134.059577
 20
202.461844
 30
0.0
  0
VERTEX
  6
SL2
  8
11
 62
1
 10
134.059577
 20
241.895133
 30
0.0
  0
SEQEND
  0
ENDBLK
  8
0
  0
BLOCK
  8
0
  2
MEDCLUMP_SET_97_
 70
64
 10
0.0
 20
0.0
 30
0.0
  0
POLYLINE
  6
SL5
  8
11
 62
2
 66
1
 70
0
  0
VERTEX
  6
SL5
  8
11
 62
2
 10
178.152228
 20
171.96181
 30
0.0
  0
VERTEX
  6
SL5
  8
11
 62
2
 10
170.559539
 20
171.96181
 30
0.0
  0
SEQEND
  0
POLYLINE
  6
SL5
  8
11
 62
2
 66
1
 70
0
  0
VERTEX
  6
SL5
  8
11
 62
2
 10
109.77629
 20
171.0263
 30
0.0
  0
VERTEX
  6
SL5
  8
11
 62
2
 10
106.403594
 20
174.398981
 30
0.0
  0
SEQEND
  0
POLYLINE
  6
SL5
  8
11
 62
2
 66
1
 70
0
  0
VERTEX
  6
SL5
  8
11
 62
2
 10
105.34294
 20
173.338312
 30
0.0
  0
VERTEX
  6
SL5
  8
11
 62
2
 10
108.715621
 20
169.965631
 30
0.0
  0
SEQEND
  0
POLYLINE
  6
SL5
  8
11
 62
2
 66
1
 70
0
  0
VERTEX
  6
SL5
  8
11
 62
2
 10
105.342942
 20
231.683809
 30
0.0
  0
VERTEX
  6
SL5
  8
11
 62
2
 10
108.715638
 20
235.056489
 30
0.0
  0
SEQEND
  0
POLYLINE
  6
SL5
  8
11
 62
2
 66
1
 70
0
  0
VERTEX
  6
SL5
  8
11
 62
2
 10
109.776291
 20
233.99582
 30
0.0
  0
VERTEX
  6
SL5
  8
11
 62
2
 10
106.403611
 20
230.62314
 30
0.0
  0
SEQEND
  0
POLYLINE
  6
SL5
  8
11
 62
2
 66
1
 70
0
  0
VERTEX
  6
SL5
  8
11
 62
2
 10
302.842875
 20
173.305838
 30
0.0
  0
VERTEX
  6
SL5
  8
11
 62
2
 10
306.215571
 20
176.678519
 30
0.0
  0
SEQEND
  0
POLYLINE
  6
SL5
  8
11
 62
2
 66
1
 70
0
  0
VERTEX
  6
SL5
  8
11
 62
2
 10
307.276225
 20
175.61785
 30
0.0
  0
VERTEX
  6
SL5
  8
11
 62
2
 10
303.903544
 20
172.245169
 30
0.0
  0
SEQEND
  0
POLYLINE
  6
SL5
  8
11
 62
2
 66
1
 70
0
  0
VERTEX
  6
SL5
  8
11
 62
2
 10
302.842891
 20
229.305884
 30
0.0
  0
VERTEX
  6
SL5
  8
11
 62
2
 10
306.215587
 20
232.678565
 30
0.0
  0
SEQEND
  0
POLYLINE
  6
SL5
  8
11
 62
2
 66
1
 70
0
  0
VERTEX
  6
SL5
  8
11
 62
2
 10
307.27624
 20
231.617896
 30
0.0
  0
VERTEX
  6
SL5
  8
11
 62
2
 10
303.90356
 20
228.245215
 30
0.0
  0
SEQEND
  0
POLYLINE
  6
SL5
  8
11
 62
2
 66
1
 70
0
  0
VERTEX
  6
SL5
  8
11
 62
2
 10
203.059569
 20
167.961844
 30
0.0
  0
VERTEX
  6
SL5
  8
11
 62
2
 10
177.059577
 20
167.961798
 30
0.0
  0
SEQEND
  0
POLYLINE
  6
SL5
  8
11
 62
2
 66
1
 70
0
  0
VERTEX
  6
SL5
  8
11
 62
2
 10
171.059592
 20
167.961791
 30
0.0
  0
VERTEX
  6
SL5
  8
11
 62
2
 10
161.067481
 20
167.961783
 30
0.0
  0
VERTEX
  6
SL5
  8
11
 62
2
 10
90.559615
 20
167.961814
 30
0.0
 42
-0.049116
  0
VERTEX
  6
SL5
  8
11
 62
2
 10
89.77925
 20
168.038665
 30
0.0
 42
-0.049115
  0
VERTEX
  6
SL5
  8
11
 62
2
 10
89.028869
 20
168.266284
 30
0.0
 42
-0.049106
  0
VERTEX
  6
SL5
  8
11
 62
2
 10
88.337325
 20
168.635928
 30
0.0
 42
-0.049121
  0
VERTEX
  6
SL5
  8
11
 62
2
 10
87.73117
 20
169.133387
 30
0.0
 42
-0.04911
  0
VERTEX
  6
SL5
  8
11
 62
2
 10
87.233718
 20
169.739543
 30
0.0
  0
VERTEX
  6
SL5
  8
11
 62
2
 10
87.014846
 20
170.067115
 30
0.0
  0
VERTEX
  6
SL5
  8
11
 62
2
 10
86.864089
 20
170.431098
 30
0.0
  0
VERTEX
  6
SL5
  8
11
 62
2
 10
86.713332
 20
170.795077
 30
0.0
  0
VERTEX
  6
SL5
  8
11
 62
2
 10
86.636474
 20
171.181475
 30
0.0
  0
VERTEX
  6
SL5
  8
11
 62
2
 10
86.559615
 20
171.961844
 30
0.0
  0
VERTEX
  6
SL5
  8
11
 62
2
 10
86.559615
 20
174.911929
 30
0.0
  0
SEQEND
  0
POLYLINE
  6
SL5
  8
11
 62
2
 66
1
 70
0
  0
VERTEX
  6
SL5
  8
11
 62
2
 10
213.559554
 20
236.961859
 30
0.0
  0
VERTEX
  6
SL5
  8
11
 62
2
 10
177.059577
 20
236.961859
 30
0.0
  0
SEQEND
  0
POLYLINE
  6
SL5
  8
11
 62
2
 66
1
 70
0
  0
VERTEX
  6
SL5
  8
11
 62
2
 10
171.059592
 20
236.961859
 30
0.0
  0
VERTEX
  6
SL5
  8
11
 62
2
 10
161.067481
 20
236.961859
 30
0.0
  0
VERTEX
  6
SL5
  8
11
 62
2
 10
161.067481
 20
236.961859
 30
0.0
  0
VERTEX
  6
SL5
  8
11
 62
2
 10
90.559615
 20
236.96192
 30
0.0
 42
0.414214
  0
VERTEX
  6
SL5
  8
11
 62
2
 10
86.559615
 20
232.961859
 30
0.0
  0
VERTEX
  6
SL5
  8
11
 62
2
 10
86.559615
 20
229.961875
 30
0.0
  0
SEQEND
  0
POLYLINE
  6
SL5
  8
11
 62
2
 66
1
 70
0
  0
VERTEX
  6
SL5
  8
11
 62
2
 10
224.597373
 20
181.681845
 30
0.0
  0
VERTEX
  6
SL5
  8
11
 62
2
 10
224.597358
 20
172.961737
 30
0.0
  0
VERTEX
  6
SL5
  8
11
 62
2
 70
16
 10
224.597358
 20
172.961737
 30
0.0
  0
VERTEX
  6
SL5
  8
11
 62
2
 70
8
 10
224.597358
 20
172.961737
 30
0.0
  0
VERTEX
  6
SL5
  8
11
 62
2
 70
8
 10
224.610481
 20
172.464296
 30
0.0
  0
VERTEX
  6
SL5
  8
11
 62
2
 70
8
 10
224.626885
 20
172.242498
 30
0.0
  0
VERTEX
  6
SL5
  8
11
 62
2
 70
8
 10
224.649851
 20
172.038648
 30
0.0
  0
VERTEX
  6
SL5
  8
11
 62
2
 70
8
 10
224.679379
 20
171.852746
 30
0.0
  0
VERTEX
  6
SL5
  8
11
 62
2
 70
8
 10
224.715468
 20
171.684792
 30
0.0
  0
VERTEX
  6
SL5
  8
11
 62
2
 70
8
 10
224.758119
 20
171.534786
 30
0.0
  0
VERTEX
  6
SL5
  8
11
 62
2
 70
8
 10
224.807332
 20
171.402728
 30
0.0
  0
VERTEX
  6
SL5
  8
11
 62
2
 70
8
 10
224.863106
 20
171.288618
 30
0.0
  0
VERTEX
  6
SL5
  8
11
 62
2
 70
8
 10
224.925442
 20
171.192457
 30
0.0
  0
VERTEX
  6
SL5
  8
11
 62
2
 70
8
 10
224.99434
 20
171.114244
 30
0.0
  0
VERTEX
  6
SL5
  8
11
 62
2
 70
8
 10
225.069799
 20
171.053979
 30
0.0
  0
VERTEX
  6
SL5
  8
11
 62
2
 70
8
 10
225.15182
 20
171.011662
 30
0.0
  0
VERTEX
  6
SL5
  8
11
 62
2
 70
8
 10
225.240403
 20
170.987293
 30
0.0
  0
VERTEX
  6
SL5
  8
11
 62
2
 70
8
 10
225.335547
 20
170.980872
 30
0.0
  0
VERTEX
  6
SL5
  8
11
 62
2
 70
16
 10
225.335547
 20
170.980872
 30
0.0
  0
SEQEND
  0
POLYLINE
  6
SL5
  8
11
 62
2
 66
1
 70
0
  0
VERTEX
  6
SL5
  8
11
 62
2
 10
195.226027
 20
174.338324
 30
0.0
 42
0.355546
  0
VERTEX
  6
SL5
  8
11
 62
2
 10
193.265067
 20
175.931891
 30
0.0
  0
VERTEX
  6
SL5
  8
11
 62
2
 10
183.059539
 20
175.931891
 30
0.0
 42
0.414214
  0
VERTEX
  6
SL5
  8
11
 62
2
 10
181.059539
 20
173.931891
 30
0.0
  0
VERTEX
  6
SL5
  8
11
 62
2
 10
181.059539
 20
173.931891
 30
0.0
  0
SEQEND
  0
POLYLINE
  6
SL5
  8
11
 62
2
 66
1
 70
0
  0
VERTEX
  6
SL5
  8
11
 62
2
 10
203.059569
 20
167.961844
 30
0.0
 42
-1.0
  0
VERTEX
  6
SL5
  8
11
 62
2
 10
203.059569
 20
183.961859
 30
0.0
  0
VERTEX
  6
SL5
  8
11
 62
2
 10
208.059577
 20
183.961859
 30
0.0
 42
-1.0
  0
VERTEX
  6
SL5
  8
11
 62
2
 10
208.059577
 20
167.961859
 30
0.0
  0
VERTEX
  6
SL5
  8
11
 62
2
 10
203.059569
 20
167.961844
 30
0.0
  0
SEQEND
  0
POLYLINE
  6
SL5
  8
11
 62
2
 66
1
 70
0
  0
VERTEX
  6
SL5
  8
11
 62
2
 10
319.05955
 20
176.961829
 30
0.0
  0
VERTEX
  6
SL5
  8
11
 62
2
 10
317.309565
 20
176.961798
 30
0.0
 42
-0.414214
  0
VERTEX
  6
SL5
  8
11
 62
2
 10
315.30955
 20
178.961798
 30
0.0
  0
VERTEX
  6
SL5
  8
11
 62
2
 10
315.30955
 20
190.520529
 30
0.0
 42
-0.414214
  0
VERTEX
  6
SL5
  8
11
 62
2
 10
317.309535
 20
192.520529
 30
0.0
  0
VERTEX
  6
SL5
  8
11
 62
2
 10
320.809535
 20
192.520529
 30
0.0
 42
-0.414214
  0
VERTEX
  6
SL5
  8
11
 62
2
 10
322.80955
 20
190.520529
 30
0.0
  0
VERTEX
  6
SL5
  8
11
 62
2
 10
322.80955
 20
178.961829
 30
0.0
 42
-0.414214
  0
VERTEX
  6
SL5
  8
11
 62
2
 10
320.80955
 20
176.961829
 30
0.0
  0
VERTEX
  6
SL5
  8
11
 62
2
 10
319.05955
 20
176.961829
 30
0.0
  0
SEQEND
  0
POLYLINE
  6
SL5
  8
11
 62
2
 66
1
 70
0
  0
VERTEX
  6
SL5
  8
11
 62
2
 10
319.059535
 20
227.961875
 30
0.0
  0
VERTEX
  6
SL5
  8
11
 62
2
 10
320.80952
 20
227.961905
 30
0.0
 42
-0.414214
  0
VERTEX
  6
SL5
  8
11
 62
2
 10
322.809535
 20
225.961905
 30
0.0
  0
VERTEX
  6
SL5
  8
11
 62
2
 10
322.809535
 20
214.403216
 30
0.0
 42
-0.414214
  0
VERTEX
  6
SL5
  8
11
 62
2
 10
320.809535
 20
212.403216
 30
0.0
  0
VERTEX
  6
SL5
  8
11
 62
2
 10
317.309535
 20
212.403216
 30
0.0
 42
-0.414214
  0
VERTEX
  6
SL5
  8
11
 62
2
 10
315.309535
 20
214.403216
 30
0.0
  0
VERTEX
  6
SL5
  8
11
 62
2
 10
315.309535
 20
225.961875
 30
0.0
 42
-0.414214
  0
VERTEX
  6
SL5
  8
11
 62
2
 10
317.309535
 20
227.961875
 30
0.0
  0
VERTEX
  6
SL5
  8
11
 62
2
 10
319.059535
 20
227.961875
 30
0.0
  0
SEQEND
  0
POLYLINE
  6
SL5
  8
11
 62
2
 66
1
 70
0
  0
VERTEX
  6
SL5
  8
11
 62
2
 10
174.059585
 20
176.961875
 30
0.0
  0
VERTEX
  6
SL5
  8
11
 62
2
 10
175.809577
 20
176.961875
 30
0.0
 42
0.414214
  0
VERTEX
  6
SL5
  8
11
 62
2
 10
177.809577
 20
178.96189
 30
0.0
  0
VERTEX
  6
SL5
  8
11
 62
2
 10
177.809577
 20
190.52056
 30
0.0
 42
0.414214
  0
VERTEX
  6
SL5
  8
11
 62
2
 10
175.809569
 20
192.52056
 30
0.0
  0
VERTEX
  6
SL5
  8
11
 62
2
 10
172.309577
 20
192.52056
 30
0.0
 42
0.414214
  0
VERTEX
  6
SL5
  8
11
 62
2
 10
170.309577
 20
190.52056
 30
0.0
  0
VERTEX
  6
SL5
  8
11
 62
2
 10
170.309577
 20
178.96189
 30
0.0
 42
0.414214
  0
VERTEX
  6
SL5
  8
11
 62
2
 10
172.309562
 20
176.96189
 30
0.0
  0
VERTEX
  6
SL5
  8
11
 62
2
 10
174.059585
 20
176.961875
 30
0.0
  0
SEQEND
  0
POLYLINE
  6
SL5
  8
11
 62
2
 66
1
 70
0
  0
VERTEX
  6
SL5
  8
11
 62
2
 10
174.059585
 20
227.961859
 30
0.0
  0
VERTEX
  6
SL5
  8
11
 62
2
 10
175.809577
 20
227.961859
 30
0.0
 42
-0.414214
  0
VERTEX
  6
SL5
  8
11
 62
2
 10
177.809577
 20
225.961844
 30
0.0
  0
VERTEX
  6
SL5
  8
11
 62
2
 10
177.809577
 20
214.403216
 30
0.0
 42
-0.414214
  0
VERTEX
  6
SL5
  8
11
 62
2
 10
175.809569
 20
212.403216
 30
0.0
  0
VERTEX
  6
SL5
  8
11
 62
2
 10
172.309577
 20
212.403216
 30
0.0
 42
-0.414214
  0
VERTEX
  6
SL5
  8
11
 62
2
 10
170.309577
 20
214.403216
 30
0.0
  0
VERTEX
  6
SL5
  8
11
 62
2
 10
170.309577
 20
225.961844
 30
0.0
 42
-0.414214
  0
VERTEX
  6
SL5
  8
11
 62
2
 10
172.309562
 20
227.961844
 30
0.0
  0
VERTEX
  6
SL5
  8
11
 62
2
 10
174.059585
 20
227.961859
 30
0.0
  0
SEQEND
  0
CIRCLE
  6
SL5
  8
11
 62
2
 10
213.559562
 20
228.961859
 30
0.0
 40
8.0
  0
POLYLINE
  6
SL5
  8
11
 62
2
 66
1
 70
0
  0
VERTEX
  6
SL5
  8
11
 62
2
 10
221.559607
 20
223.241858
 30
0.0
  0
VERTEX
  6
SL5
  8
11
 62
2
 10
224.597373
 20
223.241858
 30
0.0
  0
VERTEX
  6
SL5
  8
11
 62
2
 70
16
 10
224.597373
 20
223.241858
 30
0.0
  0
VERTEX
  6
SL5
  8
11
 62
2
 70
8
 10
224.597373
 20
223.241858
 30
0.0
  0
VERTEX
  6
SL5
  8
11
 62
2
 70
8
 10
224.644321
 20
223.684767
 30
0.0
  0
VERTEX
  6
SL5
  8
11
 62
2
 70
8
 10
224.706042
 20
223.920604
 30
0.0
  0
VERTEX
  6
SL5
  8
11
 62
2
 70
8
 10
224.795109
 20
224.161724
 30
0.0
  0
VERTEX
  6
SL5
  8
11
 62
2
 70
8
 10
224.911885
 20
224.404176
 30
0.0
  0
VERTEX
  6
SL5
  8
11
 62
2
 70
8
 10
225.055759
 20
224.643624
 30
0.0
  0
VERTEX
  6
SL5
  8
11
 62
2
 70
8
 10
225.225092
 20
224.87558
 30
0.0
  0
VERTEX
  6
SL5
  8
11
 62
2
 70
8
 10
225.417252
 20
225.095666
 30
0.0
  0
VERTEX
  6
SL5
  8
11
 62
2
 70
8
 10
225.628746
 20
225.299882
 30
0.0
  0
VERTEX
  6
SL5
  8
11
 62
2
 70
8
 10
225.85543
 20
225.484843
 30
0.0
  0
VERTEX
  6
SL5
  8
11
 62
2
 70
8
 10
226.092767
 20
225.647968
 30
0.0
  0
VERTEX
  6
SL5
  8
11
 62
2
 70
8
 10
226.336117
 20
225.787574
 30
0.0
  0
VERTEX
  6
SL5
  8
11
 62
2
 70
8
 10
226.580999
 20
225.902897
 30
0.0
  0
VERTEX
  6
SL5
  8
11
 62
2
 70
8
 10
226.823319
 20
225.994036
 30
0.0
  0
VERTEX
  6
SL5
  8
11
 62
2
 70
8
 10
227.059531
 20
226.061835
 30
0.0
  0
VERTEX
  6
SL5
  8
11
 62
2
 70
16
 10
227.059531
 20
226.061835
 30
0.0
  0
VERTEX
  6
SL5
  8
11
 62
2
 10
227.059531
 20
231.961981
 30
0.0
 42
0.414214
  0
VERTEX
  6
SL5
  8
11
 62
2
 10
225.059501
 20
233.961981
 30
0.0
  0
VERTEX
  6
SL5
  8
11
 62
2
 10
224.569587
 20
233.961981
 30
0.0
  0
VERTEX
  6
SL5
  8
11
 62
2
 10
223.059577
 20
233.961981
 30
0.0
  0
VERTEX
  6
SL5
  8
11
 62
2
 10
219.80445
 20
233.961981
 30
0.0
  0
SEQEND
  0
POLYLINE
  6
SL5
  8
11
 62
2
 66
1
 70
0
  0
VERTEX
  6
SL5
  8
11
 62
2
 10
322.559535
 20
199.575034
 30
0.0
  0
VERTEX
  6
SL5
  8
11
 62
2
 10
320.059535
 20
201.018393
 30
0.0
  0
VERTEX
  6
SL5
  8
11
 62
2
 10
320.059535
 20
203.905173
 30
0.0
  0
VERTEX
  6
SL5
  8
11
 62
2
 10
322.559535
 20
205.348529
 30
0.0
  0
VERTEX
  6
SL5
  8
11
 62
2
 10
325.059535
 20
203.905173
 30
0.0
  0
VERTEX
  6
SL5
  8
11
 62
2
 10
325.059535
 20
201.018393
 30
0.0
  0
VERTEX
  6
SL5
  8
11
 62
2
 10
322.559535
 20
199.575034
 30
0.0
  0
SEQEND
  0
POLYLINE
  6
SL5
  8
11
 62
2
 66
1
 70
0
  0
VERTEX
  6
SL5
  8
11
 62
2
 10
313.059535
 20
193.859458
 30
0.0
 42
-0.414214
  0
VERTEX
  6
SL5
  8
11
 62
2
 10
311.059535
 20
195.859458
 30
0.0
  0
VERTEX
  6
SL5
  8
11
 62
2
 10
311.059535
 20
208.859454
 30
0.0
 42
-0.414214
  0
VERTEX
  6
SL5
  8
11
 62
2
 10
313.059535
 20
210.859454
 30
0.0
  0
VERTEX
  6
SL5
  8
11
 62
2
 10
325.059535
 20
210.859454
 30
0.0
 42
-0.414214
  0
VERTEX
  6
SL5
  8
11
 62
2
 10
327.059535
 20
208.859454
 30
0.0
  0
VERTEX
  6
SL5
  8
11
 62
2
 10
327.059535
 20
195.859458
 30
0.0
 42
-0.414214
  0
VERTEX
  6
SL5
  8
11
 62
2
 10
325.059535
 20
193.859458
 30
0.0
  0
VERTEX
  6
SL5
  8
11
 62
2
 10
313.059535
 20
193.859458
 30
0.0
  0
SEQEND
  0
POLYLINE
  6
SL5
  8
11
 62
2
 66
1
 70
0
  0
VERTEX
  6
SL5
  8
11
 62
2
 10
224.059554
 20
202.461841
 30
0.0
  0
VERTEX
  6
SL5
  8
11
 62
2
 10
224.059554
 20
208.961833
 30
0.0
 42
-0.414214
  0
VERTEX
  6
SL5
  8
11
 62
2
 10
226.059524
 20
210.961833
 30
0.0
  0
VERTEX
  6
SL5
  8
11
 62
2
 10
262.059546
 20
210.961818
 30
0.0
 42
-0.414214
  0
VERTEX
  6
SL5
  8
11
 62
2
 10
264.059546
 20
208.961818
 30
0.0
  0
VERTEX
  6
SL5
  8
11
 62
2
 10
264.059546
 20
195.961825
 30
0.0
 42
-0.414214
  0
VERTEX
  6
SL5
  8
11
 62
2
 10
262.059531
 20
193.961825
 30
0.0
  0
VERTEX
  6
SL5
  8
11
 62
2
 10
226.059554
 20
193.961871
 30
0.0
 42
-0.414214
  0
VERTEX
  6
SL5
  8
11
 62
2
 10
224.059554
 20
195.961871
 30
0.0
  0
VERTEX
  6
SL5
  8
11
 62
2
 10
224.059554
 20
202.461841
 30
0.0
  0
SEQEND
  0
POLYLINE
  6
SL5
  8
11
 62
2
 66
1
 70
0
  0
VERTEX
  6
SL5
  8
11
 62
2
 10
178.609237
 20
171.961875
 30
0.0
  0
VERTEX
  6
SL5
  8
11
 62
2
 10
179.059569
 20
171.961875
 30
0.0
 42
0.414214
  0
VERTEX
  6
SL5
  8
11
 62
2
 10
181.059546
 20
173.961875
 30
0.0
  0
VERTEX
  6
SL5
  8
11
 62
2
 10
181.059546
 20
190.52056
 30
0.0
 42
-0.414214
  0
VERTEX
  6
SL5
  8
11
 62
2
 10
183.059546
 20
192.52056
 30
0.0
  0
VERTEX
  6
SL5
  8
11
 62
2
 10
291.239909
 20
192.52056
 30
0.0
  0
VERTEX
  6
SL5
  8
11
 62
2
 10
311.059535
 20
192.520529
 30
0.0
 42
-0.414214
  0
VERTEX
  6
SL5
  8
11
 62
2
 10
313.059535
 20
190.520529
 30
0.0
  0
VERTEX
  6
SL5
  8
11
 62
2
 10
313.05952
 20
171.961844
 30
0.0
  0
VERTEX
  6
SL5
  8
11
 62
2
 10
325.05952
 20
171.961844
 30
0.0
  0
VERTEX
  6
SL5
  8
11
 62
2
 10
325.059535
 20
190.520529
 30
0.0
 42
-0.414214
  0
VERTEX
  6
SL5
  8
11
 62
2
 10
327.059535
 20
192.520529
 30
0.0
  0
VERTEX
  6
SL5
  8
11
 62
2
 10
333.05952
 20
192.520529
 30
0.0
 42
0.414214
  0
VERTEX
  6
SL5
  8
11
 62
2
 10
335.05952
 20
194.520529
 30
0.0
  0
VERTEX
  6
SL5
  8
11
 62
2
 10
335.05952
 20
202.461859
 30
0.0
  0
SEQEND
  0
POLYLINE
  6
SL5
  8
11
 62
2
 66
1
 70
0
  0
VERTEX
  6
SL5
  8
11
 62
2
 10
227.059531
 20
178.461814
 30
0.0
  0
VERTEX
  6
SL5
  8
11
 62
2
 10
291.239909
 20
178.461814
 30
0.0
  0
VERTEX
  6
SL5
  8
11
 62
2
 10
298.195598
 20
178.461844
 30
0.0
  0
VERTEX
  6
SL5
  8
11
 62
2
 10
308.05955
 20
178.461844
 30
0.0
 42
-0.414214
  0
VERTEX
  6
SL5
  8
11
 62
2
 10
310.059581
 20
176.461844
 30
0.0
  0
VERTEX
  6
SL5
  8
11
 62
2
 10
310.059581
 20
175.461844
 30
0.0
  0
VERTEX
  6
SL5
  8
11
 62
2
 10
310.059535
 20
171.961844
 30
0.0
  0
VERTEX
  6
SL5
  8
11
 62
2
 10
332.059489
 20
171.961844
 30
0.0
 42
-0.414214
  0
VERTEX
  6
SL5
  8
11
 62
2
 10
333.05952
 20
170.961844
 30
0.0
  0
VERTEX
  6
SL5
  8
11
 62
2
 10
333.05952
 20
170.461844
 30
0.0
 42
0.414214
  0
VERTEX
  6
SL5
  8
11
 62
2
 10
334.05952
 20
169.461844
 30
0.0
  0
VERTEX
  6
SL5
  8
11
 62
2
 10
336.059489
 20
169.461844
 30
0.0
 42
0.414214
  0
VERTEX
  6
SL5
  8
11
 62
2
 10
338.059489
 20
171.461844
 30
0.0
  0
VERTEX
  6
SL5
  8
11
 62
2
 10
338.059504
 20
183.252173
 30
0.0
  0
VERTEX
  6
SL5
  8
11
 62
2
 10
335.559611
 20
183.252158
 30
0.0
  0
VERTEX
  6
SL5
  8
11
 62
2
 10
335.559611
 20
184.573355
 30
0.0
  0
VERTEX
  6
SL5
  8
11
 62
2
 10
327.203151
 20
184.573355
 30
0.0
  0
SEQEND
  0
POLYLINE
  6
SL5
  8
11
 62
2
 66
1
 70
0
  0
VERTEX
  6
SL5
  8
11
 62
2
 10
334.05952
 20
169.461844
 30
0.0
  0
VERTEX
  6
SL5
  8
11
 62
2
 10
322.05955
 20
169.461844
 30
0.0
  0
SEQEND
  0
POLYLINE
  6
SL5
  8
11
 62
2
 66
1
 70
0
  0
VERTEX
  6
SL5
  8
11
 62
2
 10
316.059565
 20
169.461844
 30
0.0
  0
VERTEX
  6
SL5
  8
11
 62
2
 10
312.05955
 20
169.461844
 30
0.0
 42
-0.414214
  0
VERTEX
  6
SL5
  8
11
 62
2
 10
310.05955
 20
171.461844
 30
0.0
  0
VERTEX
  6
SL5
  8
11
 62
2
 10
310.059535
 20
182.573355
 30
0.0
  0
VERTEX
  6
SL5
  8
11
 62
2
 10
310.059535
 20
182.573355
 30
0.0
  0
VERTEX
  6
SL5
  8
11
 62
2
 10
310.059535
 20
183.073386
 30
0.0
  0
VERTEX
  6
SL5
  8
11
 62
2
 70
16
 10
310.059535
 20
183.073386
 30
0.0
  0
VERTEX
  6
SL5
  8
11
 62
2
 70
8
 10
310.059535
 20
183.073386
 30
0.0
  0
VERTEX
  6
SL5
  8
11
 62
2
 70
8
 10
310.078606
 20
183.364916
 30
0.0
  0
VERTEX
  6
SL5
  8
11
 62
2
 70
8
 10
310.103676
 20
183.514102
 30
0.0
  0
VERTEX
  6
SL5
  8
11
 62
2
 70
8
 10
310.139851
 20
183.662355
 30
0.0
  0
VERTEX
  6
SL5
  8
11
 62
2
 70
8
 10
310.187281
 20
183.806946
 30
0.0
  0
VERTEX
  6
SL5
  8
11
 62
2
 70
8
 10
310.245717
 20
183.945046
 30
0.0
  0
VERTEX
  6
SL5
  8
11
 62
2
 70
8
 10
310.314492
 20
184.073892
 30
0.0
  0
VERTEX
  6
SL5
  8
11
 62
2
 70
8
 10
310.392539
 20
184.19096
 30
0.0
  0
VERTEX
  6
SL5
  8
11
 62
2
 70
8
 10
310.478438
 20
184.294122
 30
0.0
  0
VERTEX
  6
SL5
  8
11
 62
2
 70
8
 10
310.570506
 20
184.381774
 30
0.0
  0
VERTEX
  6
SL5
  8
11
 62
2
 70
8
 10
310.666901
 20
184.452917
 30
0.0
  0
VERTEX
  6
SL5
  8
11
 62
2
 70
8
 10
310.765737
 20
184.507179
 30
0.0
  0
VERTEX
  6
SL5
  8
11
 62
2
 70
8
 10
310.865196
 20
184.544782
 30
0.0
  0
VERTEX
  6
SL5
  8
11
 62
2
 70
8
 10
310.963613
 20
184.566466
 30
0.0
  0
VERTEX
  6
SL5
  8
11
 62
2
 70
8
 10
311.05955
 20
184.573386
 30
0.0
  0
VERTEX
  6
SL5
  8
11
 62
2
 70
16
 10
311.05955
 20
184.573386
 30
0.0
  0
VERTEX
  6
SL5
  8
11
 62
2
 10
311.163585
 20
184.573386
 30
0.0
  0
SEQEND
  0
POLYLINE
  6
SL5
  8
11
 62
2
 66
1
 70
0
  0
VERTEX
  6
SL5
  8
11
 62
2
 10
325.328696
 20
191.522662
 30
0.0
  0
VERTEX
  6
SL5
  8
11
 62
2
 10
327.203147
 20
184.573352
 30
0.0
  0
VERTEX
  6
SL5
  8
11
 62
2
 10
327.203147
 20
171.961841
 30
0.0
  0
VERTEX
  6
SL5
  8
11
 62
2
 10
311.153663
 20
171.961841
 30
0.0
  0
SEQEND
  0
POLYLINE
  6
SL5
  8
11
 62
2
 66
1
 70
0
  0
VERTEX
  6
SL5
  8
11
 62
2
 10
311.153663
 20
184.531726
 30
0.0
  0
VERTEX
  6
SL5
  8
11
 62
2
 10
312.812232
 20
191.483935
 30
0.0
  0
SEQEND
  0
POLYLINE
  6
SL2
  8
11
 62
1
 66
1
 70
0
  0
VERTEX
  6
SL2
  8
11
 62
1
 10
337.405696
 20
202.461875
 30
0.0
  0
VERTEX
  6
SL2
  8
11
 62
1
 10
338.619121
 20
202.461875
 30
0.0
  0
SEQEND
  0
CIRCLE
  6
SL5
  8
11
 62
2
 10
305.05955
 20
174.461844
 30
0.0
 40
2.5
  0
POLYLINE
  6
SL5
  8
11
 62
2
 66
1
 70
0
  0
VERTEX
  6
SL5
  8
11
 62
2
 10
304.844218
 20
169.461844
 30
0.0
  0
VERTEX
  6
SL5
  8
11
 62
2
 10
312.05955
 20
169.461844
 30
0.0
  0
VERTEX
  6
SL5
  8
11
 62
2
 10
304.55955
 20
169.461844
 30
0.0
  0
VERTEX
  6
SL5
  8
11
 62
2
 10
301.559604
 20
169.461844
 30
0.0
  0
SEQEND
  0
POLYLINE
  6
SL2
  8
11
 62
1
 66
1
 70
0
  0
VERTEX
  6
SL2
  8
11
 62
1
 10
359.940329
 20
175.461841
 30
0.0
  0
VERTEX
  6
SL2
  8
11
 62
1
 10
335.8637
 20
175.461841
 30
0.0
  0
SEQEND
  0
POLYLINE
  6
SL2
  8
11
 62
1
 66
1
 70
0
  0
VERTEX
  6
SL2
  8
11
 62
1
 10
319.05955
 20
157.234079
 30
0.0
  0
VERTEX
  6
SL2
  8
11
 62
1
 10
319.05955
 20
174.368056
 30
0.0
  0
SEQEND
  0
POLYLINE
  6
SL5
  8
11
 62
2
 66
1
 70
0
  0
VERTEX
  6
SL5
  8
11
 62
2
 10
335.559611
 20
184.573294
 30
0.0
  0
VERTEX
  6
SL5
  8
11
 62
2
 10
335.559611
 20
202.461844
 30
0.0
  0
SEQEND
  0
POLYLINE
  6
SL5
  8
11
 62
2
 66
1
 70
0
  0
VERTEX
  6
SL5
  8
11
 62
2
 10
311.1636
 20
220.350348
 30
0.0
  0
VERTEX
  6
SL5
  8
11
 62
2
 10
311.059565
 20
220.350348
 30
0.0
  0
VERTEX
  6
SL5
  8
11
 62
2
 70
16
 10
311.059565
 20
220.350348
 30
0.0
  0
VERTEX
  6
SL5
  8
11
 62
2
 70
8
 10
311.059565
 20
220.350348
 30
0.0
  0
VERTEX
  6
SL5
  8
11
 62
2
 70
8
 10
310.86521
 20
220.378945
 30
0.0
  0
VERTEX
  6
SL5
  8
11
 62
2
 70
8
 10
310.765751
 20
220.416545
 30
0.0
  0
VERTEX
  6
SL5
  8
11
 62
2
 70
8
 10
310.666914
 20
220.470805
 30
0.0
  0
VERTEX
  6
SL5
  8
11
 62
2
 70
8
 10
310.570519
 20
220.541946
 30
0.0
  0
VERTEX
  6
SL5
  8
11
 62
2
 70
8
 10
310.478451
 20
220.629596
 30
0.0
  0
VERTEX
  6
SL5
  8
11
 62
2
 70
8
 10
310.392552
 20
220.732757
 30
0.0
  0
VERTEX
  6
SL5
  8
11
 62
2
 70
8
 10
310.314506
 20
220.849825
 30
0.0
  0
VERTEX
  6
SL5
  8
11
 62
2
 70
8
 10
310.24573
 20
220.978672
 30
0.0
  0
VERTEX
  6
SL5
  8
11
 62
2
 70
8
 10
310.187295
 20
221.116774
 30
0.0
  0
VERTEX
  6
SL5
  8
11
 62
2
 70
8
 10
310.139865
 20
221.261366
 30
0.0
  0
VERTEX
  6
SL5
  8
11
 62
2
 70
8
 10
310.10369
 20
221.409622
 30
0.0
  0
VERTEX
  6
SL5
  8
11
 62
2
 70
8
 10
310.078621
 20
221.558811
 30
0.0
  0
VERTEX
  6
SL5
  8
11
 62
2
 70
8
 10
310.064164
 20
221.70644
 30
0.0
  0
VERTEX
  6
SL5
  8
11
 62
2
 70
8
 10
310.05955
 20
221.850348
 30
0.0
  0
VERTEX
  6
SL5
  8
11
 62
2
 70
16
 10
310.05955
 20
221.850348
 30
0.0
  0
VERTEX
  6
SL5
  8
11
 62
2
 10
310.05955
 20
222.350379
 30
0.0
  0
VERTEX
  6
SL5
  8
11
 62
2
 10
310.05955
 20
222.350379
 30
0.0
  0
VERTEX
  6
SL5
  8
11
 62
2
 10
310.05955
 20
233.461814
 30
0.0
 42
-0.414214
  0
VERTEX
  6
SL5
  8
11
 62
2
 10
312.05955
 20
235.461814
 30
0.0
  0
VERTEX
  6
SL5
  8
11
 62
2
 10
313.286063
 20
235.461814
 30
0.0
  0
VERTEX
  6
SL5
  8
11
 62
2
 10
316.078832
 20
235.461814
 30
0.0
  0
SEQEND
  0
POLYLINE
  6
SL5
  8
11
 62
2
 66
1
 70
0
  0
VERTEX
  6
SL5
  8
11
 62
2
 10
322.078832
 20
235.461814
 30
0.0
  0
VERTEX
  6
SL5
  8
11
 62
2
 10
324.833068
 20
235.461839
 30
0.0
  0
SEQEND
  0
POLYLINE
  6
SL5
  8
11
 62
2
 66
1
 70
0
  0
VERTEX
  6
SL5
  8
11
 62
2
 10
324.833068
 20
235.461839
 30
0.0
  0
VERTEX
  6
SL5
  8
11
 62
2
 10
334.059535
 20
235.461859
 30
0.0
  0
SEQEND
  0
POLYLINE
  6
SL5
  8
11
 62
2
 66
1
 70
0
  0
VERTEX
  6
SL5
  8
11
 62
2
 10
312.812247
 20
213.439799
 30
0.0
  0
VERTEX
  6
SL5
  8
11
 62
2
 10
311.153678
 20
220.392001
 30
0.0
  0
SEQEND
  0
POLYLINE
  6
SL5
  8
11
 62
2
 66
1
 70
0
  0
VERTEX
  6
SL5
  8
11
 62
2
 10
311.153678
 20
232.961886
 30
0.0
  0
VERTEX
  6
SL5
  8
11
 62
2
 10
327.203162
 20
232.961886
 30
0.0
  0
VERTEX
  6
SL5
  8
11
 62
2
 10
327.203162
 20
220.350375
 30
0.0
  0
VERTEX
  6
SL5
  8
11
 62
2
 10
325.328711
 20
213.401072
 30
0.0
  0
SEQEND
  0
POLYLINE
  6
SL5
  8
11
 62
2
 66
1
 70
0
  0
VERTEX
  6
SL5
  8
11
 62
2
 10
178.609237
 20
232.96189
 30
0.0
  0
VERTEX
  6
SL5
  8
11
 62
2
 10
179.059569
 20
232.96189
 30
0.0
 42
-0.414214
  0
VERTEX
  6
SL5
  8
11
 62
2
 10
181.059546
 20
230.96189
 30
0.0
  0
VERTEX
  6
SL5
  8
11
 62
2
 10
181.059546
 20
214.403216
 30
0.0
 42
0.414214
  0
VERTEX
  6
SL5
  8
11
 62
2
 10
183.059546
 20
212.403216
 30
0.0
  0
VERTEX
  6
SL5
  8
11
 62
2
 10
311.05955
 20
212.403216
 30
0.0
 42
0.414214
  0
VERTEX
  6
SL5
  8
11
 62
2
 10
313.05955
 20
214.403216
 30
0.0
  0
VERTEX
  6
SL5
  8
11
 62
2
 10
313.059535
 20
232.96189
 30
0.0
  0
VERTEX
  6
SL5
  8
11
 62
2
 10
325.059535
 20
232.96189
 30
0.0
  0
VERTEX
  6
SL5
  8
11
 62
2
 10
325.05955
 20
214.403216
 30
0.0
 42
0.414214
  0
VERTEX
  6
SL5
  8
11
 62
2
 10
327.05955
 20
212.403216
 30
0.0
  0
VERTEX
  6
SL5
  8
11
 62
2
 10
333.05952
 20
212.403216
 30
0.0
 42
-0.414214
  0
VERTEX
  6
SL5
  8
11
 62
2
 10
335.05952
 20
210.403216
 30
0.0
  0
VERTEX
  6
SL5
  8
11
 62
2
 10
335.05952
 20
202.461859
 30
0.0
  0
SEQEND
  0
POLYLINE
  6
SL5
  8
11
 62
2
 66
1
 70
0
  0
VERTEX
  6
SL5
  8
11
 62
2
 10
181.059546
 20
226.696784
 30
0.0
  0
VERTEX
  6
SL5
  8
11
 62
2
 10
181.059531
 20
223.641822
 30
0.0
 42
0.414214
  0
VERTEX
  6
SL5
  8
11
 62
2
 10
183.059531
 20
221.641822
 30
0.0
  0
VERTEX
  6
SL5
  8
11
 62
2
 10
203.559562
 20
221.641822
 30
0.0
 42
0.414214
  0
VERTEX
  6
SL5
  8
11
 62
2
 10
205.559562
 20
223.641822
 30
0.0
  0
VERTEX
  6
SL5
  8
11
 62
2
 10
205.559562
 20
228.961859
 30
0.0
  0
SEQEND
  0
POLYLINE
  6
SL5
  8
11
 62
2
 66
1
 70
0
  0
VERTEX
  6
SL5
  8
11
 62
2
 10
181.059546
 20
230.991828
 30
0.0
  0
VERTEX
  6
SL5
  8
11
 62
2
 10
181.059546
 20
230.991828
 30
0.0
 42
0.414214
  0
VERTEX
  6
SL5
  8
11
 62
2
 10
183.059539
 20
228.991828
 30
0.0
  0
VERTEX
  6
SL5
  8
11
 62
2
 10
203.765075
 20
228.991828
 30
0.0
 42
0.355546
  0
VERTEX
  6
SL5
  8
11
 62
2
 10
205.726035
 20
230.585395
 30
0.0
  0
SEQEND
  0
POLYLINE
  6
SL5
  8
11
 62
2
 66
1
 70
0
  0
VERTEX
  6
SL5
  8
11
 62
2
 10
181.059554
 20
179.112387
 30
0.0
  0
VERTEX
  6
SL5
  8
11
 62
2
 10
181.059554
 20
181.281882
 30
0.0
 42
-0.414214
  0
VERTEX
  6
SL5
  8
11
 62
2
 10
183.059554
 20
183.281882
 30
0.0
  0
VERTEX
  6
SL5
  8
11
 62
2
 10
193.059546
 20
183.281867
 30
0.0
 42
-0.414214
  0
VERTEX
  6
SL5
  8
11
 62
2
 10
195.059539
 20
181.281867
 30
0.0
  0
VERTEX
  6
SL5
  8
11
 62
2
 10
195.059562
 20
175.961844
 30
0.0
  0
SEQEND
  0
POLYLINE
  6
SL5
  8
11
 62
2
 66
1
 70
0
  0
VERTEX
  6
SL5
  8
11
 62
2
 10
178.152236
 20
171.961814
 30
0.0
  0
VERTEX
  6
SL5
  8
11
 62
2
 10
179.059554
 20
171.961814
 30
0.0
 42
0.414214
  0
VERTEX
  6
SL5
  8
11
 62
2
 10
181.059554
 20
173.961814
 30
0.0
  0
SEQEND
  0
POLYLINE
  6
SL5
  8
11
 62
2
 66
1
 70
0
  0
VERTEX
  6
SL5
  8
11
 62
2
 10
224.597358
 20
223.241858
 30
0.0
  0
VERTEX
  6
SL5
  8
11
 62
2
 10
224.597342
 20
231.961966
 30
0.0
  0
VERTEX
  6
SL5
  8
11
 62
2
 70
16
 10
224.597342
 20
231.961966
 30
0.0
  0
VERTEX
  6
SL5
  8
11
 62
2
 70
8
 10
224.597342
 20
231.961966
 30
0.0
  0
VERTEX
  6
SL5
  8
11
 62
2
 70
8
 10
224.610466
 20
232.459407
 30
0.0
  0
VERTEX
  6
SL5
  8
11
 62
2
 70
8
 10
224.62687
 20
232.681206
 30
0.0
  0
VERTEX
  6
SL5
  8
11
 62
2
 70
8
 10
224.649836
 20
232.885056
 30
0.0
  0
VERTEX
  6
SL5
  8
11
 62
2
 70
8
 10
224.679364
 20
233.070958
 30
0.0
  0
VERTEX
  6
SL5
  8
11
 62
2
 70
8
 10
224.715453
 20
233.238912
 30
0.0
  0
VERTEX
  6
SL5
  8
11
 62
2
 70
8
 10
224.758104
 20
233.388918
 30
0.0
  0
VERTEX
  6
SL5
  8
11
 62
2
 70
8
 10
224.807316
 20
233.520976
 30
0.0
  0
VERTEX
  6
SL5
  8
11
 62
2
 70
8
 10
224.863091
 20
233.635085
 30
0.0
  0
VERTEX
  6
SL5
  8
11
 62
2
 70
8
 10
224.925427
 20
233.731247
 30
0.0
  0
VERTEX
  6
SL5
  8
11
 62
2
 70
8
 10
224.994324
 20
233.80946
 30
0.0
  0
VERTEX
  6
SL5
  8
11
 62
2
 70
8
 10
225.069784
 20
233.869725
 30
0.0
  0
VERTEX
  6
SL5
  8
11
 62
2
 70
8
 10
225.151805
 20
233.912042
 30
0.0
  0
VERTEX
  6
SL5
  8
11
 62
2
 70
8
 10
225.240388
 20
233.936411
 30
0.0
  0
VERTEX
  6
SL5
  8
11
 62
2
 70
8
 10
225.335532
 20
233.942832
 30
0.0
  0
VERTEX
  6
SL5
  8
11
 62
2
 70
16
 10
225.335532
 20
233.942832
 30
0.0
  0
SEQEND
  0
POLYLINE
  6
SL5
  8
11
 62
2
 66
1
 70
0
  0
VERTEX
  6
SL5
  8
11
 62
2
 10
216.059546
 20
181.681845
 30
0.0
  0
VERTEX
  6
SL5
  8
11
 62
2
 10
224.597373
 20
181.681845
 30
0.0
  0
VERTEX
  6
SL5
  8
11
 62
2
 70
16
 10
224.597373
 20
181.681845
 30
0.0
  0
VERTEX
  6
SL5
  8
11
 62
2
 70
8
 10
224.597373
 20
181.681845
 30
0.0
  0
VERTEX
  6
SL5
  8
11
 62
2
 70
8
 10
224.644321
 20
181.23893
 30
0.0
  0
VERTEX
  6
SL5
  8
11
 62
2
 70
8
 10
224.706042
 20
181.003089
 30
0.0
  0
VERTEX
  6
SL5
  8
11
 62
2
 70
8
 10
224.795109
 20
180.761967
 30
0.0
  0
VERTEX
  6
SL5
  8
11
 62
2
 70
8
 10
224.911885
 20
180.519514
 30
0.0
  0
VERTEX
  6
SL5
  8
11
 62
2
 70
8
 10
225.055759
 20
180.280064
 30
0.0
  0
VERTEX
  6
SL5
  8
11
 62
2
 70
8
 10
225.225092
 20
180.048107
 30
0.0
  0
VERTEX
  6
SL5
  8
11
 62
2
 70
8
 10
225.417252
 20
179.828021
 30
0.0
  0
VERTEX
  6
SL5
  8
11
 62
2
 70
8
 10
225.628746
 20
179.623806
 30
0.0
  0
VERTEX
  6
SL5
  8
11
 62
2
 70
8
 10
225.85543
 20
179.438846
 30
0.0
  0
VERTEX
  6
SL5
  8
11
 62
2
 70
8
 10
226.092767
 20
179.275723
 30
0.0
  0
VERTEX
  6
SL5
  8
11
 62
2
 70
8
 10
226.336117
 20
179.13612
 30
0.0
  0
VERTEX
  6
SL5
  8
11
 62
2
 70
8
 10
226.580999
 20
179.0208
 30
0.0
  0
VERTEX
  6
SL5
  8
11
 62
2
 70
8
 10
226.823319
 20
178.929664
 30
0.0
  0
VERTEX
  6
SL5
  8
11
 62
2
 70
8
 10
227.059531
 20
178.861869
 30
0.0
  0
VERTEX
  6
SL5
  8
11
 62
2
 70
16
 10
227.059531
 20
178.861869
 30
0.0
  0
VERTEX
  6
SL5
  8
11
 62
2
 10
227.059531
 20
172.961722
 30
0.0
 42
-0.414214
  0
VERTEX
  6
SL5
  8
11
 62
2
 10
225.059501
 20
170.961722
 30
0.0
  0
VERTEX
  6
SL5
  8
11
 62
2
 10
224.569587
 20
170.961722
 30
0.0
  0
VERTEX
  6
SL5
  8
11
 62
2
 10
223.059577
 20
170.961722
 30
0.0
  0
VERTEX
  6
SL5
  8
11
 62
2
 10
214.30445
 20
170.961722
 30
0.0
  0
SEQEND
  0
CIRCLE
  6
SL5
  8
11
 62
2
 10
107.559615
 20
172.182306
 30
0.0
 40
2.5
  0
POLYLINE
  6
SL2
  8
11
 62
1
 66
1
 70
0
  0
VERTEX
  6
SL2
  8
11
 62
1
 10
134.059577
 20
202.461844
 30
0.0
  0
VERTEX
  6
SL2
  8
11
 62
1
 10
134.059577
 20
163.028525
 30
0.0
  0
SEQEND
  0
POLYLINE
  6
SL5
  8
11
 62
2
 66
1
 70
0
  0
VERTEX
  6
SL5
  8
11
 62
2
 10
111.059585
 20
167.961875
 30
0.0
  0
VERTEX
  6
SL5
  8
11
 62
2
 10
111.053616
 20
174.961875
 30
0.0
  0
VERTEX
  6
SL5
  8
11
 62
2
 10
93.059585
 20
174.961875
 30
0.0
  0
VERTEX
  6
SL5
  8
11
 62
2
 10
93.059585
 20
168.961844
 30
0.0
 42
0.414214
  0
VERTEX
  6
SL5
  8
11
 62
2
 10
94.059585
 20
167.961844
 30
0.0
  0
VERTEX
  6
SL5
  8
11
 62
2
 10
101.059585
 20
167.961844
 30
0.0
  0
SEQEND
  0
POLYLINE
  6
SL5
  8
11
 62
2
 66
1
 70
0
  0
VERTEX
  6
SL5
  8
11
 62
2
 10
181.059554
 20
189.761801
 30
0.0
 42
0.414214
  0
VERTEX
  6
SL5
  8
11
 62
2
 10
183.059554
 20
187.761801
 30
0.0
  0
VERTEX
  6
SL5
  8
11
 62
2
 10
186.059569
 20
187.761801
 30
0.0
  0
VERTEX
  6
SL5
  8
11
 62
2
 10
214.059546
 20
187.746176
 30
0.0
 42
-0.414214
  0
VERTEX
  6
SL5
  8
11
 62
2
 10
216.059546
 20
185.746176
 30
0.0
  0
VERTEX
  6
SL5
  8
11
 62
2
 10
216.059546
 20
175.961859
 30
0.0
  0
SEQEND
  0
POLYLINE
  6
SL5
  8
11
 62
2
 66
1
 70
0
  0
VERTEX
  6
SL5
  8
11
 62
2
 10
103.5596
 20
167.961844
 30
0.0
  0
VERTEX
  6
SL5
  8
11
 62
2
 10
103.559585
 20
174.961875
 30
0.0
  0
VERTEX
  6
SL5
  8
11
 62
2
 10
103.5596
 20
167.961844
 30
0.0
  0
SEQEND
  0
POLYLINE
  6
SL5
  8
11
 62
2
 66
1
 70
0
  0
VERTEX
  6
SL5
  8
11
 62
2
 10
168.559562
 20
202.461844
 30
0.0
  0
VERTEX
  6
SL5
  8
11
 62
2
 10
168.559562
 20
172.461814
 30
0.0
 42
0.414214
  0
VERTEX
  6
SL5
  8
11
 62
2
 10
169.059562
 20
171.961814
 30
0.0
  0
VERTEX
  6
SL5
  8
11
 62
2
 10
170.559546
 20
171.961814
 30
0.0
  0
SEQEND
  0
CIRCLE
  6
SL5
  8
11
 62
2
 10
107.559617
 20
232.839815
 30
0.0
 40
2.5
  0
POLYLINE
  6
SL2
  8
11
 62
1
 66
1
 70
0
  0
VERTEX
  6
SL2
  8
11
 62
1
 10
134.059577
 20
202.461844
 30
0.0
  0
VERTEX
  6
SL2
  8
11
 62
1
 10
134.059577
 20
241.895148
 30
0.0
  0
SEQEND
  0
POLYLINE
  6
SL5
  8
11
 62
2
 66
1
 70
0
  0
VERTEX
  6
SL5
  8
11
 62
2
 10
103.559585
 20
229.961875
 30
0.0
  0
VERTEX
  6
SL5
  8
11
 62
2
 10
103.559585
 20
236.96189
 30
0.0
  0
SEQEND
  0
POLYLINE
  6
SL5
  8
11
 62
2
 66
1
 70
0
  0
VERTEX
  6
SL5
  8
11
 62
2
 10
111.059585
 20
236.961859
 30
0.0
  0
VERTEX
  6
SL5
  8
11
 62
2
 10
111.059569
 20
229.961875
 30
0.0
  0
VERTEX
  6
SL5
  8
11
 62
2
 10
93.059585
 20
229.961875
 30
0.0
  0
VERTEX
  6
SL5
  8
11
 62
2
 10
93.059585
 20
235.96189
 30
0.0
 42
-0.414214
  0
VERTEX
  6
SL5
  8
11
 62
2
 10
94.059585
 20
236.96189
 30
0.0
  0
VERTEX
  6
SL5
  8
11
 62
2
 10
101.059585
 20
236.96189
 30
0.0
  0
SEQEND
  0
POLYLINE
  6
SL5
  8
11
 62
2
 66
1
 70
0
  0
VERTEX
  6
SL5
  8
11
 62
2
 10
221.559562
 20
228.961859
 30
0.0
  0
VERTEX
  6
SL5
  8
11
 62
2
 10
221.559592
 20
219.16191
 30
0.0
 42
-0.414214
  0
VERTEX
  6
SL5
  8
11
 62
2
 10
219.559592
 20
217.16191
 30
0.0
  0
VERTEX
  6
SL5
  8
11
 62
2
 10
186.059569
 20
217.16191
 30
0.0
  0
VERTEX
  6
SL5
  8
11
 62
2
 10
183.059524
 20
217.161879
 30
0.0
 42
0.414214
  0
VERTEX
  6
SL5
  8
11
 62
2
 10
181.059539
 20
215.161879
 30
0.0
  0
VERTEX
  6
SL5
  8
11
 62
2
 10
181.059539
 20
215.161879
 30
0.0
  0
SEQEND
  0
CIRCLE
  6
SL5
  8
11
 62
2
 10
305.059565
 20
230.46189
 30
0.0
 40
2.5
  0
POLYLINE
  6
SL5
  8
11
 62
2
 66
1
 70
0
  0
VERTEX
  6
SL5
  8
11
 62
2
 10
301.559604
 20
235.461837
 30
0.0
  0
VERTEX
  6
SL5
  8
11
 62
2
 10
304.559565
 20
235.46189
 30
0.0
  0
VERTEX
  6
SL5
  8
11
 62
2
 10
312.05955
 20
235.461814
 30
0.0
  0
VERTEX
  6
SL5
  8
11
 62
2
 10
304.844233
 20
235.46189
 30
0.0
  0
SEQEND
  0
POLYLINE
  6
SL2
  8
11
 62
1
 66
1
 70
0
  0
VERTEX
  6
SL2
  8
11
 62
1
 10
338.059565
 20
229.46189
 30
0.0
  0
VERTEX
  6
SL2
  8
11
 62
1
 10
358.059596
 20
229.46189
 30
0.0
  0
SEQEND
  0
POLYLINE
  6
SL2
  8
11
 62
1
 66
1
 70
0
  0
VERTEX
  6
SL2
  8
11
 62
1
 10
319.059565
 20
242.881511
 30
0.0
  0
VERTEX
  6
SL2
  8
11
 62
1
 10
319.059565
 20
230.545713
 30
0.0
  0
SEQEND
  0
POLYLINE
  6
SL5
  8
11
 62
2
 66
1
 70
0
  0
VERTEX
  6
SL5
  8
11
 62
2
 10
103.559585
 20
229.961875
 30
0.0
  0
VERTEX
  6
SL5
  8
11
 62
2
 10
103.5596
 20
236.96189
 30
0.0
  0
SEQEND
  0
POLYLINE
  6
SL5
  8
11
 62
2
 66
1
 70
0
  0
VERTEX
  6
SL5
  8
11
 62
2
 10
168.559569
 20
202.461936
 30
0.0
  0
VERTEX
  6
SL5
  8
11
 62
2
 10
168.559569
 20
232.46192
 30
0.0
 42
-0.414214
  0
VERTEX
  6
SL5
  8
11
 62
2
 10
169.059569
 20
232.96192
 30
0.0
  0
VERTEX
  6
SL5
  8
11
 62
2
 10
170.559554
 20
232.96192
 30
0.0
  0
SEQEND
  0
POLYLINE
  6
SL5
  8
11
 62
2
 66
1
 70
0
  0
VERTEX
  6
SL5
  8
11
 62
2
 10
335.559627
 20
220.35044
 30
0.0
  0
VERTEX
  6
SL5
  8
11
 62
2
 10
335.559627
 20
202.461905
 30
0.0
  0
SEQEND
  0
POLYLINE
  6
SL5
  8
11
 62
2
 66
1
 70
0
  0
VERTEX
  6
SL5
  8
11
 62
2
 10
327.203166
 20
220.350379
 30
0.0
  0
VERTEX
  6
SL5
  8
11
 62
2
 10
335.559627
 20
220.35044
 30
0.0
  0
VERTEX
  6
SL5
  8
11
 62
2
 10
335.559611
 20
221.670798
 30
0.0
  0
VERTEX
  6
SL5
  8
11
 62
2
 10
338.05952
 20
221.670813
 30
0.0
  0
VERTEX
  6
SL5
  8
11
 62
2
 10
338.05952
 20
233.461844
 30
0.0
 42
0.414214
  0
VERTEX
  6
SL5
  8
11
 62
2
 10
336.05955
 20
235.461829
 30
0.0
  0
VERTEX
  6
SL5
  8
11
 62
2
 10
334.059535
 20
235.461859
 30
0.0
 42
0.414214
  0
VERTEX
  6
SL5
  8
11
 62
2
 10
333.05952
 20
234.461859
 30
0.0
  0
VERTEX
  6
SL5
  8
11
 62
2
 10
333.05952
 20
233.96189
 30
0.0
 42
-0.414214
  0
VERTEX
  6
SL5
  8
11
 62
2
 10
332.059489
 20
232.96189
 30
0.0
  0
VERTEX
  6
SL5
  8
11
 62
2
 10
310.05955
 20
232.96189
 30
0.0
  0
VERTEX
  6
SL5
  8
11
 62
2
 10
310.059596
 20
229.46189
 30
0.0
  0
VERTEX
  6
SL5
  8
11
 62
2
 10
310.059596
 20
228.46189
 30
0.0
 42
-0.414214
  0
VERTEX
  6
SL5
  8
11
 62
2
 10
308.059565
 20
226.46189
 30
0.0
  0
VERTEX
  6
SL5
  8
11
 62
2
 10
301.559604
 20
226.46189
 30
0.0
  0
VERTEX
  6
SL5
  8
11
 62
2
 10
233.559607
 20
226.46189
 30
0.0
  0
VERTEX
  6
SL5
  8
11
 62
2
 10
227.059531
 20
226.46189
 30
0.0
  0
SEQEND
  0
POLYLINE
  6
SL5
  8
11
 62
2
 66
1
 70
0
  0
VERTEX
  6
SL5
  8
11
 62
2
 10
338.05952
 20
221.661875
 30
0.0
  0
VERTEX
  6
SL5
  8
11
 62
2
 10
338.05952
 20
183.261875
 30
0.0
  0
SEQEND
  0
ENDBLK
  8
0
  0
BLOCK
  8
0
  2
MEDCLUMP_SET_91_
 70
64
 10
0.0
 20
0.0
 30
0.0
  0
POLYLINE
  6
SL5
  8
11
 62
2
 66
1
 70
0
  0
VERTEX
  6
SL5
  8
11
 62
2
 10
163.559577
 20
202.461875
 30
0.0
  0
VERTEX
  6
SL5
  8
11
 62
2
 10
163.559577
 20
196.961875
 30
0.0
 42
-0.414214
  0
VERTEX
  6
SL5
  8
11
 62
2
 10
141.559577
 20
174.961875
 30
0.0
  0
VERTEX
  6
SL5
  8
11
 62
2
 10
70.059577
 20
174.961875
 30
0.0
  0
VERTEX
  6
SL5
  8
11
 62
2
 10
70.059577
 20
202.461875
 30
0.0
  0
SEQEND
  0
POLYLINE
  6
SL5
  8
11
 62
2
 66
1
 70
0
  0
VERTEX
  6
SL5
  8
11
 62
2
 10
163.559577
 20
202.461875
 30
0.0
  0
VERTEX
  6
SL5
  8
11
 62
2
 10
163.559577
 20
207.961875
 30
0.0
 42
0.414214
  0
VERTEX
  6
SL5
  8
11
 62
2
 10
141.559577
 20
229.961875
 30
0.0
  0
VERTEX
  6
SL5
  8
11
 62
2
 10
70.059577
 20
229.961875
 30
0.0
  0
VERTEX
  6
SL5
  8
11
 62
2
 10
70.059577
 20
202.461875
 30
0.0
  0
SEQEND
  0
POLYLINE
  6
SL1
  8
11
 62
1
 66
1
 70
0
  0
VERTEX
  6
SL1
  8
11
 62
1
 10
70.059577
 20
217.461875
 30
0.0
  0
VERTEX
  6
SL1
  8
11
 62
1
 10
134.059577
 20
217.461875
 30
0.0
 42
-1.0
  0
VERTEX
  6
SL1
  8
11
 62
1
 10
134.059577
 20
187.461875
 30
0.0
  0
VERTEX
  6
SL1
  8
11
 62
1
 10
70.059577
 20
187.461875
 30
0.0
  0
SEQEND
  0
POLYLINE
  6
SL5
  8
11
 62
2
 66
1
 70
0
  0
VERTEX
  6
SL5
  8
11
 62
2
 10
80.059479
 20
174.961875
 30
0.0
  0
VERTEX
  6
SL5
  8
11
 62
2
 10
80.059577
 20
229.961875
 30
0.0
  0
SEQEND
  0
CIRCLE
  6
SL5
  8
11
 62
2
 10
93.059577
 20
202.461875
 30
0.0
 40
5.0
  0
ENDBLK
  8
0
  0
BLOCK
  8
0
  2
MEDCLUMP_S2T_90_
 70
64
 10
0.0
 20
0.0
 30
0.0
  0
INSERT
  8
0
  2
MEDCLUMP_SET_91_
 10
0.0
 20
0.0
 30
0.0
  0
INSERT
  8
0
  2
MEDCLUMP_SET_97_
 10
0.0
 20
0.0
 30
0.0
  0
INSERT
  8
0
  2
MEDCLUMP_SET_166_
 10
0.0
 20
0.0
 30
0.0
  0
ENDBLK
  8
0
  0
BLOCK
  8
0
  2
MEDCLUMP_SET_86_
 70
64
 10
0.0
 20
0.0
 30
0.0
  0
POLYLINE
  6
SL5
  8
11
 62
2
 66
1
 70
0
  0
VERTEX
  6
SL5
  8
11
 62
2
 10
210.071219
 20
226.53411
 30
0.0
  0
VERTEX
  6
SL5
  8
11
 62
2
 10
215.987311
 20
232.450179
 30
0.0
  0
SEQEND
  0
POLYLINE
  6
SL5
  8
11
 62
2
 66
1
 70
0
  0
VERTEX
  6
SL5
  8
11
 62
2
 10
217.047965
 20
231.38951
 30
0.0
  0
VERTEX
  6
SL5
  8
11
 62
2
 10
211.131873
 20
225.473441
 30
0.0
  0
SEQEND
  0
CIRCLE
  6
SL5
  8
11
 62
2
 10
213.559592
 20
228.961814
 30
0.0
 40
4.25
  0
ENDBLK
  8
0
  0
BLOCK
  8
0
  2
MEDCLUMP_SET_82_
 70
64
 10
0.0
 20
0.0
 30
0.0
  0
POLYLINE
  6
SL5
  8
11
 62
2
 66
1
 70
0
  0
VERTEX
  6
SL5
  8
11
 62
2
 10
204.171195
 20
173.534125
 30
0.0
  0
VERTEX
  6
SL5
  8
11
 62
2
 10
210.087287
 20
179.450202
 30
0.0
  0
SEQEND
  0
POLYLINE
  6
SL5
  8
11
 62
2
 66
1
 70
0
  0
VERTEX
  6
SL5
  8
11
 62
2
 10
211.147941
 20
178.389533
 30
0.0
  0
VERTEX
  6
SL5
  8
11
 62
2
 10
205.231849
 20
172.473456
 30
0.0
  0
SEQEND
  0
CIRCLE
  6
SL5
  8
11
 62
2
 10
207.659568
 20
175.961829
 30
0.0
 40
4.25
  0
ENDBLK
  8
0
  0
BLOCK
  8
0
  2
MEDCLUMP_S2T_81_
 70
64
 10
0.0
 20
0.0
 30
0.0
  0
INSERT
  8
0
  2
MEDCLUMP_SET_82_
 10
0.0
 20
0.0
 30
0.0
  0
INSERT
  8
0
  2
MEDCLUMP_SET_86_
 10
0.0
 20
0.0
 30
0.0
  0
ENDBLK
  8
0
  0
BLOCK
  8
0
  2
MEDCLUMP_SET_71_
 70
64
 10
0.0
 20
0.0
 30
0.0
  0
POLYLINE
  6
SL5
  8
11
 62
2
 66
1
 70
0
  0
VERTEX
  6
SL5
  8
11
 62
2
 10
346.05952
 20
197.461844
 30
0.0
  0
VERTEX
  6
SL5
  8
11
 62
2
 10
346.05952
 20
197.461859
 30
0.0
  0
VERTEX
  6
SL5
  8
11
 62
2
 10
346.55952
 20
197.961844
 30
0.0
  0
VERTEX
  6
SL5
  8
11
 62
2
 10
346.55952
 20
206.96184
 30
0.0
  0
VERTEX
  6
SL5
  8
11
 62
2
 10
346.05952
 20
207.46184
 30
0.0
  0
VERTEX
  6
SL5
  8
11
 62
2
 10
346.05952
 20
207.46184
 30
0.0
  0
SEQEND
  0
POLYLINE
  6
SL5
  8
11
 62
2
 66
1
 70
0
  0
VERTEX
  6
SL5
  8
11
 62
2
 10
345.822658
 20
202.461844
 30
0.0
  0
VERTEX
  6
SL5
  8
11
 62
2
 10
346.55952
 20
202.461822
 30
0.0
  0
VERTEX
  6
SL5
  8
11
 62
2
 10
340.359523
 20
202.461844
 30
0.0
  0
SEQEND
  0
POLYLINE
  6
SL5
  8
11
 62
2
 66
1
 70
0
  0
VERTEX
  6
SL5
  8
11
 62
2
 10
338.05952
 20
196.711844
 30
0.0
  0
VERTEX
  6
SL5
  8
11
 62
2
 10
338.05952
 20
208.21184
 30
0.0
  0
SEQEND
  0
POLYLINE
  6
SL5
  8
11
 62
2
 66
1
 70
0
  0
VERTEX
  6
SL5
  8
11
 62
2
 10
339.159526
 20
196.711844
 30
0.0
  0
VERTEX
  6
SL5
  8
11
 62
2
 10
339.159526
 20
208.21184
 30
0.0
  0
SEQEND
  0
POLYLINE
  6
SL5
  8
11
 62
2
 66
1
 70
0
  0
VERTEX
  6
SL5
  8
11
 62
2
 10
340.359523
 20
196.461837
 30
0.0
  0
VERTEX
  6
SL5
  8
11
 62
2
 10
340.359523
 20
208.461833
 30
0.0
  0
SEQEND
  0
POLYLINE
  6
SL5
  8
11
 62
2
 66
1
 70
0
  0
VERTEX
  6
SL5
  8
11
 62
2
 10
339.159526
 20
208.461833
 30
0.0
  0
VERTEX
  6
SL5
  8
11
 62
2
 10
340.359523
 20
208.461833
 30
0.0
  0
VERTEX
  6
SL5
  8
11
 62
2
 10
340.359523
 20
197.461844
 30
0.0
  0
VERTEX
  6
SL5
  8
11
 62
2
 10
340.359523
 20
196.461837
 30
0.0
  0
VERTEX
  6
SL5
  8
11
 62
2
 10
339.159526
 20
196.461837
 30
0.0
  0
SEQEND
  0
POLYLINE
  6
SL5
  8
11
 62
2
 66
1
 70
0
  0
VERTEX
  6
SL5
  8
11
 62
2
 10
346.05952
 20
197.461859
 30
0.0
  0
VERTEX
  6
SL5
  8
11
 62
2
 10
340.359523
 20
197.461859
 30
0.0
  0
SEQEND
  0
POLYLINE
  6
SL5
  8
11
 62
2
 66
1
 70
0
  0
VERTEX
  6
SL5
  8
11
 62
2
 10
346.05952
 20
207.46184
 30
0.0
  0
VERTEX
  6
SL5
  8
11
 62
2
 10
340.359523
 20
207.46184
 30
0.0
  0
SEQEND
  0
POLYLINE
  6
SL5
  8
11
 62
2
 66
1
 70
0
  0
VERTEX
  6
SL5
  8
11
 62
2
 10
339.159526
 20
210.211825
 30
0.0
  0
VERTEX
  6
SL5
  8
11
 62
2
 10
339.159526
 20
194.711829
 30
0.0
  0
VERTEX
  6
SL5
  8
11
 62
2
 10
338.05952
 20
194.711829
 30
0.0
  0
VERTEX
  6
SL5
  8
11
 62
2
 10
338.05952
 20
210.211825
 30
0.0
  0
VERTEX
  6
SL5
  8
11
 62
2
 10
339.159526
 20
210.211825
 30
0.0
  0
SEQEND
  0
ENDBLK
  8
0
  0
BLOCK
  8
0
  2
MEDCLUMP_S2T_70_
 70
64
 10
0.0
 20
0.0
 30
0.0
  0
INSERT
  8
0
  2
MEDCLUMP_SET_71_
 10
0.0
 20
0.0
 30
0.0
  0
ENDBLK
  8
0
  0
BLOCK
  8
0
  2
MEDCLUMP_S3T_69_
 70
64
 10
0.0
 20
0.0
 30
0.0
  0
INSERT
  8
0
  2
MEDCLUMP_S2T_70_
 10
0.0
 20
0.0
 30
0.0
  0
INSERT
  8
0
  2
MEDCLUMP_S2T_81_
 10
0.0
 20
0.0
 30
0.0
  0
INSERT
  8
0
  2
MEDCLUMP_S2T_90_
 10
0.0
 20
0.0
 30
0.0
  0
ENDBLK
  8
0
  0
BLOCK
  8
0
  2
MEDCLUMP_SET_60_
 70
64
 10
0.0
 20
0.0
 30
0.0
  0
POLYLINE
  6
SL5
  8
11
 62
2
 66
1
 70
0
  0
VERTEX
  6
SL5
  8
11
 62
2
 10
358.059592
 20
243.461963
 30
0.0
  0
VERTEX
  6
SL5
  8
11
 62
2
 10
83.0596
 20
243.461963
 30
0.0
  0
VERTEX
  6
SL5
  8
11
 62
2
 10
83.059596
 20
229.961871
 30
0.0
  0
SEQEND
  0
POLYLINE
  6
SL5
  8
11
 62
2
 66
1
 70
0
  0
VERTEX
  6
SL5
  8
11
 62
2
 10
83.059596
 20
174.961871
 30
0.0
  0
VERTEX
  6
SL5
  8
11
 62
2
 10
83.0596
 20
161.461875
 30
0.0
  0
VERTEX
  6
SL5
  8
11
 62
2
 10
358.059592
 20
161.461875
 30
0.0
  0
VERTEX
  6
SL5
  8
11
 62
2
 10
358.059592
 20
243.461963
 30
0.0
  0
SEQEND
  0
POLYLINE
  6
SL5
  8
11
 62
2
 66
1
 70
0
  0
VERTEX
  6
SL5
  8
11
 62
2
 10
233.5596
 20
161.961799
 30
0.0
  0
VERTEX
  6
SL5
  8
11
 62
2
 10
233.5596
 20
161.461875
 30
0.0
  0
VERTEX
  6
SL5
  8
11
 62
2
 10
233.5596
 20
175.46181
 30
0.0
 42
-0.414214
  0
VERTEX
  6
SL5
  8
11
 62
2
 10
236.5596
 20
178.46181
 30
0.0
  0
VERTEX
  6
SL5
  8
11
 62
2
 10
245.559592
 20
178.46181
 30
0.0
  0
VERTEX
  6
SL5
  8
11
 62
2
 10
298.559592
 20
178.46181
 30
0.0
 42
-0.414214
  0
VERTEX
  6
SL5
  8
11
 62
2
 10
301.559592
 20
175.46181
 30
0.0
  0
VERTEX
  6
SL5
  8
11
 62
2
 10
301.559592
 20
161.961802
 30
0.0
  0
VERTEX
  6
SL5
  8
11
 62
2
 10
301.559592
 20
161.461875
 30
0.0
  0
SEQEND
  0
POLYLINE
  6
SL5
  8
11
 62
2
 66
1
 70
0
  0
VERTEX
  6
SL5
  8
11
 62
2
 10
233.5596
 20
242.961902
 30
0.0
  0
VERTEX
  6
SL5
  8
11
 62
2
 10
233.5596
 20
243.461963
 30
0.0
  0
VERTEX
  6
SL5
  8
11
 62
2
 10
233.5596
 20
229.461886
 30
0.0
 42
0.414214
  0
VERTEX
  6
SL5
  8
11
 62
2
 10
236.5596
 20
226.461886
 30
0.0
  0
VERTEX
  6
SL5
  8
11
 62
2
 10
245.559592
 20
226.461886
 30
0.0
  0
VERTEX
  6
SL5
  8
11
 62
2
 10
298.559592
 20
226.461886
 30
0.0
 42
0.414214
  0
VERTEX
  6
SL5
  8
11
 62
2
 10
301.559592
 20
229.461886
 30
0.0
  0
VERTEX
  6
SL5
  8
11
 62
2
 10
301.559592
 20
242.961894
 30
0.0
  0
VERTEX
  6
SL5
  8
11
 62
2
 10
301.559592
 20
243.461963
 30
0.0
  0
SEQEND
  0
POLYLINE
  6
SL5
  8
11
 62
2
 66
1
 70
0
  0
VERTEX
  6
SL5
  8
11
 62
2
 10
290.009608
 20
239.46197
 30
0.0
  0
VERTEX
  6
SL5
  8
11
 62
2
 10
290.009608
 20
229.461962
 30
0.0
  0
VERTEX
  6
SL5
  8
11
 62
2
 10
298.109607
 20
229.461962
 30
0.0
  0
VERTEX
  6
SL5
  8
11
 62
2
 10
298.109607
 20
239.46197
 30
0.0
  0
VERTEX
  6
SL5
  8
11
 62
2
 10
290.009608
 20
239.46197
 30
0.0
  0
SEQEND
  0
POLYLINE
  6
SL5
  8
11
 62
2
 66
1
 70
0
  0
VERTEX
  6
SL5
  8
11
 62
2
 10
290.009608
 20
165.461878
 30
0.0
  0
VERTEX
  6
SL5
  8
11
 62
2
 10
290.009608
 20
175.461886
 30
0.0
  0
VERTEX
  6
SL5
  8
11
 62
2
 10
298.109607
 20
175.461886
 30
0.0
  0
VERTEX
  6
SL5
  8
11
 62
2
 10
298.109607
 20
165.461878
 30
0.0
  0
VERTEX
  6
SL5
  8
11
 62
2
 10
290.009608
 20
165.461878
 30
0.0
  0
SEQEND
  0
POLYLINE
  6
SL5
  8
11
 62
2
 66
1
 70
0
  0
VERTEX
  6
SL5
  8
11
 62
2
 10
237.009612
 20
239.46197
 30
0.0
  0
VERTEX
  6
SL5
  8
11
 62
2
 10
237.009612
 20
229.461962
 30
0.0
  0
VERTEX
  6
SL5
  8
11
 62
2
 10
245.10961
 20
229.461962
 30
0.0
  0
VERTEX
  6
SL5
  8
11
 62
2
 10
245.10961
 20
239.46197
 30
0.0
  0
VERTEX
  6
SL5
  8
11
 62
2
 10
237.009612
 20
239.46197
 30
0.0
  0
SEQEND
  0
POLYLINE
  6
SL5
  8
11
 62
2
 66
1
 70
0
  0
VERTEX
  6
SL5
  8
11
 62
2
 10
237.009612
 20
165.461878
 30
0.0
  0
VERTEX
  6
SL5
  8
11
 62
2
 10
237.009612
 20
175.461886
 30
0.0
  0
VERTEX
  6
SL5
  8
11
 62
2
 10
245.10961
 20
175.461886
 30
0.0
  0
VERTEX
  6
SL5
  8
11
 62
2
 10
245.10961
 20
165.461878
 30
0.0
  0
VERTEX
  6
SL5
  8
11
 62
2
 10
237.009612
 20
165.461878
 30
0.0
  0
SEQEND
  0
POLYLINE
  6
SL2
  8
11
 62
1
 66
1
 70
0
  0
VERTEX
  6
SL2
  8
11
 62
1
 10
64.208095
 20
202.461871
 30
0.0
  0
VERTEX
  6
SL2
  8
11
 62
1
 10
219.097449
 20
202.461871
 30
0.0
  0
VERTEX
  6
SL2
  8
11
 62
1
 10
363.012183
 20
202.461871
 30
0.0
  0
SEQEND
  0
ENDBLK
  8
0
  0
BLOCK
  8
0
  2
MEDCLUMP_S2T_57_
 70
64
 10
0.0
 20
0.0
 30
0.0
  0
POLYLINE
  6
SL2
  8
11
 62
1
 66
1
 70
0
  0
VERTEX
  6
SL2
  8
11
 62
1
 10
174.078843
 20
173.636048
 30
0.0
  0
VERTEX
  6
SL2
  8
11
 62
1
 10
174.078843
 20
161.461878
 30
0.0
  0
SEQEND
  0
POLYLINE
  6
SL5
  8
11
 62
2
 66
1
 70
0
  0
VERTEX
  6
SL5
  8
11
 62
2
 10
84.559596
 20
163.461875
 30
0.0
  0
VERTEX
  6
SL5
  8
11
 62
2
 10
84.559596
 20
174.961871
 30
0.0
  0
SEQEND
  0
POLYLINE
  6
SL5
  8
11
 62
2
 66
1
 70
0
  0
VERTEX
  6
SL5
  8
11
 62
2
 10
84.559596
 20
229.961871
 30
0.0
  0
VERTEX
  6
SL5
  8
11
 62
2
 10
84.559596
 20
241.461963
 30
0.0
  0
VERTEX
  6
SL5
  8
11
 62
2
 10
356.559592
 20
241.461963
 30
0.0
  0
VERTEX
  6
SL5
  8
11
 62
2
 10
356.559592
 20
163.461875
 30
0.0
  0
VERTEX
  6
SL5
  8
11
 62
2
 10
84.559596
 20
163.461875
 30
0.0
  0
SEQEND
  0
INSERT
  8
0
  2
MEDCLUMP_SET_60_
 10
0.0
 20
0.0
 30
0.0
  0
ENDBLK
  8
0
  0
BLOCK
  8
0
  2
MEDCLUMP_SET_50_
 70
64
 10
0.0
 20
0.0
 30
0.0
  0
POLYLINE
  6
SL5
  8
11
 62
2
 66
1
 70
0
  0
VERTEX
  6
SL5
  8
11
 62
2
 10
241.059607
 20
238.461978
 30
0.0
  0
VERTEX
  6
SL5
  8
11
 62
2
 10
236.509603
 20
238.461978
 30
0.0
 42
0.414214
  0
VERTEX
  6
SL5
  8
11
 62
2
 10
236.009603
 20
237.961978
 30
0.0
  0
VERTEX
  6
SL5
  8
11
 62
2
 10
236.009603
 20
230.961978
 30
0.0
 42
0.414214
  0
VERTEX
  6
SL5
  8
11
 62
2
 10
236.509603
 20
230.461978
 30
0.0
  0
VERTEX
  6
SL5
  8
11
 62
2
 10
241.059607
 20
230.461978
 30
0.0
  0
SEQEND
  0
POLYLINE
  6
SL5
  8
11
 62
2
 66
1
 70
0
  0
VERTEX
  6
SL5
  8
11
 62
2
 10
241.059607
 20
238.461978
 30
0.0
  0
VERTEX
  6
SL5
  8
11
 62
2
 10
245.609612
 20
238.461978
 30
0.0
 42
-0.414214
  0
VERTEX
  6
SL5
  8
11
 62
2
 10
246.109612
 20
237.961978
 30
0.0
  0
VERTEX
  6
SL5
  8
11
 62
2
 10
246.109612
 20
230.961978
 30
0.0
 42
-0.414214
  0
VERTEX
  6
SL5
  8
11
 62
2
 10
245.609612
 20
230.461978
 30
0.0
  0
VERTEX
  6
SL5
  8
11
 62
2
 10
241.059607
 20
230.461978
 30
0.0
  0
SEQEND
  0
POLYLINE
  6
SL5
  8
11
 62
2
 66
1
 70
0
  0
VERTEX
  6
SL5
  8
11
 62
2
 10
241.059607
 20
166.461978
 30
0.0
  0
VERTEX
  6
SL5
  8
11
 62
2
 10
245.609612
 20
166.461978
 30
0.0
 42
0.414214
  0
VERTEX
  6
SL5
  8
11
 62
2
 10
246.109612
 20
166.961978
 30
0.0
  0
VERTEX
  6
SL5
  8
11
 62
2
 10
246.109612
 20
173.961978
 30
0.0
 42
0.414214
  0
VERTEX
  6
SL5
  8
11
 62
2
 10
245.609612
 20
174.461978
 30
0.0
  0
VERTEX
  6
SL5
  8
11
 62
2
 10
241.059607
 20
174.461978
 30
0.0
  0
SEQEND
  0
POLYLINE
  6
SL5
  8
11
 62
2
 66
1
 70
0
  0
VERTEX
  6
SL5
  8
11
 62
2
 10
241.059607
 20
166.461978
 30
0.0
  0
VERTEX
  6
SL5
  8
11
 62
2
 10
236.509603
 20
166.461978
 30
0.0
 42
-0.414214
  0
VERTEX
  6
SL5
  8
11
 62
2
 10
236.009603
 20
166.961978
 30
0.0
  0
VERTEX
  6
SL5
  8
11
 62
2
 10
236.009603
 20
173.961978
 30
0.0
 42
-0.414214
  0
VERTEX
  6
SL5
  8
11
 62
2
 10
236.509603
 20
174.461978
 30
0.0
  0
VERTEX
  6
SL5
  8
11
 62
2
 10
241.059607
 20
174.461978
 30
0.0
  0
SEQEND
  0
CIRCLE
  6
SL5
  8
11
 62
2
 10
241.059607
 20
170.461802
 30
0.0
 40
2.100006
  0
CIRCLE
  6
SL5
  8
11
 62
2
 10
241.059607
 20
234.461978
 30
0.0
 40
2.100006
  0
ENDBLK
  8
0
  0
BLOCK
  8
0
  2
MEDCLUMP_SET_43_
 70
64
 10
0.0
 20
0.0
 30
0.0
  0
POLYLINE
  6
SL5
  8
11
 62
2
 66
1
 70
0
  0
VERTEX
  6
SL5
  8
11
 62
2
 10
294.059535
 20
238.461962
 30
0.0
  0
VERTEX
  6
SL5
  8
11
 62
2
 10
289.509531
 20
238.461962
 30
0.0
 42
0.414214
  0
VERTEX
  6
SL5
  8
11
 62
2
 10
289.009531
 20
237.961962
 30
0.0
  0
VERTEX
  6
SL5
  8
11
 62
2
 10
289.009531
 20
230.961962
 30
0.0
 42
0.414214
  0
VERTEX
  6
SL5
  8
11
 62
2
 10
289.509531
 20
230.461962
 30
0.0
  0
VERTEX
  6
SL5
  8
11
 62
2
 10
294.059535
 20
230.461962
 30
0.0
  0
SEQEND
  0
POLYLINE
  6
SL5
  8
11
 62
2
 66
1
 70
0
  0
VERTEX
  6
SL5
  8
11
 62
2
 10
294.059535
 20
238.461962
 30
0.0
  0
VERTEX
  6
SL5
  8
11
 62
2
 10
298.609539
 20
238.461962
 30
0.0
 42
-0.414214
  0
VERTEX
  6
SL5
  8
11
 62
2
 10
299.109539
 20
237.961962
 30
0.0
  0
VERTEX
  6
SL5
  8
11
 62
2
 10
299.109539
 20
230.961962
 30
0.0
 42
-0.414214
  0
VERTEX
  6
SL5
  8
11
 62
2
 10
298.609539
 20
230.461962
 30
0.0
  0
VERTEX
  6
SL5
  8
11
 62
2
 10
294.059535
 20
230.461962
 30
0.0
  0
SEQEND
  0
POLYLINE
  6
SL5
  8
11
 62
2
 66
1
 70
0
  0
VERTEX
  6
SL5
  8
11
 62
2
 10
294.059535
 20
166.461978
 30
0.0
  0
VERTEX
  6
SL5
  8
11
 62
2
 10
298.609539
 20
166.461978
 30
0.0
 42
0.414214
  0
VERTEX
  6
SL5
  8
11
 62
2
 10
299.109539
 20
166.961978
 30
0.0
  0
VERTEX
  6
SL5
  8
11
 62
2
 10
299.109539
 20
173.961978
 30
0.0
 42
0.414214
  0
VERTEX
  6
SL5
  8
11
 62
2
 10
298.609539
 20
174.461978
 30
0.0
  0
VERTEX
  6
SL5
  8
11
 62
2
 10
294.059535
 20
174.461978
 30
0.0
  0
SEQEND
  0
POLYLINE
  6
SL5
  8
11
 62
2
 66
1
 70
0
  0
VERTEX
  6
SL5
  8
11
 62
2
 10
294.059535
 20
166.461978
 30
0.0
  0
VERTEX
  6
SL5
  8
11
 62
2
 10
289.509531
 20
166.461978
 30
0.0
 42
-0.414214
  0
VERTEX
  6
SL5
  8
11
 62
2
 10
289.009531
 20
166.961978
 30
0.0
  0
VERTEX
  6
SL5
  8
11
 62
2
 10
289.009531
 20
173.961978
 30
0.0
 42
-0.414214
  0
VERTEX
  6
SL5
  8
11
 62
2
 10
289.509531
 20
174.461978
 30
0.0
  0
VERTEX
  6
SL5
  8
11
 62
2
 10
294.059535
 20
174.461978
 30
0.0
  0
SEQEND
  0
CIRCLE
  6
SL5
  8
11
 62
2
 10
294.059535
 20
170.461787
 30
0.0
 40
2.100006
  0
CIRCLE
  6
SL5
  8
11
 62
2
 10
294.059535
 20
234.461962
 30
0.0
 40
2.100006
  0
ENDBLK
  8
0
  0
BLOCK
  8
0
  2
MEDCLUMP_S2T_42_
 70
64
 10
0.0
 20
0.0
 30
0.0
  0
INSERT
  8
0
  2
MEDCLUMP_SET_43_
 10
0.0
 20
0.0
 30
0.0
  0
INSERT
  8
0
  2
MEDCLUMP_SET_50_
 10
0.0
 20
0.0
 30
0.0
  0
ENDBLK
  8
0
  0
BLOCK
  8
0
  2
MEDCLUMP_SET_35_
 70
64
 10
0.0
 20
0.0
 30
0.0
  0
POLYLINE
  6
SL0
  8
11
 62
7
 66
1
 70
0
  0
VERTEX
  6
SL0
  8
11
 62
7
 10
316.900258
 20
171.961844
 30
0.0
  0
VERTEX
  6
SL0
  8
11
 62
7
 10
316.900258
 20
166.98945
 30
0.0
  0
SEQEND
  0
POLYLINE
  6
SL0
  8
11
 62
7
 66
1
 70
0
  0
VERTEX
  6
SL0
  8
11
 62
7
 10
321.300258
 20
171.961844
 30
0.0
  0
VERTEX
  6
SL0
  8
11
 62
7
 10
321.300258
 20
166.98945
 30
0.0
  0
SEQEND
  0
POLYLINE
  6
SL5
  8
11
 62
2
 66
1
 70
0
  0
VERTEX
  6
SL5
  8
11
 62
2
 10
316.213506
 20
164.18945
 30
0.0
  0
VERTEX
  6
SL5
  8
11
 62
2
 10
316.213506
 20
166.98945
 30
0.0
  0
SEQEND
  0
POLYLINE
  6
SL5
  8
11
 62
2
 66
1
 70
0
  0
VERTEX
  6
SL5
  8
11
 62
2
 10
321.975191
 20
166.98945
 30
0.0
  0
VERTEX
  6
SL5
  8
11
 62
2
 10
321.975191
 20
164.205367
 30
0.0
  0
SEQEND
  0
POLYLINE
  6
SL5
  8
11
 62
2
 66
1
 70
0
  0
VERTEX
  6
SL5
  8
11
 62
2
 10
316.100258
 20
166.98945
 30
0.0
  0
VERTEX
  6
SL5
  8
11
 62
2
 10
322.100258
 20
166.98945
 30
0.0
  0
SEQEND
  0
POLYLINE
  6
SL5
  8
11
 62
2
 66
1
 70
0
  0
VERTEX
  6
SL5
  8
11
 62
2
 10
316.100258
 20
171.961844
 30
0.0
  0
VERTEX
  6
SL5
  8
11
 62
2
 10
316.100258
 20
166.98945
 30
0.0
  0
VERTEX
  6
SL5
  8
11
 62
2
 10
314.781456
 20
166.98945
 30
0.0
  0
VERTEX
  6
SL5
  8
11
 62
2
 10
313.826755
 20
166.98945
 30
0.0
 42
0.414214
  0
VERTEX
  6
SL5
  8
11
 62
2
 10
313.326755
 20
166.48945
 30
0.0
  0
VERTEX
  6
SL5
  8
11
 62
2
 10
313.326755
 20
164.174643
 30
0.0
 42
0.480805
  0
VERTEX
  6
SL5
  8
11
 62
2
 10
316.213506
 20
164.18945
 30
0.0
  0
VERTEX
  6
SL5
  8
11
 62
2
 70
16
 10
316.213506
 20
164.18945
 30
0.0
  0
VERTEX
  6
SL5
  8
11
 62
2
 70
8
 10
316.213506
 20
164.18945
 30
0.0
  0
VERTEX
  6
SL5
  8
11
 62
2
 70
8
 10
316.918434
 20
163.862352
 30
0.0
  0
VERTEX
  6
SL5
  8
11
 62
2
 70
8
 10
317.293119
 20
163.731753
 30
0.0
  0
VERTEX
  6
SL5
  8
11
 62
2
 70
8
 10
317.679926
 20
163.625429
 30
0.0
  0
VERTEX
  6
SL5
  8
11
 62
2
 70
8
 10
318.07651
 20
163.544791
 30
0.0
  0
VERTEX
  6
SL5
  8
11
 62
2
 70
8
 10
318.480311
 20
163.490937
 30
0.0
  0
VERTEX
  6
SL5
  8
11
 62
2
 70
8
 10
318.888613
 20
163.464616
 30
0.0
  0
VERTEX
  6
SL5
  8
11
 62
2
 70
8
 10
319.298595
 20
163.466206
 30
0.0
  0
VERTEX
  6
SL5
  8
11
 62
2
 70
8
 10
319.707401
 20
163.495695
 30
0.0
  0
VERTEX
  6
SL5
  8
11
 62
2
 70
8
 10
320.112206
 20
163.552684
 30
0.0
  0
VERTEX
  6
SL5
  8
11
 62
2
 70
8
 10
320.510277
 20
163.636404
 30
0.0
  0
VERTEX
  6
SL5
  8
11
 62
2
 70
8
 10
320.899036
 20
163.745735
 30
0.0
  0
VERTEX
  6
SL5
  8
11
 62
2
 70
8
 10
321.276111
 20
163.879248
 30
0.0
  0
VERTEX
  6
SL5
  8
11
 62
2
 70
8
 10
321.639382
 20
164.035251
 30
0.0
  0
VERTEX
  6
SL5
  8
11
 62
2
 70
8
 10
321.987009
 20
164.211836
 30
0.0
  0
VERTEX
  6
SL5
  8
11
 62
2
 70
16
 10
321.987009
 20
164.211836
 30
0.0
  0
VERTEX
  6
SL5
  8
11
 62
2
 10
321.987009
 20
164.174643
 30
0.0
 42
0.479973
  0
VERTEX
  6
SL5
  8
11
 62
2
 10
324.873761
 20
164.183063
 30
0.0
  0
VERTEX
  6
SL5
  8
11
 62
2
 10
324.873761
 20
166.48945
 30
0.0
 42
0.414214
  0
VERTEX
  6
SL5
  8
11
 62
2
 10
324.373761
 20
166.98945
 30
0.0
  0
VERTEX
  6
SL5
  8
11
 62
2
 10
323.71906
 20
166.98945
 30
0.0
  0
VERTEX
  6
SL5
  8
11
 62
2
 10
322.100258
 20
166.98945
 30
0.0
  0
VERTEX
  6
SL5
  8
11
 62
2
 10
322.100258
 20
171.961844
 30
0.0
  0
SEQEND
  0
ENDBLK
  8
0
  0
BLOCK
  8
0
  2
MEDCLUMP_SET_28_
 70
64
 10
0.0
 20
0.0
 30
0.0
  0
POLYLINE
  6
SL0
  8
11
 62
7
 66
1
 70
0
  0
VERTEX
  6
SL0
  8
11
 62
7
 10
171.878844
 20
171.961814
 30
0.0
  0
VERTEX
  6
SL0
  8
11
 62
7
 10
171.878844
 20
166.989385
 30
0.0
  0
SEQEND
  0
POLYLINE
  6
SL0
  8
11
 62
7
 66
1
 70
0
  0
VERTEX
  6
SL0
  8
11
 62
7
 10
176.278844
 20
171.961814
 30
0.0
  0
VERTEX
  6
SL0
  8
11
 62
7
 10
176.278844
 20
166.989385
 30
0.0
  0
SEQEND
  0
POLYLINE
  6
SL5
  8
11
 62
2
 66
1
 70
0
  0
VERTEX
  6
SL5
  8
11
 62
2
 10
171.192092
 20
164.189385
 30
0.0
  0
VERTEX
  6
SL5
  8
11
 62
2
 10
171.192092
 20
166.989385
 30
0.0
  0
SEQEND
  0
POLYLINE
  6
SL5
  8
11
 62
2
 66
1
 70
0
  0
VERTEX
  6
SL5
  8
11
 62
2
 10
176.953776
 20
166.989385
 30
0.0
  0
VERTEX
  6
SL5
  8
11
 62
2
 10
176.953776
 20
164.205302
 30
0.0
  0
SEQEND
  0
POLYLINE
  6
SL5
  8
11
 62
2
 66
1
 70
0
  0
VERTEX
  6
SL5
  8
11
 62
2
 10
171.078843
 20
166.989385
 30
0.0
  0
VERTEX
  6
SL5
  8
11
 62
2
 10
177.078843
 20
166.989385
 30
0.0
  0
SEQEND
  0
POLYLINE
  6
SL5
  8
11
 62
2
 66
1
 70
0
  0
VERTEX
  6
SL5
  8
11
 62
2
 10
171.059562
 20
171.96181
 30
0.0
  0
VERTEX
  6
SL5
  8
11
 62
2
 10
171.078841
 20
166.989383
 30
0.0
  0
VERTEX
  6
SL5
  8
11
 62
2
 10
169.760039
 20
166.989383
 30
0.0
  0
VERTEX
  6
SL5
  8
11
 62
2
 10
168.805335
 20
166.989383
 30
0.0
 42
0.414214
  0
VERTEX
  6
SL5
  8
11
 62
2
 10
168.305335
 20
166.489383
 30
0.0
  0
VERTEX
  6
SL5
  8
11
 62
2
 10
168.305335
 20
164.174575
 30
0.0
 42
0.480805
  0
VERTEX
  6
SL5
  8
11
 62
2
 10
171.192084
 20
164.189383
 30
0.0
  0
VERTEX
  6
SL5
  8
11
 62
2
 70
16
 10
171.192084
 20
164.189383
 30
0.0
  0
VERTEX
  6
SL5
  8
11
 62
2
 70
8
 10
171.192084
 20
164.189383
 30
0.0
  0
VERTEX
  6
SL5
  8
11
 62
2
 70
8
 10
171.897012
 20
163.862285
 30
0.0
  0
VERTEX
  6
SL5
  8
11
 62
2
 70
8
 10
172.271697
 20
163.731686
 30
0.0
  0
VERTEX
  6
SL5
  8
11
 62
2
 70
8
 10
172.658504
 20
163.625362
 30
0.0
  0
VERTEX
  6
SL5
  8
11
 62
2
 70
8
 10
173.055088
 20
163.544723
 30
0.0
  0
VERTEX
  6
SL5
  8
11
 62
2
 70
8
 10
173.458889
 20
163.490869
 30
0.0
  0
VERTEX
  6
SL5
  8
11
 62
2
 70
8
 10
173.867191
 20
163.464548
 30
0.0
  0
VERTEX
  6
SL5
  8
11
 62
2
 70
8
 10
174.277173
 20
163.466138
 30
0.0
  0
VERTEX
  6
SL5
  8
11
 62
2
 70
8
 10
174.68598
 20
163.495626
 30
0.0
  0
VERTEX
  6
SL5
  8
11
 62
2
 70
8
 10
175.090785
 20
163.552616
 30
0.0
  0
VERTEX
  6
SL5
  8
11
 62
2
 70
8
 10
175.488856
 20
163.636335
 30
0.0
  0
VERTEX
  6
SL5
  8
11
 62
2
 70
8
 10
175.877616
 20
163.745666
 30
0.0
  0
VERTEX
  6
SL5
  8
11
 62
2
 70
8
 10
176.254691
 20
163.87918
 30
0.0
  0
VERTEX
  6
SL5
  8
11
 62
2
 70
8
 10
176.617962
 20
164.035183
 30
0.0
  0
VERTEX
  6
SL5
  8
11
 62
2
 70
8
 10
176.96559
 20
164.211768
 30
0.0
  0
VERTEX
  6
SL5
  8
11
 62
2
 70
16
 10
176.96559
 20
164.211768
 30
0.0
  0
VERTEX
  6
SL5
  8
11
 62
2
 10
176.96559
 20
164.174575
 30
0.0
 42
0.479973
  0
VERTEX
  6
SL5
  8
11
 62
2
 10
179.85234
 20
164.182998
 30
0.0
  0
VERTEX
  6
SL5
  8
11
 62
2
 10
179.85234
 20
166.489383
 30
0.0
 42
0.414214
  0
VERTEX
  6
SL5
  8
11
 62
2
 10
179.35234
 20
166.989383
 30
0.0
  0
VERTEX
  6
SL5
  8
11
 62
2
 10
178.697638
 20
166.989383
 30
0.0
  0
VERTEX
  6
SL5
  8
11
 62
2
 10
177.078841
 20
166.989383
 30
0.0
  0
VERTEX
  6
SL5
  8
11
 62
2
 10
177.078841
 20
171.96181
 30
0.0
  0
SEQEND
  0
ENDBLK
  8
0
  0
BLOCK
  8
0
  2
MEDCLUMP_SET_21_
 70
64
 10
0.0
 20
0.0
 30
0.0
  0
POLYLINE
  6
SL0
  8
11
 62
7
 66
1
 70
0
  0
VERTEX
  6
SL0
  8
11
 62
7
 10
316.878832
 20
232.96189
 30
0.0
  0
VERTEX
  6
SL0
  8
11
 62
7
 10
316.878832
 20
237.934399
 30
0.0
  0
SEQEND
  0
POLYLINE
  6
SL0
  8
11
 62
7
 66
1
 70
0
  0
VERTEX
  6
SL0
  8
11
 62
7
 10
321.278832
 20
232.96189
 30
0.0
  0
VERTEX
  6
SL0
  8
11
 62
7
 10
321.278832
 20
237.934399
 30
0.0
  0
SEQEND
  0
POLYLINE
  6
SL5
  8
11
 62
2
 66
1
 70
0
  0
VERTEX
  6
SL5
  8
11
 62
2
 10
316.19208
 20
240.734399
 30
0.0
  0
VERTEX
  6
SL5
  8
11
 62
2
 10
316.19208
 20
237.934399
 30
0.0
  0
SEQEND
  0
POLYLINE
  6
SL5
  8
11
 62
2
 66
1
 70
0
  0
VERTEX
  6
SL5
  8
11
 62
2
 10
321.953765
 20
237.934399
 30
0.0
  0
VERTEX
  6
SL5
  8
11
 62
2
 10
321.953765
 20
240.718481
 30
0.0
  0
SEQEND
  0
POLYLINE
  6
SL5
  8
11
 62
2
 66
1
 70
0
  0
VERTEX
  6
SL5
  8
11
 62
2
 10
316.078832
 20
237.934399
 30
0.0
  0
VERTEX
  6
SL5
  8
11
 62
2
 10
322.078832
 20
237.934399
 30
0.0
  0
SEQEND
  0
POLYLINE
  6
SL5
  8
11
 62
2
 66
1
 70
0
  0
VERTEX
  6
SL5
  8
11
 62
2
 10
316.078832
 20
232.96189
 30
0.0
  0
VERTEX
  6
SL5
  8
11
 62
2
 10
316.078832
 20
237.934399
 30
0.0
  0
VERTEX
  6
SL5
  8
11
 62
2
 10
314.760029
 20
237.934399
 30
0.0
  0
VERTEX
  6
SL5
  8
11
 62
2
 10
313.805329
 20
237.934399
 30
0.0
 42
-0.414214
  0
VERTEX
  6
SL5
  8
11
 62
2
 10
313.305329
 20
238.434399
 30
0.0
  0
VERTEX
  6
SL5
  8
11
 62
2
 10
313.305329
 20
240.749206
 30
0.0
 42
-0.480805
  0
VERTEX
  6
SL5
  8
11
 62
2
 10
316.19208
 20
240.734399
 30
0.0
  0
VERTEX
  6
SL5
  8
11
 62
2
 70
16
 10
316.19208
 20
240.734399
 30
0.0
  0
VERTEX
  6
SL5
  8
11
 62
2
 70
8
 10
316.19208
 20
240.734399
 30
0.0
  0
VERTEX
  6
SL5
  8
11
 62
2
 70
8
 10
316.897008
 20
241.061497
 30
0.0
  0
VERTEX
  6
SL5
  8
11
 62
2
 70
8
 10
317.271693
 20
241.192096
 30
0.0
  0
VERTEX
  6
SL5
  8
11
 62
2
 70
8
 10
317.6585
 20
241.298419
 30
0.0
  0
VERTEX
  6
SL5
  8
11
 62
2
 70
8
 10
318.055084
 20
241.379058
 30
0.0
  0
VERTEX
  6
SL5
  8
11
 62
2
 70
8
 10
318.458885
 20
241.432912
 30
0.0
  0
VERTEX
  6
SL5
  8
11
 62
2
 70
8
 10
318.867187
 20
241.459232
 30
0.0
  0
VERTEX
  6
SL5
  8
11
 62
2
 70
8
 10
319.277168
 20
241.457642
 30
0.0
  0
VERTEX
  6
SL5
  8
11
 62
2
 70
8
 10
319.685975
 20
241.428154
 30
0.0
  0
VERTEX
  6
SL5
  8
11
 62
2
 70
8
 10
320.09078
 20
241.371164
 30
0.0
  0
VERTEX
  6
SL5
  8
11
 62
2
 70
8
 10
320.488851
 20
241.287445
 30
0.0
  0
VERTEX
  6
SL5
  8
11
 62
2
 70
8
 10
320.877609
 20
241.178114
 30
0.0
  0
VERTEX
  6
SL5
  8
11
 62
2
 70
8
 10
321.254685
 20
241.0446
 30
0.0
  0
VERTEX
  6
SL5
  8
11
 62
2
 70
8
 10
321.617955
 20
240.888597
 30
0.0
  0
VERTEX
  6
SL5
  8
11
 62
2
 70
8
 10
321.965583
 20
240.712012
 30
0.0
  0
VERTEX
  6
SL5
  8
11
 62
2
 70
16
 10
321.965583
 20
240.712012
 30
0.0
  0
VERTEX
  6
SL5
  8
11
 62
2
 10
321.965583
 20
240.749206
 30
0.0
 42
-0.479973
  0
VERTEX
  6
SL5
  8
11
 62
2
 10
324.852334
 20
240.740785
 30
0.0
  0
VERTEX
  6
SL5
  8
11
 62
2
 10
324.852334
 20
238.434399
 30
0.0
 42
-0.414214
  0
VERTEX
  6
SL5
  8
11
 62
2
 10
324.352334
 20
237.934399
 30
0.0
  0
VERTEX
  6
SL5
  8
11
 62
2
 10
323.697634
 20
237.934399
 30
0.0
  0
VERTEX
  6
SL5
  8
11
 62
2
 10
322.078832
 20
237.934399
 30
0.0
  0
VERTEX
  6
SL5
  8
11
 62
2
 10
322.078832
 20
232.96189
 30
0.0
  0
SEQEND
  0
ENDBLK
  8
0
  0
BLOCK
  8
0
  2
MEDCLUMP_SET_12_
 70
64
 10
0.0
 20
0.0
 30
0.0
  0
POLYLINE
  6
SL2
  8
11
 62
1
 66
1
 70
0
  0
VERTEX
  6
SL2
  8
11
 62
1
 10
174.078843
 20
242.962028
 30
0.0
  0
VERTEX
  6
SL2
  8
11
 62
1
 10
174.078843
 20
230.753498
 30
0.0
  0
SEQEND
  0
POLYLINE
  6
SL0
  8
11
 62
7
 66
1
 70
0
  0
VERTEX
  6
SL0
  8
11
 62
7
 10
171.878844
 20
232.961859
 30
0.0
  0
VERTEX
  6
SL0
  8
11
 62
7
 10
171.878844
 20
237.934464
 30
0.0
  0
SEQEND
  0
POLYLINE
  6
SL0
  8
11
 62
7
 66
1
 70
0
  0
VERTEX
  6
SL0
  8
11
 62
7
 10
176.278838
 20
232.961856
 30
0.0
  0
VERTEX
  6
SL0
  8
11
 62
7
 10
176.278838
 20
237.934459
 30
0.0
  0
SEQEND
  0
POLYLINE
  6
SL5
  8
11
 62
2
 66
1
 70
0
  0
VERTEX
  6
SL5
  8
11
 62
2
 10
178.609229
 20
232.961886
 30
0.0
  0
VERTEX
  6
SL5
  8
11
 62
2
 10
171.078841
 20
232.961856
 30
0.0
  0
SEQEND
  0
POLYLINE
  6
SL5
  8
11
 62
2
 66
1
 70
0
  0
VERTEX
  6
SL5
  8
11
 62
2
 10
171.192092
 20
240.734464
 30
0.0
  0
VERTEX
  6
SL5
  8
11
 62
2
 10
171.192092
 20
237.934464
 30
0.0
  0
SEQEND
  0
POLYLINE
  6
SL5
  8
11
 62
2
 66
1
 70
0
  0
VERTEX
  6
SL5
  8
11
 62
2
 10
176.953776
 20
237.934464
 30
0.0
  0
VERTEX
  6
SL5
  8
11
 62
2
 10
176.953776
 20
240.718547
 30
0.0
  0
SEQEND
  0
POLYLINE
  6
SL5
  8
11
 62
2
 66
1
 70
0
  0
VERTEX
  6
SL5
  8
11
 62
2
 10
171.078843
 20
237.934464
 30
0.0
  0
VERTEX
  6
SL5
  8
11
 62
2
 10
177.078843
 20
237.934464
 30
0.0
  0
SEQEND
  0
POLYLINE
  6
SL5
  8
11
 62
2
 66
1
 70
0
  0
VERTEX
  6
SL5
  8
11
 62
2
 10
171.078843
 20
232.961859
 30
0.0
  0
VERTEX
  6
SL5
  8
11
 62
2
 10
171.078843
 20
237.934464
 30
0.0
  0
VERTEX
  6
SL5
  8
11
 62
2
 10
169.760041
 20
237.934464
 30
0.0
  0
VERTEX
  6
SL5
  8
11
 62
2
 10
168.80534
 20
237.934464
 30
0.0
 42
-0.414214
  0
VERTEX
  6
SL5
  8
11
 62
2
 10
168.30534
 20
238.434464
 30
0.0
  0
VERTEX
  6
SL5
  8
11
 62
2
 10
168.30534
 20
240.749271
 30
0.0
 42
-0.480805
  0
VERTEX
  6
SL5
  8
11
 62
2
 10
171.192092
 20
240.734464
 30
0.0
  0
VERTEX
  6
SL5
  8
11
 62
2
 70
16
 10
171.192092
 20
240.734464
 30
0.0
  0
VERTEX
  6
SL5
  8
11
 62
2
 70
8
 10
171.192092
 20
240.734464
 30
0.0
  0
VERTEX
  6
SL5
  8
11
 62
2
 70
8
 10
171.89702
 20
241.061562
 30
0.0
  0
VERTEX
  6
SL5
  8
11
 62
2
 70
8
 10
172.271704
 20
241.192161
 30
0.0
  0
VERTEX
  6
SL5
  8
11
 62
2
 70
8
 10
172.658512
 20
241.298485
 30
0.0
  0
VERTEX
  6
SL5
  8
11
 62
2
 70
8
 10
173.055095
 20
241.379123
 30
0.0
  0
VERTEX
  6
SL5
  8
11
 62
2
 70
8
 10
173.458897
 20
241.432977
 30
0.0
  0
VERTEX
  6
SL5
  8
11
 62
2
 70
8
 10
173.867198
 20
241.459297
 30
0.0
  0
VERTEX
  6
SL5
  8
11
 62
2
 70
8
 10
174.27718
 20
241.457708
 30
0.0
  0
VERTEX
  6
SL5
  8
11
 62
2
 70
8
 10
174.685986
 20
241.428219
 30
0.0
  0
VERTEX
  6
SL5
  8
11
 62
2
 70
8
 10
175.090791
 20
241.37123
 30
0.0
  0
VERTEX
  6
SL5
  8
11
 62
2
 70
8
 10
175.488862
 20
241.28751
 30
0.0
  0
VERTEX
  6
SL5
  8
11
 62
2
 70
8
 10
175.877621
 20
241.178179
 30
0.0
  0
VERTEX
  6
SL5
  8
11
 62
2
 70
8
 10
176.254696
 20
241.044666
 30
0.0
  0
VERTEX
  6
SL5
  8
11
 62
2
 70
8
 10
176.617967
 20
240.888663
 30
0.0
  0
VERTEX
  6
SL5
  8
11
 62
2
 70
8
 10
176.965594
 20
240.712078
 30
0.0
  0
VERTEX
  6
SL5
  8
11
 62
2
 70
16
 10
176.965594
 20
240.712078
 30
0.0
  0
VERTEX
  6
SL5
  8
11
 62
2
 10
176.965594
 20
240.749271
 30
0.0
 42
-0.479973
  0
VERTEX
  6
SL5
  8
11
 62
2
 10
179.852346
 20
240.74085
 30
0.0
  0
VERTEX
  6
SL5
  8
11
 62
2
 10
179.852346
 20
238.434464
 30
0.0
 42
-0.414214
  0
VERTEX
  6
SL5
  8
11
 62
2
 10
179.352346
 20
237.934464
 30
0.0
  0
VERTEX
  6
SL5
  8
11
 62
2
 10
178.697645
 20
237.934464
 30
0.0
  0
VERTEX
  6
SL5
  8
11
 62
2
 10
177.078843
 20
237.934464
 30
0.0
  0
VERTEX
  6
SL5
  8
11
 62
2
 10
177.078843
 20
232.961859
 30
0.0
  0
SEQEND
  0
ENDBLK
  8
0
  0
BLOCK
  8
0
  2
MEDCLUMP_SET_5_
 70
64
 10
0.0
 20
0.0
 30
0.0
  0
POLYLINE
  6
SL2
  8
11
 62
1
 66
1
 70
0
  0
VERTEX
  6
SL2
  8
11
 62
1
 10
122.659575
 20
395.578654
 30
0.0
  0
VERTEX
  6
SL2
  8
11
 62
1
 10
123.393279
 20
409.578654
 30
0.0
  0
VERTEX
  6
SL2
  8
11
 62
1
 10
144.72586
 20
409.578654
 30
0.0
  0
VERTEX
  6
SL2
  8
11
 62
1
 10
145.459563
 20
395.578685
 30
0.0
  0
SEQEND
  0
POLYLINE
  6
SL2
  8
11
 62
1
 66
1
 70
0
  0
VERTEX
  6
SL2
  8
11
 62
1
 10
142.723113
 20
409.578654
 30
0.0
  0
VERTEX
  6
SL2
  8
11
 62
1
 10
143.456817
 20
395.578685
 30
0.0
  0
SEQEND
  0
POLYLINE
  6
SL2
  8
11
 62
1
 66
1
 70
0
  0
VERTEX
  6
SL2
  8
11
 62
1
 10
125.396026
 20
409.578654
 30
0.0
  0
VERTEX
  6
SL2
  8
11
 62
1
 10
124.662322
 20
395.578685
 30
0.0
  0
SEQEND
  0
POLYLINE
  6
SL2
  8
11
 62
1
 66
1
 70
0
  0
VERTEX
  6
SL2
  8
11
 62
1
 10
126.809569
 20
392.578715
 30
0.0
  0
VERTEX
  6
SL2
  8
11
 62
1
 10
128.074462
 20
383.578685
 30
0.0
  0
VERTEX
  6
SL2
  8
11
 62
1
 10
140.044707
 20
383.578685
 30
0.0
  0
VERTEX
  6
SL2
  8
11
 62
1
 10
141.309569
 20
392.578715
 30
0.0
  0
SEQEND
  0
POLYLINE
  6
SL2
  8
11
 62
1
 66
1
 70
0
  0
VERTEX
  6
SL2
  8
11
 62
1
 10
146.559569
 20
392.578685
 30
0.0
  0
VERTEX
  6
SL2
  8
11
 62
1
 10
121.559569
 20
392.578685
 30
0.0
  0
VERTEX
  6
SL2
  8
11
 62
1
 10
121.559569
 20
395.578685
 30
0.0
  0
VERTEX
  6
SL2
  8
11
 62
1
 10
146.559569
 20
395.578685
 30
0.0
  0
VERTEX
  6
SL2
  8
11
 62
1
 10
146.559569
 20
392.578685
 30
0.0
  0
SEQEND
  0
POLYLINE
  6
SL2
  8
11
 62
1
 66
1
 70
0
  0
VERTEX
  6
SL2
  8
11
 62
1
 10
134.059569
 20
380.064158
 30
0.0
  0
VERTEX
  6
SL2
  8
11
 62
1
 10
134.059569
 20
412.25532
 30
0.0
  0
SEQEND
  0
ENDBLK
  8
0
  0
ENDSEC
  0
SECTION
  2
ENTITIES
  0
TEXT
  7
T3
  8
6
 62
3
  1
Dia29
 40
5.0
 41
0.8125
 50
0.0
 72
5
 73
0
 10
568.2403
 20
12.189117
 30
0.0
 11
584.4903
 21
12.189117
 31
0.0
  0
TEXT
  7
T3
  8
6
 62
3
  1
DORMA BTS 75V Klemmbefestigung
 40
5.0
 41
0.693966
 50
0.0
 72
5
 73
0
 10
152.296303
 20
270.064779
 30
0.0
 11
252.921303
 21
270.064779
 31
0.0
  0
INSERT
  8
0
  2
MEDCLUMP_SET_5_
 10
0.0
 20
0.0
 30
0.0
  0
INSERT
  8
0
  2
MEDCLUMP_SET_12_
 10
0.0
 20
0.0
 30
0.0
  0
INSERT
  8
0
  2
MEDCLUMP_SET_21_
 10
0.0
 20
0.0
 30
0.0
  0
INSERT
  8
0
  2
MEDCLUMP_SET_28_
 10
0.0
 20
0.0
 30
0.0
  0
INSERT
  8
0
  2
MEDCLUMP_SET_35_
 10
0.0
 20
0.0
 30
0.0
  0
INSERT
  8
0
  2
MEDCLUMP_S2T_42_
 10
0.0
 20
0.0
 30
0.0
  0
INSERT
  8
0
  2
MEDCLUMP_S2T_57_
 10
0.0
 20
0.0
 30
0.0
  0
INSERT
  8
0
  2
MEDCLUMP_S3T_69_
 10
0.0
 20
0.0
 30
0.0
  0
INSERT
  8
0
  2
MEDCLUMP_SET_194_
 10
0.0
 20
0.0
 30
0.0
  0
INSERT
  8
0
  2
MEDCLUMP_SET_196_
 10
0.0
 20
0.0
 30
0.0
  0
INSERT
  8
0
  2
MEDCLUMP_SET_203_
 10
0.0
 20
0.0
 30
0.0
  0
INSERT
  8
0
  2
MEDCLUMP_SET_210_
 10
0.0
 20
0.0
 30
0.0
  0
INSERT
  8
0
  2
MEDCLUMP_SET_212_
 10
0.0
 20
0.0
 30
0.0
  0
INSERT
  8
0
  2
MEDCLUMP_SET_215_
 10
0.0
 20
0.0
 30
0.0
  0
INSERT
  8
0
  2
MEDCLUMP_SET_217_
 10
0.0
 20
0.0
 30
0.0
  0
INSERT
  8
0
  2
MEDCLUMP_SET_248_
 10
0.0
 20
0.0
 30
0.0
  0
TEXT
  7
T3
  8
6
 62
3
  1
M 1:1
 40
5.0
 41
0.8125
 50
0.0
 72
5
 73
0
 10
12.773949
 20
404.443024
 30
0.0
 11
29.023949
 21
404.443024
 31
0.0
  0
POLYLINE
  6
L0
  8
0
 62
7
 66
1
 70
0
  0
VERTEX
  6
L0
  8
0
 62
7
 10
5.0
 20
5.0
 30
0.0
  0
VERTEX
  6
L0
  8
0
 62
7
 10
589.0
 20
5.0
 30
0.0
  0
VERTEX
  6
L0
  8
0
 62
7
 10
589.0
 20
415.0
 30
0.0
  0
VERTEX
  6
L0
  8
0
 62
7
 10
5.0
 20
415.0
 30
0.0
  0
VERTEX
  6
L0
  8
0
 62
7
 10
5.0
 20
5.0
 30
0.0
  0
SEQEND
  0
ENDSEC
  0
EOF
