  0
SECTION
  2
HEADER
  9
$ACADVER
  1
AC1009
999
I-DEAS 8 Not Encoded
  9
$EXTMIN
 10
0.0
 20
0.0
  9
$EXTMAX
 10
5.94E+002
 20
4.2E+002
  9
$TEXTSIZE
 40
1.25E-001
  9
$LTSCALE
 40
1.0
  9
$CLAYER
  8
104
  9
$CECOLOR
 62
40
  9
$DIMASZ
 40
1.25E-001
  9
$DIMEXO
 40
6.25E-002
  9
$DIMDLI
 40
2.5E-001
  9
$DIMEXE
 40
1.25E-001
  9
$DIMTP
 40
5.0E-003
  9
$DIMTM
 40
-5.0E-003
  9
$DIMTXT
 40
3.0
  9
$DIMLIM
 70
0
  9
$DIMTIH
 70
1
  9
$DIMTOH
 70
1
  9
$DIMSE1
 70
0
  9
$DIMSE2
 70
0
  9
$DIMTAD
 70
0
  9
$DIMASO
 70
1
  9
$DIMALT
 70
0
  9
$DIMALTD
 70
0
  9
$DIMTOFL
 70
1
  9
$DIMTIX
 70
0
  9
$DIMSAH
 70
0
  9
$DIMTFAC
 40
1.0
  9
$DIMGAP
 40
6.25E-002
  9
$LUNITS
 70
2
  9
$LUPREC
 70
3
  9
$FILLETRAD
 40
2.0
  9
$AUNITS
 70
0
  9
$AUPREC
 70
1
  9
$CHAMFERA
 40
1.0E+001
  9
$CHAMFERB
 40
1.0E+001
  9
$ANGBASE
 50
0.0
  9
$ANGDIR
 70
0
  9
$PDMODE
 70
2
  9
$PDSIZE
 40
-1.0E-002
  9
$SPLINETYPE
 70
6
  0
ENDSEC
  0
SECTION
  2
TABLES
  0
TABLE
  2
LTYPE
 70
7
  0
LTYPE
  2
HIDDENNEW00
  3
_ 
 70
64
 72
65
 73
3
 40
4.5
 49
1.5
 49
-1.5
 49
1.5
  0
LTYPE
  2
HIDDENNEW01
  3
_ 
 70
64
 72
65
 73
3
 40
4.5
 49
1.5
 49
-1.5
 49
1.5
  0
LTYPE
  2
HIDDEN
  3
_ 
 70
64
 72
65
 73
3
 40
4.5
 49
1.5
 49
-1.5
 49
1.5
  0
LTYPE
  2
CENTERLINE
  3
_ 
 70
64
 72
65
 73
5
 40
3.0E+001
 49
1.2E+001
 49
-1.5
 49
3.0
 49
-1.5
 49
1.2E+001
  0
LTYPE
  2
PHANTOM
  3
_ 
 70
64
 72
65
 73
7
 40
2.95E+001
 49
9.5
 49
-1.5
 49
3.0
 49
-1.5
 49
3.0
 49
-1.5
 49
9.5
  0
LTYPE
  2
SHORT_DASH
  3
_ 
 70
64
 72
65
 73
3
 40
3.0
 49
7.5E-001
 49
-1.5
 49
7.5E-001
  0
LTYPE
  2
LONG_DASH
  3
_ 
 70
64
 72
65
 73
3
 40
9.0
 49
2.25
 49
-4.5
 49
2.25
  0
ENDTAB
  0
TABLE
  2
LAYER
 70
258
  0
LAYER
  2
MED-1
 70
0
 62
3
  6
HIDDENNEW00
  0
LAYER
  2
2
 70
0
 62
7
  6
CONTINUOUS
  0
LAYER
  2
3
 70
0
 62
7
  6
CONTINUOUS
  0
LAYER
  2
4
 70
0
 62
7
  6
CONTINUOUS
  0
LAYER
  2
5
 70
0
 62
7
  6
CONTINUOUS
  0
LAYER
  2
MED-6
 70
0
 62
6
  6
HIDDENNEW00
  0
LAYER
  2
7
 70
0
 62
7
  6
CONTINUOUS
  0
LAYER
  2
8
 70
0
 62
7
  6
CONTINUOUS
  0
LAYER
  2
9
 70
0
 62
7
  6
CONTINUOUS
  0
LAYER
  2
10
 70
0
 62
7
  6
CONTINUOUS
  0
LAYER
  2
MED-11
 70
0
 62
70
  6
HIDDENNEW00
  0
LAYER
  2
12
 70
0
 62
7
  6
CONTINUOUS
  0
LAYER
  2
13
 70
0
 62
7
  6
CONTINUOUS
  0
LAYER
  2
14
 70
0
 62
7
  6
CONTINUOUS
  0
LAYER
  2
15
 70
0
 62
7
  6
CONTINUOUS
  0
LAYER
  2
16
 70
0
 62
7
  6
CONTINUOUS
  0
LAYER
  2
17
 70
0
 62
7
  6
CONTINUOUS
  0
LAYER
  2
18
 70
0
 62
7
  6
CONTINUOUS
  0
LAYER
  2
19
 70
0
 62
7
  6
CONTINUOUS
  0
LAYER
  2
20
 70
0
 62
7
  6
CONTINUOUS
  0
LAYER
  2
21
 70
0
 62
7
  6
CONTINUOUS
  0
LAYER
  2
22
 70
0
 62
7
  6
CONTINUOUS
  0
LAYER
  2
23
 70
0
 62
7
  6
CONTINUOUS
  0
LAYER
  2
24
 70
0
 62
7
  6
CONTINUOUS
  0
LAYER
  2
25
 70
0
 62
7
  6
CONTINUOUS
  0
LAYER
  2
26
 70
0
 62
7
  6
CONTINUOUS
  0
LAYER
  2
27
 70
0
 62
7
  6
CONTINUOUS
  0
LAYER
  2
28
 70
0
 62
7
  6
CONTINUOUS
  0
LAYER
  2
29
 70
0
 62
7
  6
CONTINUOUS
  0
LAYER
  2
30
 70
0
 62
7
  6
CONTINUOUS
  0
LAYER
  2
31
 70
0
 62
7
  6
CONTINUOUS
  0
LAYER
  2
32
 70
0
 62
7
  6
CONTINUOUS
  0
LAYER
  2
33
 70
0
 62
7
  6
CONTINUOUS
  0
LAYER
  2
34
 70
0
 62
7
  6
CONTINUOUS
  0
LAYER
  2
35
 70
0
 62
7
  6
CONTINUOUS
  0
LAYER
  2
36
 70
0
 62
7
  6
CONTINUOUS
  0
LAYER
  2
37
 70
0
 62
7
  6
CONTINUOUS
  0
LAYER
  2
38
 70
0
 62
7
  6
CONTINUOUS
  0
LAYER
  2
39
 70
0
 62
7
  6
CONTINUOUS
  0
LAYER
  2
40
 70
0
 62
7
  6
CONTINUOUS
  0
LAYER
  2
41
 70
0
 62
7
  6
CONTINUOUS
  0
LAYER
  2
42
 70
0
 62
7
  6
CONTINUOUS
  0
LAYER
  2
43
 70
0
 62
7
  6
CONTINUOUS
  0
LAYER
  2
44
 70
0
 62
7
  6
CONTINUOUS
  0
LAYER
  2
45
 70
0
 62
7
  6
CONTINUOUS
  0
LAYER
  2
46
 70
0
 62
7
  6
CONTINUOUS
  0
LAYER
  2
47
 70
0
 62
7
  6
CONTINUOUS
  0
LAYER
  2
48
 70
0
 62
7
  6
CONTINUOUS
  0
LAYER
  2
49
 70
0
 62
7
  6
CONTINUOUS
  0
LAYER
  2
50
 70
0
 62
7
  6
CONTINUOUS
  0
LAYER
  2
51
 70
0
 62
7
  6
CONTINUOUS
  0
LAYER
  2
52
 70
0
 62
7
  6
CONTINUOUS
  0
LAYER
  2
53
 70
0
 62
7
  6
CONTINUOUS
  0
LAYER
  2
54
 70
0
 62
7
  6
CONTINUOUS
  0
LAYER
  2
55
 70
0
 62
7
  6
CONTINUOUS
  0
LAYER
  2
56
 70
0
 62
7
  6
CONTINUOUS
  0
LAYER
  2
57
 70
0
 62
7
  6
CONTINUOUS
  0
LAYER
  2
58
 70
0
 62
7
  6
CONTINUOUS
  0
LAYER
  2
59
 70
0
 62
7
  6
CONTINUOUS
  0
LAYER
  2
60
 70
0
 62
7
  6
CONTINUOUS
  0
LAYER
  2
61
 70
0
 62
7
  6
CONTINUOUS
  0
LAYER
  2
62
 70
0
 62
7
  6
CONTINUOUS
  0
LAYER
  2
63
 70
0
 62
7
  6
CONTINUOUS
  0
LAYER
  2
64
 70
0
 62
7
  6
CONTINUOUS
  0
LAYER
  2
65
 70
0
 62
7
  6
CONTINUOUS
  0
LAYER
  2
66
 70
0
 62
7
  6
CONTINUOUS
  0
LAYER
  2
67
 70
0
 62
7
  6
CONTINUOUS
  0
LAYER
  2
68
 70
0
 62
7
  6
CONTINUOUS
  0
LAYER
  2
69
 70
0
 62
7
  6
CONTINUOUS
  0
LAYER
  2
70
 70
0
 62
7
  6
CONTINUOUS
  0
LAYER
  2
71
 70
0
 62
7
  6
CONTINUOUS
  0
LAYER
  2
72
 70
0
 62
7
  6
CONTINUOUS
  0
LAYER
  2
73
 70
0
 62
7
  6
CONTINUOUS
  0
LAYER
  2
74
 70
0
 62
7
  6
CONTINUOUS
  0
LAYER
  2
75
 70
0
 62
7
  6
CONTINUOUS
  0
LAYER
  2
76
 70
0
 62
7
  6
CONTINUOUS
  0
LAYER
  2
77
 70
0
 62
7
  6
CONTINUOUS
  0
LAYER
  2
78
 70
0
 62
7
  6
CONTINUOUS
  0
LAYER
  2
79
 70
0
 62
7
  6
CONTINUOUS
  0
LAYER
  2
80
 70
0
 62
7
  6
CONTINUOUS
  0
LAYER
  2
81
 70
0
 62
7
  6
CONTINUOUS
  0
LAYER
  2
82
 70
0
 62
7
  6
CONTINUOUS
  0
LAYER
  2
83
 70
0
 62
7
  6
CONTINUOUS
  0
LAYER
  2
84
 70
0
 62
7
  6
CONTINUOUS
  0
LAYER
  2
85
 70
0
 62
7
  6
CONTINUOUS
  0
LAYER
  2
86
 70
0
 62
7
  6
CONTINUOUS
  0
LAYER
  2
87
 70
0
 62
7
  6
CONTINUOUS
  0
LAYER
  2
88
 70
0
 62
7
  6
CONTINUOUS
  0
LAYER
  2
89
 70
0
 62
7
  6
CONTINUOUS
  0
LAYER
  2
90
 70
0
 62
7
  6
CONTINUOUS
  0
LAYER
  2
91
 70
0
 62
7
  6
CONTINUOUS
  0
LAYER
  2
92
 70
0
 62
7
  6
CONTINUOUS
  0
LAYER
  2
93
 70
0
 62
7
  6
CONTINUOUS
  0
LAYER
  2
94
 70
0
 62
7
  6
CONTINUOUS
  0
LAYER
  2
95
 70
0
 62
7
  6
CONTINUOUS
  0
LAYER
  2
96
 70
0
 62
7
  6
CONTINUOUS
  0
LAYER
  2
97
 70
0
 62
7
  6
CONTINUOUS
  0
LAYER
  2
98
 70
0
 62
7
  6
CONTINUOUS
  0
LAYER
  2
99
 70
0
 62
7
  6
CONTINUOUS
  0
LAYER
  2
MED-0
 70
0
 62
230
  6
HIDDENNEW00
  0
LAYER
  2
101
 70
0
 62
7
  6
CONTINUOUS
  0
LAYER
  2
102
 70
0
 62
7
  6
CONTINUOUS
  0
LAYER
  2
103
 70
0
 62
7
  6
CONTINUOUS
  0
LAYER
  2
104
 70
0
 62
7
  6
CONTINUOUS
  0
LAYER
  2
105
 70
0
 62
7
  6
CONTINUOUS
  0
LAYER
  2
106
 70
0
 62
7
  6
CONTINUOUS
  0
LAYER
  2
Drafting_Hidden_Entities
 70
1
 62
7
  6
CONTINUOUS
  0
ENDTAB
  0
TABLE
  2
STYLE
 70
1
  0
STYLE
  2
STANDARD
 70
64
 40
0.0
 41
1.0
 50
0.0
 71
0
 42
1.0
  3
monotxt.shx
  4

  0
ENDTAB
  0
TABLE
  2
VIEW
 70
0
  0
ENDTAB
  0
TABLE
  2
DIMSTYLE
 70
0
  0
ENDTAB
  0
ENDSEC
  0
SECTION
  2
BLOCKS
  0
ENDSEC
  0
SECTION
  2
ENTITIES
  0
TEXT
  8
103
  6
CONTINUOUS
 62
40
 10
5.8194989E+002
 20
1.4924868E+001
 40
7.0
  1
BTS84
 41
6.3E-001
 72
1
 11
5.7092489E+002
 21
1.1424868E+001
 73
2
  0
LINE
  8
104
  6
CONTINUOUS
 62
40
 10
4.2295641E+002
 20
3.8082715E+002
 11
4.2295641E+002
 21
3.8182715E+002
  0
ARC
  8
104
  6
CONTINUOUS
 62
40
 10
4.2495641E+002
 20
3.8182713E+002
 40
2.0000014
 50
9.000004E+001
 51
1.7999953E+002
  0
LINE
  8
104
  6
CONTINUOUS
 62
40
 10
4.2495641E+002
 20
3.8382714E+002
 11
4.6195638E+002
 21
3.8382714E+002
  0
ARC
  8
104
  6
CONTINUOUS
 62
40
 10
4.619564E+002
 20
3.8182711E+002
 40
2.0000201
 50
1.0044197E-003
 51
9.0000743E+001
  0
LINE
  8
104
  6
CONTINUOUS
 62
40
 10
4.6395642E+002
 20
3.8182715E+002
 11
4.6395642E+002
 21
3.8082715E+002
  0
LINE
  8
104
  6
CONTINUOUS
 62
40
 10
4.311064E+002
 20
3.8382715E+002
 11
4.311064E+002
 21
3.8662717E+002
  0
LINE
  8
104
  6
CONTINUOUS
 62
40
 10
4.311064E+002
 20
3.8662717E+002
 11
4.376314E+002
 21
3.8662717E+002
  0
LINE
  8
104
  6
CONTINUOUS
 62
40
 10
4.376314E+002
 20
3.8662717E+002
 11
4.383651E+002
 21
4.0062714E+002
  0
LINE
  8
104
  6
CONTINUOUS
 62
40
 10
4.383651E+002
 20
4.0062714E+002
 11
4.4869774E+002
 21
4.0062714E+002
  0
LINE
  8
104
  6
CONTINUOUS
 62
40
 10
4.4869774E+002
 20
4.0062714E+002
 11
4.4943138E+002
 21
3.8662717E+002
  0
LINE
  8
104
  6
CONTINUOUS
 62
40
 10
4.4943138E+002
 20
3.8662717E+002
 11
4.5580635E+002
 21
3.8662717E+002
  0
LINE
  8
104
  6
CONTINUOUS
 62
40
 10
4.5580635E+002
 20
3.8662717E+002
 11
4.5580635E+002
 21
3.8382715E+002
  0
LINE
  8
104
  6
CONTINUOUS
 62
40
 10
4.376314E+002
 20
3.8662717E+002
 11
4.4943138E+002
 21
3.8662717E+002
  0
LINE
  8
104
  6
CONTINUOUS
 62
40
 10
3.9095641E+002
 20
3.8082715E+002
 11
3.9095641E+002
 21
3.4082715E+002
  0
LINE
  8
104
  6
CONTINUOUS
 62
40
 10
4.9595641E+002
 20
3.8082715E+002
 11
4.9595641E+002
 21
3.4082715E+002
  0
LINE
  8
104
  6
CONTINUOUS
 62
40
 10
3.8945641E+002
 20
3.8082715E+002
 11
3.8945641E+002
 21
3.4232715E+002
  0
ARC
  8
104
  6
CONTINUOUS
 62
40
 10
3.9095639E+002
 20
3.4232713E+002
 40
1.4999788
 50
1.7999919E+002
 51
2.7000081E+002
  0
LINE
  8
104
  6
CONTINUOUS
 62
40
 10
3.9095641E+002
 20
3.4082715E+002
 11
4.9595641E+002
 21
3.4082715E+002
  0
ARC
  8
104
  6
CONTINUOUS
 62
40
 10
4.9595641E+002
 20
3.4232715E+002
 40
1.5000039
 50
2.7000015E+002
 51
3.5999985E+002
  0
LINE
  8
104
  6
CONTINUOUS
 62
40
 10
4.9745641E+002
 20
3.4232715E+002
 11
4.9745641E+002
 21
3.8082715E+002
  0
LINE
  8
104
  6
CONTINUOUS
 62
40
 10
4.9745641E+002
 20
3.8082715E+002
 11
3.8945641E+002
 21
3.8082715E+002
  0
LINE
  8
106
  6
CENTERLINE
 62
1
 10
4.4345641E+002
 20
3.3373624E+002
 11
4.4345641E+002
 21
4.0579114E+002
  0
LINE
  8
106
  6
CENTERLINE
 62
1
 10
8.6729129E+001
 20
3.3482715E+002
 11
8.6729129E+001
 21
4.0509055E+002
  0
LINE
  8
104
  6
CONTINUOUS
 62
40
 10
3.0747302E+001
 20
3.8082715E+002
 11
3.0747302E+001
 21
3.4082715E+002
  0
LINE
  8
104
  6
CONTINUOUS
 62
40
 10
3.337473E+002
 20
3.4082715E+002
 11
3.337473E+002
 21
3.8082715E+002
  0
LINE
  8
104
  6
CONTINUOUS
 62
40
 10
2.9247302E+001
 20
3.8082715E+002
 11
2.9247302E+001
 21
3.4232715E+002
  0
ARC
  8
104
  6
CONTINUOUS
 62
40
 10
3.0747295E+001
 20
3.4232714E+002
 40
1.499993
 50
1.7999973E+002
 51
2.7000027E+002
  0
LINE
  8
104
  6
CONTINUOUS
 62
40
 10
3.0747302E+001
 20
3.4082715E+002
 11
3.337473E+002
 21
3.4082715E+002
  0
ARC
  8
104
  6
CONTINUOUS
 62
40
 10
3.3374731E+002
 20
3.4232715E+002
 40
1.5000036
 50
2.6999956E+002
 51
3.5999986E+002
  0
LINE
  8
104
  6
CONTINUOUS
 62
40
 10
3.3524732E+002
 20
3.4232715E+002
 11
3.3524732E+002
 21
3.8082715E+002
  0
LINE
  8
104
  6
CONTINUOUS
 62
40
 10
3.3524732E+002
 20
3.8082715E+002
 11
2.9247302E+001
 21
3.8082715E+002
  0
LINE
  8
104
  6
CONTINUOUS
 62
40
 10
3.8040195E+001
 20
3.0674349E+002
 11
4.2040195E+001
 21
3.1074349E+002
  0
LINE
  8
104
  6
CONTINUOUS
 62
40
 10
3.945441E+001
 20
3.0532927E+002
 11
4.345441E+001
 21
3.0932927E+002
  0
CIRCLE
  8
104
  6
CONTINUOUS
 62
40
 10
4.0747302E+001
 20
3.0803638E+002
 40
3.0
  0
LINE
  8
104
  6
CONTINUOUS
 62
40
 10
4.5747302E+001
 20
3.1503638E+002
 11
4.5747302E+001
 21
3.0503638E+002
  0
LINE
  8
104
  6
CONTINUOUS
 62
40
 10
4.5747302E+001
 20
3.0503638E+002
 11
3.4517123E+001
 21
3.0003638E+002
  0
LINE
  8
104
  6
CONTINUOUS
 62
40
 10
3.4517123E+001
 20
3.0003638E+002
 11
3.0747302E+001
 21
3.0003638E+002
  0
LINE
  8
104
  6
CONTINUOUS
 62
40
 10
3.8040195E+001
 20
2.1874348E+002
 11
4.2040195E+001
 21
2.2274348E+002
  0
LINE
  8
104
  6
CONTINUOUS
 62
40
 10
3.945441E+001
 20
2.1732927E+002
 11
4.345441E+001
 21
2.2132927E+002
  0
CIRCLE
  8
104
  6
CONTINUOUS
 62
40
 10
4.0747302E+001
 20
2.2003638E+002
 40
3.0
  0
LINE
  8
104
  6
CONTINUOUS
 62
40
 10
4.5747302E+001
 20
2.1303638E+002
 11
4.5747302E+001
 21
2.2263332E+002
  0
LINE
  8
104
  6
CONTINUOUS
 62
40
 10
4.5747302E+001
 20
2.2263332E+002
 11
3.3611827E+001
 21
2.2803638E+002
  0
LINE
  8
104
  6
CONTINUOUS
 62
40
 10
3.3611827E+001
 20
2.2803638E+002
 11
3.0747302E+001
 21
2.2803638E+002
  0
LINE
  8
104
  6
CONTINUOUS
 62
40
 10
4.9247302E+001
 20
2.1153638E+002
 11
3.152473E+002
 21
2.1153638E+002
  0
LINE
  8
104
  6
CONTINUOUS
 62
40
 10
4.9247302E+001
 20
3.1653638E+002
 11
3.152473E+002
 21
3.1653638E+002
  0
LINE
  8
104
  6
CONTINUOUS
 62
40
 10
4.9247302E+001
 20
3.1503638E+002
 11
4.9247302E+001
 21
3.1653638E+002
  0
LINE
  8
104
  6
CONTINUOUS
 62
40
 10
4.9247302E+001
 20
3.1653638E+002
 11
3.0747302E+001
 21
3.1653638E+002
  0
ARC
  8
104
  6
CONTINUOUS
 62
40
 10
3.0747309E+001
 20
3.1503637E+002
 40
1.5000047
 50
9.0000256E+001
 51
1.7999982E+002
  0
LINE
  8
104
  6
CONTINUOUS
 62
40
 10
2.9247304E+001
 20
3.1503638E+002
 11
2.9247304E+001
 21
2.1303638E+002
  0
ARC
  8
104
  6
CONTINUOUS
 62
40
 10
3.0747306E+001
 20
2.1303637E+002
 40
1.5000022
 50
1.7999982E+002
 51
2.6999984E+002
  0
LINE
  8
104
  6
CONTINUOUS
 62
40
 10
3.0747302E+001
 20
2.1153637E+002
 11
4.9247302E+001
 21
2.1153637E+002
  0
LINE
  8
104
  6
CONTINUOUS
 62
40
 10
4.9247302E+001
 20
2.1153637E+002
 11
4.9247302E+001
 21
2.1303638E+002
  0
LINE
  8
104
  6
CONTINUOUS
 62
40
 10
3.0747302E+001
 20
2.1153638E+002
 11
3.0747302E+001
 21
2.1003638E+002
  0
LINE
  8
104
  6
CONTINUOUS
 62
40
 10
3.0747302E+001
 20
2.1003638E+002
 11
3.337473E+002
 21
2.1003638E+002
  0
LINE
  8
104
  6
CONTINUOUS
 62
40
 10
3.337473E+002
 20
2.1003638E+002
 11
3.337473E+002
 21
2.1153638E+002
  0
LINE
  8
104
  6
CONTINUOUS
 62
40
 10
3.0747302E+001
 20
3.1653638E+002
 11
3.0747302E+001
 21
3.1803638E+002
  0
LINE
  8
104
  6
CONTINUOUS
 62
40
 10
3.0747302E+001
 20
3.1803638E+002
 11
3.337473E+002
 21
3.1803638E+002
  0
LINE
  8
104
  6
CONTINUOUS
 62
40
 10
3.337473E+002
 20
3.1803638E+002
 11
3.337473E+002
 21
3.1653638E+002
  0
LINE
  8
104
  6
CONTINUOUS
 62
40
 10
3.152473E+002
 20
3.1653638E+002
 11
4.9247302E+001
 21
3.1653638E+002
  0
LINE
  8
104
  6
CONTINUOUS
 62
40
 10
3.152473E+002
 20
2.1303638E+002
 11
3.337473E+002
 21
2.1303638E+002
  0
LINE
  8
104
  6
CONTINUOUS
 62
40
 10
3.337473E+002
 20
2.1303638E+002
 11
3.337473E+002
 21
3.1503638E+002
  0
LINE
  8
104
  6
CONTINUOUS
 62
40
 10
3.337473E+002
 20
3.1503638E+002
 11
3.152473E+002
 21
3.1503638E+002
  0
LINE
  8
104
  6
CONTINUOUS
 62
40
 10
4.9247302E+001
 20
2.1303638E+002
 11
3.0747302E+001
 21
2.1303638E+002
  0
LINE
  8
104
  6
CONTINUOUS
 62
40
 10
3.0747302E+001
 20
2.1303638E+002
 11
3.0747302E+001
 21
3.1503638E+002
  0
LINE
  8
104
  6
CONTINUOUS
 62
40
 10
3.0747302E+001
 20
3.1503638E+002
 11
4.9247302E+001
 21
3.1503638E+002
  0
LINE
  8
104
  6
CONTINUOUS
 62
40
 10
3.152473E+002
 20
3.1503638E+002
 11
3.152473E+002
 21
3.1653638E+002
  0
LINE
  8
104
  6
CONTINUOUS
 62
40
 10
3.152473E+002
 20
3.1653638E+002
 11
3.337473E+002
 21
3.1653638E+002
  0
ARC
  8
104
  6
CONTINUOUS
 62
40
 10
3.337473E+002
 20
3.1503636E+002
 40
1.5000153
 50
5.829248E-004
 51
8.999999E+001
  0
LINE
  8
104
  6
CONTINUOUS
 62
40
 10
3.3524732E+002
 20
3.1503638E+002
 11
3.3524732E+002
 21
2.1303638E+002
  0
ARC
  8
104
  6
CONTINUOUS
 62
40
 10
3.337473E+002
 20
2.1303638E+002
 40
1.5000128
 50
2.6999991E+002
 51
3.5999978E+002
  0
LINE
  8
104
  6
CONTINUOUS
 62
40
 10
3.337473E+002
 20
2.1153637E+002
 11
3.152473E+002
 21
2.1153637E+002
  0
LINE
  8
104
  6
CONTINUOUS
 62
40
 10
3.152473E+002
 20
2.1153637E+002
 11
3.152473E+002
 21
2.1303638E+002
  0
ARC
  8
104
  6
CONTINUOUS
 62
40
 10
8.6729129E+001
 20
2.6403638E+002
 40
4.7499999E+001
 50
2.9784547E+002
 51
4.2215453E+002
  0
ARC
  8
104
  6
CONTINUOUS
 62
40
 10
8.6729129E+001
 20
2.6403638E+002
 40
4.7499999E+001
 50
1.3221935E+002
 51
2.2775594E+002
  0
CIRCLE
  8
104
  6
CONTINUOUS
 62
40
 10
8.6729129E+001
 20
2.6403638E+002
 40
2.05E+001
  0
CIRCLE
  8
104
  6
CONTINUOUS
 62
40
 10
8.6729129E+001
 20
2.6403638E+002
 40
1.25E+001
  0
CIRCLE
  8
104
  6
CONTINUOUS
 62
40
 10
8.6729129E+001
 20
2.6403638E+002
 40
3.0
  0
ARC
  8
104
  6
CONTINUOUS
 62
40
 10
8.6729129E+001
 20
2.6403638E+002
 40
1.0999997E+001
 50
1.4999999E+002
 51
2.1000001E+002
  0
LINE
  8
104
  6
CONTINUOUS
 62
40
 10
7.7202853E+001
 20
2.6953638E+002
 11
9.6255405E+001
 21
2.6953638E+002
  0
ARC
  8
104
  6
CONTINUOUS
 62
40
 10
8.6729129E+001
 20
2.6403638E+002
 40
1.0999997E+001
 50
3.2999999E+002
 51
3.9000001E+002
  0
LINE
  8
104
  6
CONTINUOUS
 62
40
 10
9.6255405E+001
 20
2.5853638E+002
 11
7.7202853E+001
 21
2.5853638E+002
  0
LINE
  8
104
  6
CONTINUOUS
 62
40
 10
5.5401836E+001
 20
3.0312331E+002
 11
5.8642207E+001
 21
3.0636366E+002
  0
LINE
  8
104
  6
CONTINUOUS
 62
40
 10
5.6816051E+001
 20
3.0170909E+002
 11
6.0056422E+001
 21
3.0494946E+002
  0
LINE
  8
104
  6
CONTINUOUS
 62
40
 10
5.5401836E+001
 20
2.2312329E+002
 11
5.8642207E+001
 21
2.2636366E+002
  0
LINE
  8
104
  6
CONTINUOUS
 62
40
 10
5.6816051E+001
 20
2.2170909E+002
 11
6.0056422E+001
 21
2.2494946E+002
  0
CIRCLE
  8
104
  6
CONTINUOUS
 62
40
 10
5.7729129E+001
 20
2.2403638E+002
 40
2.5
  0
CIRCLE
  8
104
  6
CONTINUOUS
 62
40
 10
5.7729129E+001
 20
3.0403638E+002
 40
2.5
  0
LINE
  8
104
  6
CONTINUOUS
 62
40
 10
5.6810596E+001
 20
2.1703638E+002
 11
5.4729129E+001
 21
2.1703638E+002
  0
ARC
  8
104
  6
CONTINUOUS
 62
40
 10
5.4729125E+001
 20
2.1903638E+002
 40
2.0000004
 50
1.8000001E+002
 51
2.700001E+002
  0
LINE
  8
104
  6
CONTINUOUS
 62
40
 10
5.2729125E+001
 20
2.1903638E+002
 11
5.2729125E+001
 21
2.2846071E+002
  0
ARC
  8
104
  6
CONTINUOUS
 62
40
 10
5.0729112E+001
 20
2.2846069E+002
 40
2.0000132
 50
5.1023E-004
 51
6.6487397E+001
  0
LINE
  8
104
  6
CONTINUOUS
 62
40
 10
5.1527019E+001
 20
2.3029465E+002
 11
4.8559917E+001
 21
2.3158554E+002
  0
LINE
  8
104
  6
CONTINUOUS
 62
40
 10
5.6810596E+001
 20
3.1103638E+002
 11
5.4729129E+001
 21
3.1103638E+002
  0
ARC
  8
104
  6
CONTINUOUS
 62
40
 10
5.4729134E+001
 20
3.0903637E+002
 40
2.0000086
 50
9.0000131E+001
 51
1.7999975E+002
  0
LINE
  8
104
  6
CONTINUOUS
 62
40
 10
5.2729125E+001
 20
3.0903638E+002
 11
5.2729125E+001
 21
2.9961682E+002
  0
ARC
  8
104
  6
CONTINUOUS
 62
40
 10
5.0729122E+001
 20
2.9961681E+002
 40
2.0000027
 50
2.9354793E+002
 51
3.6000032E+002
  0
LINE
  8
104
  6
CONTINUOUS
 62
40
 10
5.1528155E+001
 20
2.9778336E+002
 11
4.7803096E+001
 21
2.9615997E+002
  0
LINE
  8
104
  6
CONTINUOUS
 62
40
 10
8.6729129E+001
 20
3.0903638E+002
 11
6.4729129E+001
 21
3.0903638E+002
  0
ARC
  8
104
  6
CONTINUOUS
 62
40
 10
6.2729117E+001
 20
3.0903638E+002
 40
2.0000116
 50
3.5999987E+002
 51
4.4999967E+002
  0
LINE
  8
104
  6
CONTINUOUS
 62
40
 10
6.2729129E+001
 20
3.1103639E+002
 11
4.5747302E+001
 21
3.1103639E+002
  0
LINE
  8
104
  6
CONTINUOUS
 62
40
 10
3.7729129E+001
 20
2.8660709E+002
 11
3.7729129E+001
 21
3.0146646E+002
  0
LINE
  8
104
  6
CONTINUOUS
 62
40
 10
3.7729129E+001
 20
2.4146567E+002
 11
3.7729129E+001
 21
2.2620323E+002
  0
LINE
  8
104
  6
CONTINUOUS
 62
40
 10
8.6729129E+001
 20
2.1903638E+002
 11
6.4729129E+001
 21
2.1903638E+002
  0
ARC
  8
104
  6
CONTINUOUS
 62
40
 10
6.2729126E+001
 20
2.1903637E+002
 40
2.0000034
 50
2.700001E+002
 51
3.600001E+002
  0
LINE
  8
104
  6
CONTINUOUS
 62
40
 10
6.2729129E+001
 20
2.1703637E+002
 11
4.5747302E+001
 21
2.1703637E+002
  0
LINE
  8
104
  6
CONTINUOUS
 62
40
 10
2.7365029E+002
 20
2.6237177E+002
 11
2.7839373E+002
 21
2.6711519E+002
  0
LINE
  8
104
  6
CONTINUOUS
 62
40
 10
2.750645E+002
 20
2.6095757E+002
 11
2.7980794E+002
 21
2.6570097E+002
  0
LINE
  8
104
  6
CONTINUOUS
 62
40
 10
2.8765029E+002
 20
2.6237177E+002
 11
2.9239373E+002
 21
2.6711519E+002
  0
LINE
  8
104
  6
CONTINUOUS
 62
40
 10
2.890645E+002
 20
2.6095757E+002
 11
2.9380794E+002
 21
2.6570097E+002
  0
LINE
  8
104
  6
CONTINUOUS
 62
40
 10
2.7572911E+002
 20
2.6068228E+002
 11
2.7572911E+002
 21
2.581203E+002
  0
LINE
  8
104
  6
CONTINUOUS
 62
40
 10
2.7772911E+002
 20
2.6068228E+002
 11
2.7772911E+002
 21
2.581203E+002
  0
LINE
  8
104
  6
CONTINUOUS
 62
40
 10
2.7572911E+002
 20
2.6739047E+002
 11
2.7572911E+002
 21
2.6995245E+002
  0
LINE
  8
104
  6
CONTINUOUS
 62
40
 10
2.7772911E+002
 20
2.6995245E+002
 11
2.7772911E+002
 21
2.6739047E+002
  0
LINE
  8
104
  6
CONTINUOUS
 62
40
 10
2.8972911E+002
 20
2.581203E+002
 11
2.8972911E+002
 21
2.6068228E+002
  0
LINE
  8
104
  6
CONTINUOUS
 62
40
 10
2.9172911E+002
 20
2.581203E+002
 11
2.9172911E+002
 21
2.6068228E+002
  0
LINE
  8
104
  6
CONTINUOUS
 62
40
 10
2.8972911E+002
 20
2.6739047E+002
 11
2.8972911E+002
 21
2.6995245E+002
  0
LINE
  8
104
  6
CONTINUOUS
 62
40
 10
2.9172911E+002
 20
2.6739047E+002
 11
2.9172911E+002
 21
2.6995245E+002
  0
CIRCLE
  8
104
  6
CONTINUOUS
 62
40
 10
2.7672911E+002
 20
2.6403638E+002
 40
6.0
  0
CIRCLE
  8
104
  6
CONTINUOUS
 62
40
 10
2.7672911E+002
 20
2.6403638E+002
 40
3.5
  0
CIRCLE
  8
104
  6
CONTINUOUS
 62
40
 10
2.9072911E+002
 20
2.6403638E+002
 40
6.0
  0
CIRCLE
  8
104
  6
CONTINUOUS
 62
40
 10
2.9072911E+002
 20
2.6403638E+002
 40
3.5
  0
LINE
  8
104
  6
CONTINUOUS
 62
40
 10
3.0118367E+002
 20
3.0403638E+002
 11
3.0618367E+002
 21
3.0403638E+002
  0
LINE
  8
104
  6
CONTINUOUS
 62
40
 10
3.0618367E+002
 20
3.0403638E+002
 11
3.0618367E+002
 21
2.6603638E+002
  0
LINE
  8
104
  6
CONTINUOUS
 62
40
 10
3.0618367E+002
 20
2.6603638E+002
 11
3.0118367E+002
 21
2.6603638E+002
  0
LINE
  8
104
  6
CONTINUOUS
 62
40
 10
3.0118367E+002
 20
2.6203638E+002
 11
3.0618367E+002
 21
2.6203638E+002
  0
LINE
  8
104
  6
CONTINUOUS
 62
40
 10
3.0618367E+002
 20
2.6203638E+002
 11
3.0618367E+002
 21
2.2403638E+002
  0
LINE
  8
104
  6
CONTINUOUS
 62
40
 10
3.0618367E+002
 20
2.2403638E+002
 11
3.0118367E+002
 21
2.2403638E+002
  0
ARC
  8
104
  6
CONTINUOUS
 62
40
 10
1.6222913E+002
 20
2.5953637E+002
 40
1.9999979
 50
1.7999994E+002
 51
2.7000006E+002
  0
LINE
  8
104
  6
CONTINUOUS
 62
40
 10
1.6022913E+002
 20
2.5953638E+002
 11
1.6022913E+002
 21
2.6853639E+002
  0
ARC
  8
104
  6
CONTINUOUS
 62
40
 10
1.6222914E+002
 20
2.6853639E+002
 40
2.0000105
 50
8.9999871E+001
 51
1.799999E+002
  0
LINE
  8
104
  6
CONTINUOUS
 62
40
 10
1.6222914E+002
 20
2.705364E+002
 11
2.5468367E+002
 21
2.705364E+002
  0
ARC
  8
104
  6
CONTINUOUS
 62
40
 10
2.5468367E+002
 20
2.685364E+002
 40
2.0000046
 50
3.5999993E+002
 51
4.4999987E+002
  0
LINE
  8
104
  6
CONTINUOUS
 62
40
 10
2.5668367E+002
 20
2.6853639E+002
 11
2.5668367E+002
 21
2.5953638E+002
  0
ARC
  8
104
  6
CONTINUOUS
 62
40
 10
2.5468367E+002
 20
2.5953637E+002
 40
1.9999995
 50
2.6999999E+002
 51
3.6000021E+002
  0
LINE
  8
104
  6
CONTINUOUS
 62
40
 10
2.5468367E+002
 20
2.5753637E+002
 11
1.6222913E+002
 21
2.5753638E+002
  0
ARC
  8
104
  6
CONTINUOUS
 62
40
 10
1.5972912E+002
 20
2.5703638E+002
 40
2.0000058
 50
1.8000017E+002
 51
2.7000026E+002
  0
LINE
  8
104
  6
CONTINUOUS
 62
40
 10
1.5772911E+002
 20
2.5703638E+002
 11
1.5772911E+002
 21
2.7103638E+002
  0
ARC
  8
104
  6
CONTINUOUS
 62
40
 10
1.5972913E+002
 20
2.7103638E+002
 40
2.0000139
 50
8.9999969E+001
 51
1.8000006E+002
  0
LINE
  8
104
  6
CONTINUOUS
 62
40
 10
1.5972913E+002
 20
2.7303639E+002
 11
2.5718367E+002
 21
2.7303639E+002
  0
ARC
  8
104
  6
CONTINUOUS
 62
40
 10
2.5718366E+002
 20
2.710364E+002
 40
1.9999976
 50
3.5999993E+002
 51
4.4999964E+002
  0
LINE
  8
104
  6
CONTINUOUS
 62
40
 10
2.5918366E+002
 20
2.7103639E+002
 11
2.5918366E+002
 21
2.5703638E+002
  0
ARC
  8
104
  6
CONTINUOUS
 62
40
 10
2.5718366E+002
 20
2.5703637E+002
 40
1.9999975
 50
2.7000036E+002
 51
3.6000027E+002
  0
LINE
  8
104
  6
CONTINUOUS
 62
40
 10
2.5718367E+002
 20
2.5503637E+002
 11
1.5972913E+002
 21
2.5503638E+002
  0
LINE
  8
104
  6
CONTINUOUS
 62
40
 10
3.0118367E+002
 20
2.3403638E+002
 11
3.0072911E+002
 21
2.3403638E+002
  0
ARC
  8
104
  6
CONTINUOUS
 62
40
 10
3.0072911E+002
 20
2.3203638E+002
 40
1.999994
 50
8.9999828E+001
 51
1.8000017E+002
  0
LINE
  8
104
  6
CONTINUOUS
 62
40
 10
2.9872911E+002
 20
2.3203638E+002
 11
2.9872911E+002
 21
2.2403638E+002
  0
ARC
  8
104
  6
CONTINUOUS
 62
40
 10
2.9672911E+002
 20
2.2403638E+002
 40
2.0000071
 50
2.700002E+002
 51
3.6E+002
  0
LINE
  8
104
  6
CONTINUOUS
 62
40
 10
2.9672911E+002
 20
2.2203637E+002
 11
2.8472911E+002
 21
2.2203637E+002
  0
ARC
  8
104
  6
CONTINUOUS
 62
40
 10
2.8472911E+002
 20
2.2403638E+002
 40
2.0000073
 50
1.8000001E+002
 51
2.7000025E+002
  0
LINE
  8
104
  6
CONTINUOUS
 62
40
 10
2.827291E+002
 20
2.2403638E+002
 11
2.827291E+002
 21
2.3203638E+002
  0
ARC
  8
104
  6
CONTINUOUS
 62
40
 10
2.807291E+002
 20
2.3203638E+002
 40
1.9999938
 50
2.31349E-005
 51
8.9999719E+001
  0
LINE
  8
104
  6
CONTINUOUS
 62
40
 10
2.8072911E+002
 20
2.3403637E+002
 11
1.5372913E+002
 21
2.3403637E+002
  0
ARC
  8
104
  6
CONTINUOUS
 62
40
 10
1.5372912E+002
 20
2.3203637E+002
 40
1.9999958
 50
8.999988E+001
 51
1.7999992E+002
  0
LINE
  8
104
  6
CONTINUOUS
 62
40
 10
1.5172913E+002
 20
2.3203638E+002
 11
1.5172913E+002
 21
2.2403638E+002
  0
ARC
  8
104
  6
CONTINUOUS
 62
40
 10
1.4972913E+002
 20
2.2403637E+002
 40
1.9999978
 50
2.7000037E+002
 51
3.6000026E+002
  0
LINE
  8
104
  6
CONTINUOUS
 62
40
 10
1.4972914E+002
 20
2.2203637E+002
 11
1.3363822E+002
 21
2.2203637E+002
  0
LINE
  8
104
  6
CONTINUOUS
 62
40
 10
3.0118367E+002
 20
2.9403638E+002
 11
3.0072911E+002
 21
2.9403638E+002
  0
ARC
  8
104
  6
CONTINUOUS
 62
40
 10
3.007291E+002
 20
2.9603636E+002
 40
1.9999859
 50
1.799996E+002
 51
2.700004E+002
  0
LINE
  8
104
  6
CONTINUOUS
 62
40
 10
2.9872911E+002
 20
2.9603638E+002
 11
2.9872911E+002
 21
3.0403638E+002
  0
ARC
  8
104
  6
CONTINUOUS
 62
40
 10
2.967291E+002
 20
3.0403638E+002
 40
2.0000096
 50
4.55658E-005
 51
8.9999725E+001
  0
LINE
  8
104
  6
CONTINUOUS
 62
40
 10
2.9672911E+002
 20
3.0603639E+002
 11
2.8472911E+002
 21
3.0603639E+002
  0
ARC
  8
104
  6
CONTINUOUS
 62
40
 10
2.8472911E+002
 20
3.0403638E+002
 40
2.0000098
 50
8.9999822E+001
 51
1.7999995E+002
  0
LINE
  8
104
  6
CONTINUOUS
 62
40
 10
2.827291E+002
 20
3.0403638E+002
 11
2.827291E+002
 21
2.9603638E+002
  0
ARC
  8
104
  6
CONTINUOUS
 62
40
 10
2.8072911E+002
 20
2.9603638E+002
 40
1.9999857
 50
2.7000005E+002
 51
3.5999995E+002
  0
LINE
  8
104
  6
CONTINUOUS
 62
40
 10
2.8072911E+002
 20
2.9403639E+002
 11
1.5372913E+002
 21
2.9403639E+002
  0
ARC
  8
104
  6
CONTINUOUS
 62
40
 10
1.5372912E+002
 20
2.9603639E+002
 40
1.9999957
 50
1.7999988E+002
 51
2.7000012E+002
  0
LINE
  8
104
  6
CONTINUOUS
 62
40
 10
1.5172913E+002
 20
2.9603639E+002
 11
1.5172913E+002
 21
3.0403638E+002
  0
ARC
  8
104
  6
CONTINUOUS
 62
40
 10
1.4972913E+002
 20
3.0403638E+002
 40
2.0000003
 50
3.5999978E+002
 51
4.4999956E+002
  0
LINE
  8
104
  6
CONTINUOUS
 62
40
 10
1.4972914E+002
 20
3.0603639E+002
 11
1.3418367E+002
 21
3.0603639E+002
  0
LINE
  8
104
  6
CONTINUOUS
 62
40
 10
1.0288462E+002
 20
3.0603638E+002
 11
2.9918367E+002
 21
3.0603638E+002
  0
ARC
  8
104
  6
CONTINUOUS
 62
40
 10
2.9918365E+002
 20
3.0403637E+002
 40
2.000003
 50
8.66803E-005
 51
8.9999484E+001
  0
LINE
  8
104
  6
CONTINUOUS
 62
40
 10
3.0118366E+002
 20
3.0403638E+002
 11
3.0118366E+002
 21
2.2403638E+002
  0
ARC
  8
104
  6
CONTINUOUS
 62
40
 10
2.9918366E+002
 20
2.2403637E+002
 40
2.0000005
 50
2.7000045E+002
 51
3.6000019E+002
  0
LINE
  8
104
  6
CONTINUOUS
 62
40
 10
2.9918367E+002
 20
2.2203637E+002
 11
1.0288462E+002
 21
2.2203637E+002
  0
LINE
  8
104
  6
CONTINUOUS
 62
40
 10
6.7684199E+001
 20
2.2326518E+002
 11
4.503548E+001
 21
2.3311891E+002
  0
ARC
  8
104
  6
CONTINUOUS
 62
40
 10
5.0229129E+001
 20
2.4503638E+002
 40
1.2999999E+001
 50
1.9594235E+002
 51
2.4645235E+002
  0
LINE
  8
104
  6
CONTINUOUS
 62
40
 10
3.7729129E+001
 20
2.4146567E+002
 11
3.7729129E+001
 21
2.8660709E+002
  0
ARC
  8
104
  6
CONTINUOUS
 62
40
 10
5.0229129E+001
 20
2.8303638E+002
 40
1.2999999E+001
 50
1.1354764E+002
 51
1.6405765E+002
  0
LINE
  8
104
  6
CONTINUOUS
 62
40
 10
4.503548E+001
 20
2.9495384E+002
 11
6.8751117E+001
 21
3.0528915E+002
  0
LINE
  8
106
  6
CENTERLINE
 62
1
 10
2.6729129E+001
 20
2.6403638E+002
 11
3.1472914E+002
 21
2.6403638E+002
  0
LINE
  8
106
  6
CENTERLINE
 62
1
 10
8.6729129E+001
 20
2.1167274E+002
 11
8.6729129E+001
 21
3.1694548E+002
  0
CIRCLE
  8
104
  6
CONTINUOUS
 62
40
 10
8.6729129E+001
 20
2.3653638E+002
 40
2.5
  0
CIRCLE
  8
104
  6
CONTINUOUS
 62
40
 10
5.9229129E+001
 20
2.6403638E+002
 40
2.5
  0
CIRCLE
  8
104
  6
CONTINUOUS
 62
40
 10
8.6729129E+001
 20
2.9153638E+002
 40
2.5
  0
CIRCLE
  8
104
  6
CONTINUOUS
 62
40
 10
1.1422913E+002
 20
2.6403638E+002
 40
2.5
  0
CIRCLE
  8
104
  6
CONTINUOUS
 62
40
 10
8.6729129E+001
 20
2.6403638E+002
 40
4.5E+001
  0
CIRCLE
  8
104
  6
CONTINUOUS
 62
40
 10
3.182473E+002
 20
2.6403638E+002
 40
5.0
  0
LINE
  8
104
  6
CONTINUOUS
 62
40
 10
3.1413497E+002
 20
2.6119232E+002
 11
3.2100429E+002
 21
2.6820758E+002
  0
LINE
  8
104
  6
CONTINUOUS
 62
40
 10
3.1549031E+002
 20
2.5986517E+002
 11
3.2241851E+002
 21
2.6679337E+002
  0
LINE
  8
99
  6
CONTINUOUS
 62
1
 10
7.7331889E+001
 20
3.8662717E+002
 11
7.8065593E+001
 21
4.0062714E+002
  0
LINE
  8
99
  6
CONTINUOUS
 62
1
 10
9.6126376E+001
 20
3.8662717E+002
 11
9.5392673E+001
 21
4.0062714E+002
  0
LINE
  8
104
  6
CONTINUOUS
 62
40
 10
6.6229137E+001
 20
3.8082715E+002
 11
6.6229137E+001
 21
3.8182715E+002
  0
ARC
  8
104
  6
CONTINUOUS
 62
40
 10
6.8229129E+001
 20
3.8182714E+002
 40
1.9999915
 50
8.9999757E+001
 51
1.7999981E+002
  0
LINE
  8
104
  6
CONTINUOUS
 62
40
 10
6.8229137E+001
 20
3.8382714E+002
 11
1.0522913E+002
 21
3.8382714E+002
  0
ARC
  8
104
  6
CONTINUOUS
 62
40
 10
1.0522914E+002
 20
3.8182713E+002
 40
2.0000077
 50
6.496272E-004
 51
9.000021E+001
  0
LINE
  8
104
  6
CONTINUOUS
 62
40
 10
1.0722914E+002
 20
3.8182715E+002
 11
1.0722914E+002
 21
3.8082715E+002
  0
LINE
  8
104
  6
CONTINUOUS
 62
40
 10
7.4383952E+001
 20
3.8382715E+002
 11
7.4383952E+001
 21
3.8662714E+002
  0
LINE
  8
104
  6
CONTINUOUS
 62
40
 10
7.4383952E+001
 20
3.8662714E+002
 11
7.5329143E+001
 21
3.8662714E+002
  0
LINE
  8
104
  6
CONTINUOUS
 62
40
 10
7.5329143E+001
 20
3.8662714E+002
 11
7.6062846E+001
 21
4.0062714E+002
  0
LINE
  8
104
  6
CONTINUOUS
 62
40
 10
7.6062846E+001
 20
4.0062714E+002
 11
9.7395419E+001
 21
4.0062714E+002
  0
LINE
  8
104
  6
CONTINUOUS
 62
40
 10
9.7395419E+001
 20
4.0062714E+002
 11
9.8129123E+001
 21
3.8662717E+002
  0
LINE
  8
104
  6
CONTINUOUS
 62
40
 10
9.8129123E+001
 20
3.8662717E+002
 11
9.9126819E+001
 21
3.8662717E+002
  0
LINE
  8
104
  6
CONTINUOUS
 62
40
 10
9.9126819E+001
 20
3.8662717E+002
 11
9.9126819E+001
 21
3.8382715E+002
  0
LINE
  8
104
  6
CONTINUOUS
 62
40
 10
7.5329143E+001
 20
3.8662717E+002
 11
9.8129123E+001
 21
3.8662717E+002
  0
LINE
  8
104
  6
CONTINUOUS
 62
40
 10
3.2285637E+002
 20
2.8512331E+002
 11
3.2609676E+002
 21
2.8836366E+002
  0
LINE
  8
104
  6
CONTINUOUS
 62
40
 10
3.2427059E+002
 20
2.8370909E+002
 11
3.2751097E+002
 21
2.8694945E+002
  0
LINE
  8
104
  6
CONTINUOUS
 62
40
 10
3.2285637E+002
 20
2.4112331E+002
 11
3.2609676E+002
 21
2.4436366E+002
  0
LINE
  8
104
  6
CONTINUOUS
 62
40
 10
3.2427059E+002
 20
2.3970909E+002
 11
3.2751097E+002
 21
2.4294945E+002
  0
CIRCLE
  8
104
  6
CONTINUOUS
 62
40
 10
3.2518367E+002
 20
2.4203638E+002
 40
2.5
  0
CIRCLE
  8
104
  6
CONTINUOUS
 62
40
 10
3.2518367E+002
 20
2.8603638E+002
 40
2.5
  0
LINE
  8
104
  6
CONTINUOUS
 62
40
 10
3.2818367E+002
 20
2.2803638E+002
 11
3.3018367E+002
 21
2.2803638E+002
  0
LINE
  8
104
  6
CONTINUOUS
 62
40
 10
3.3018367E+002
 20
2.2803638E+002
 11
3.3018367E+002
 21
2.6103638E+002
  0
LINE
  8
104
  6
CONTINUOUS
 62
40
 10
3.3018367E+002
 20
2.6103638E+002
 11
3.222473E+002
 21
2.6103638E+002
  0
LINE
  8
104
  6
CONTINUOUS
 62
40
 10
3.3018367E+002
 20
2.6703638E+002
 11
3.3018367E+002
 21
3.0003638E+002
  0
LINE
  8
104
  6
CONTINUOUS
 62
40
 10
3.3018367E+002
 20
3.0003638E+002
 11
3.2818367E+002
 21
3.0003638E+002
  0
LINE
  8
104
  6
CONTINUOUS
 62
40
 10
3.3018367E+002
 20
2.6703638E+002
 11
3.222473E+002
 21
2.6703638E+002
  0
CIRCLE
  8
104
  6
CONTINUOUS
 62
40
 10
3.2018367E+002
 20
2.3603638E+002
 40
2.5
  0
CIRCLE
  8
104
  6
CONTINUOUS
 62
40
 10
3.2018367E+002
 20
2.9203638E+002
 40
2.5
  0
LINE
  8
104
  6
CONTINUOUS
 62
40
 10
3.0618367E+002
 20
2.2803638E+002
 11
3.2818367E+002
 21
2.2803638E+002
  0
LINE
  8
104
  6
CONTINUOUS
 62
40
 10
3.2818367E+002
 20
2.2803638E+002
 11
3.2818367E+002
 21
2.3503636E+002
  0
LINE
  8
104
  6
CONTINUOUS
 62
40
 10
3.2818367E+002
 20
2.3503636E+002
 11
3.2018364E+002
 21
2.4303638E+002
  0
LINE
  8
104
  6
CONTINUOUS
 62
40
 10
3.2018364E+002
 20
2.4303638E+002
 11
3.0618367E+002
 21
2.4303638E+002
  0
LINE
  8
104
  6
CONTINUOUS
 62
40
 10
3.0618367E+002
 20
3.0003638E+002
 11
3.2818367E+002
 21
3.0003638E+002
  0
LINE
  8
104
  6
CONTINUOUS
 62
40
 10
3.2818367E+002
 20
3.0003638E+002
 11
3.2818367E+002
 21
2.9303638E+002
  0
LINE
  8
104
  6
CONTINUOUS
 62
40
 10
3.2818367E+002
 20
2.9303638E+002
 11
3.2018367E+002
 21
2.8503638E+002
  0
LINE
  8
104
  6
CONTINUOUS
 62
40
 10
3.2018367E+002
 20
2.8503638E+002
 11
3.0618367E+002
 21
2.8503638E+002
  0
LINE
  8
104
  6
CONTINUOUS
 62
40
 10
3.0918367E+002
 20
2.8503638E+002
 11
3.0918367E+002
 21
2.4303638E+002
  0
LINE
  8
104
  6
CONTINUOUS
 62
40
 10
3.0618367E+002
 20
2.6203638E+002
 11
3.0618367E+002
 21
2.6603638E+002
  0
LINE
  8
104
  6
CONTINUOUS
 62
40
 10
3.9500266E+002
 20
1.0012047E+002
 11
3.9700266E+002
 21
1.0012047E+002
  0
LINE
  8
104
  6
CONTINUOUS
 62
40
 10
3.9500266E+002
 20
6.9620468E+001
 11
3.9700266E+002
 21
6.9620468E+001
  0
LINE
  8
99
  6
CONTINUOUS
 62
1
 10
3.9177146E+002
 20
8.4870468E+001
 11
4.019661E+002
 21
8.4870468E+001
  0
LINE
  8
104
  6
CONTINUOUS
 62
40
 10
3.9500266E+002
 20
2.5255661E+001
 11
3.9500266E+002
 21
1.4448528E+002
  0
LINE
  8
104
  6
CONTINUOUS
 62
40
 10
3.9500266E+002
 20
1.4448528E+002
 11
3.9314572E+002
 21
1.4912767E+002
  0
LINE
  8
104
  6
CONTINUOUS
 62
40
 10
3.9314572E+002
 20
1.4912767E+002
 11
3.9500266E+002
 21
1.4987047E+002
  0
LINE
  8
104
  6
CONTINUOUS
 62
40
 10
3.9500266E+002
 20
1.4987047E+002
 11
3.9700266E+002
 21
1.4487047E+002
  0
LINE
  8
104
  6
CONTINUOUS
 62
40
 10
3.9700266E+002
 20
1.4487047E+002
 11
3.9700266E+002
 21
2.4870468E+001
  0
LINE
  8
104
  6
CONTINUOUS
 62
40
 10
3.9700266E+002
 20
2.4870468E+001
 11
3.9500266E+002
 21
1.9870468E+001
  0
LINE
  8
104
  6
CONTINUOUS
 62
40
 10
3.9500266E+002
 20
1.9870468E+001
 11
3.9314572E+002
 21
2.0613266E+001
  0
LINE
  8
104
  6
CONTINUOUS
 62
40
 10
3.9314572E+002
 20
2.0613266E+001
 11
3.9500266E+002
 21
2.5255661E+001
  0
LINE
  8
99
  6
CONTINUOUS
 62
1
 10
2.640994E+002
 20
1.0158174E+002
 11
2.640994E+002
 21
1.0309001E+002
  0
LINE
  8
99
  6
CONTINUOUS
 62
1
 10
2.640994E+002
 20
1.0309001E+002
 11
2.611641E+002
 21
1.0256169E+002
  0
LINE
  8
99
  6
CONTINUOUS
 62
1
 10
2.611641E+002
 20
1.0256169E+002
 11
2.611641E+002
 21
1.0211006E+002
  0
LINE
  8
99
  6
CONTINUOUS
 62
1
 10
2.611641E+002
 20
1.0211006E+002
 11
2.640994E+002
 21
1.0158174E+002
  0
LINE
  8
99
  6
CONTINUOUS
 62
1
 10
2.668089E+002
 20
9.8384537E+001
 11
2.5913196E+002
 21
1.0019084E+002
  0
LINE
  8
99
  6
CONTINUOUS
 62
1
 10
2.5913196E+002
 20
1.0019084E+002
 11
2.5913196E+002
 21
1.0448088E+002
  0
LINE
  8
99
  6
CONTINUOUS
 62
1
 10
2.5913196E+002
 20
1.0448088E+002
 11
2.668089E+002
 21
1.0628722E+002
  0
LINE
  8
99
  6
CONTINUOUS
 62
1
 10
2.668089E+002
 20
1.0628722E+002
 11
2.668089E+002
 21
1.0357774E+002
  0
LINE
  8
99
  6
CONTINUOUS
 62
1
 10
2.668089E+002
 20
1.0357774E+002
 11
2.6545417E+002
 21
1.0333385E+002
  0
LINE
  8
99
  6
CONTINUOUS
 62
1
 10
2.6545417E+002
 20
1.0333385E+002
 11
2.6545417E+002
 21
1.0133785E+002
  0
LINE
  8
99
  6
CONTINUOUS
 62
1
 10
2.6545417E+002
 20
1.0133785E+002
 11
2.668089E+002
 21
1.0109401E+002
  0
LINE
  8
99
  6
CONTINUOUS
 62
1
 10
2.668089E+002
 20
1.0109401E+002
 11
2.668089E+002
 21
9.8384537E+001
  0
LINE
  8
99
  6
CONTINUOUS
 62
1
 10
2.668089E+002
 20
9.0707565E+001
 11
2.668089E+002
 21
8.8449661E+001
  0
LINE
  8
99
  6
CONTINUOUS
 62
1
 10
2.668089E+002
 20
8.8449661E+001
 11
2.5913196E+002
 21
8.8449661E+001
  0
LINE
  8
99
  6
CONTINUOUS
 62
1
 10
2.5913196E+002
 20
8.8449661E+001
 11
2.5913196E+002
 21
9.2062302E+001
  0
LINE
  8
99
  6
CONTINUOUS
 62
1
 10
2.5913196E+002
 20
9.2062302E+001
 11
2.636478E+002
 21
9.3055832E+001
  0
LINE
  8
99
  6
CONTINUOUS
 62
1
 10
2.636478E+002
 20
9.3055832E+001
 11
2.636478E+002
 21
9.3191269E+001
  0
LINE
  8
99
  6
CONTINUOUS
 62
1
 10
2.636478E+002
 20
9.3191269E+001
 11
2.636478E+002
 21
9.3326767E+001
  0
LINE
  8
99
  6
CONTINUOUS
 62
1
 10
2.636478E+002
 20
9.3326767E+001
 11
2.5913196E+002
 21
9.4320267E+001
  0
LINE
  8
99
  6
CONTINUOUS
 62
1
 10
2.5913196E+002
 20
9.4320267E+001
 11
2.5913196E+002
 21
9.7932907E+001
  0
LINE
  8
99
  6
CONTINUOUS
 62
1
 10
2.5913196E+002
 20
9.7932907E+001
 11
2.668089E+002
 21
9.7932907E+001
  0
LINE
  8
99
  6
CONTINUOUS
 62
1
 10
2.668089E+002
 20
9.7932907E+001
 11
2.668089E+002
 21
9.5675003E+001
  0
LINE
  8
99
  6
CONTINUOUS
 62
1
 10
2.668089E+002
 20
9.5675003E+001
 11
2.611641E+002
 21
9.5675003E+001
  0
LINE
  8
99
  6
CONTINUOUS
 62
1
 10
2.611641E+002
 20
9.5675003E+001
 11
2.611641E+002
 21
9.5449234E+001
  0
LINE
  8
99
  6
CONTINUOUS
 62
1
 10
2.611641E+002
 20
9.5449234E+001
 11
2.668089E+002
 21
9.4207321E+001
  0
LINE
  8
99
  6
CONTINUOUS
 62
1
 10
2.668089E+002
 20
9.4207321E+001
 11
2.668089E+002
 21
9.2175217E+001
  0
LINE
  8
99
  6
CONTINUOUS
 62
1
 10
2.668089E+002
 20
9.2175217E+001
 11
2.611641E+002
 21
9.0933365E+001
  0
LINE
  8
99
  6
CONTINUOUS
 62
1
 10
2.611641E+002
 20
9.0933365E+001
 11
2.611641E+002
 21
9.0707565E+001
  0
LINE
  8
99
  6
CONTINUOUS
 62
1
 10
2.611641E+002
 20
9.0707565E+001
 11
2.668089E+002
 21
9.0707565E+001
  0
ARC
  8
99
  6
CONTINUOUS
 62
1
 10
2.6146892E+002
 20
8.4069247E+001
 40
7.6771276E-001
 50
3.2133138E-003
 51
8.9999048E+001
  0
LINE
  8
99
  6
CONTINUOUS
 62
1
 10
2.6223664E+002
 20
8.406929E+001
 11
2.6223664E+002
 21
8.3030685E+001
  0
LINE
  8
99
  6
CONTINUOUS
 62
1
 10
2.6223664E+002
 20
8.3030685E+001
 11
2.6054316E+002
 21
8.3030685E+001
  0
LINE
  8
99
  6
CONTINUOUS
 62
1
 10
2.6054316E+002
 20
8.3030685E+001
 11
2.6054316E+002
 21
8.406929E+001
  0
ARC
  8
99
  6
CONTINUOUS
 62
1
 10
2.6131085E+002
 20
8.4069283E+001
 40
7.6769175E-001
 50
8.9999384E+001
 51
1.7999949E+002
  0
LINE
  8
99
  6
CONTINUOUS
 62
1
 10
2.6131086E+002
 20
8.4836975E+001
 11
2.6146894E+002
 21
8.483696E+001
  0
LINE
  8
99
  6
CONTINUOUS
 62
1
 10
2.668089E+002
 20
8.077272E+001
 11
2.5913196E+002
 21
8.077272E+001
  0
LINE
  8
99
  6
CONTINUOUS
 62
1
 10
2.5913196E+002
 20
8.077272E+001
 11
2.5913196E+002
 21
8.528859E+001
  0
ARC
  8
99
  6
CONTINUOUS
 62
1
 10
2.6138988E+002
 20
8.5288574E+001
 40
2.2579195
 50
8.9999607E+001
 51
1.7999961E+002
  0
ARC
  8
99
  6
CONTINUOUS
 62
1
 10
2.6139206E+002
 20
8.5067116E+001
 40
2.4793789
 50
7.2242185E+001
 51
9.0049907E+001
  0
ARC
  8
99
  6
CONTINUOUS
 62
1
 10
2.6142754E+002
 20
8.5172978E+001
 40
2.367739
 50
5.3915053E+001
 51
7.2278551E+001
  0
ARC
  8
99
  6
CONTINUOUS
 62
1
 10
2.6150655E+002
 20
8.5281099E+001
 40
2.2338227
 50
3.4829302E+001
 51
5.3919543E+001
  0
ARC
  8
99
  6
CONTINUOUS
 62
1
 10
2.6158885E+002
 20
8.5340014E+001
 40
2.1326207
 50
1.5103747E+001
 51
3.4792804E+001
  0
LINE
  8
99
  6
CONTINUOUS
 62
1
 10
2.636478E+002
 20
8.5895706E+001
 11
2.668089E+002
 21
8.7546493E+001
  0
LINE
  8
99
  6
CONTINUOUS
 62
1
 10
2.668089E+002
 20
8.7546493E+001
 11
2.668089E+002
 21
8.506279E+001
  0
LINE
  8
99
  6
CONTINUOUS
 62
1
 10
2.668089E+002
 20
8.506279E+001
 11
2.636478E+002
 21
8.3798355E+001
  0
LINE
  8
99
  6
CONTINUOUS
 62
1
 10
2.636478E+002
 20
8.3798355E+001
 11
2.636478E+002
 21
8.3030685E+001
  0
LINE
  8
99
  6
CONTINUOUS
 62
1
 10
2.636478E+002
 20
8.3030685E+001
 11
2.668089E+002
 21
8.3030685E+001
  0
LINE
  8
99
  6
CONTINUOUS
 62
1
 10
2.668089E+002
 20
8.3030685E+001
 11
2.668089E+002
 21
8.077272E+001
  0
ARC
  8
99
  6
CONTINUOUS
 62
1
 10
2.6446069E+002
 20
7.656173E+001
 40
7.6766186E-001
 50
3.5999941E+002
 51
4.5000404E+002
  0
LINE
  8
99
  6
CONTINUOUS
 62
1
 10
2.6522835E+002
 20
7.6561722E+001
 11
2.6522835E+002
 21
7.6403671E+001
  0
ARC
  8
99
  6
CONTINUOUS
 62
1
 10
2.6446064E+002
 20
7.6403668E+001
 40
7.6771192E-001
 50
2.699997E+002
 51
3.6000027E+002
  0
LINE
  8
99
  6
CONTINUOUS
 62
1
 10
2.6446064E+002
 20
7.5635956E+001
 11
2.614802E+002
 21
7.5635956E+001
  0
ARC
  8
99
  6
CONTINUOUS
 62
1
 10
2.6148018E+002
 20
7.6403669E+001
 40
7.6771318E-001
 50
1.7999983E+002
 51
2.7000133E+002
  0
LINE
  8
99
  6
CONTINUOUS
 62
1
 10
2.6071247E+002
 20
7.6403671E+001
 11
2.6071247E+002
 21
7.6561722E+001
  0
ARC
  8
99
  6
CONTINUOUS
 62
1
 10
2.6148013E+002
 20
7.6561652E+001
 40
7.6766312E-001
 50
8.9994933E+001
 51
1.799948E+002
  0
LINE
  8
99
  6
CONTINUOUS
 62
1
 10
2.614802E+002
 20
7.7329315E+001
 11
2.6446064E+002
 21
7.7329392E+001
  0
ARC
  8
99
  6
CONTINUOUS
 62
1
 10
2.6409941E+002
 20
7.7160106E+001
 40
2.7094468
 50
3.5999945E+002
 51
4.5000022E+002
  0
LINE
  8
99
  6
CONTINUOUS
 62
1
 10
2.6680886E+002
 20
7.716008E+001
 11
2.6680886E+002
 21
7.5805344E+001
  0
ARC
  8
99
  6
CONTINUOUS
 62
1
 10
2.6409931E+002
 20
7.5805296E+001
 40
2.7095469
 50
2.700019E+002
 51
3.6000101E+002
  0
LINE
  8
99
  6
CONTINUOUS
 62
1
 10
2.640994E+002
 20
7.3095749E+001
 11
2.618415E+002
 21
7.3095749E+001
  0
ARC
  8
99
  6
CONTINUOUS
 62
1
 10
2.6184152E+002
 20
7.5805306E+001
 40
2.7095573
 50
1.7999921E+002
 51
2.6999951E+002
  0
LINE
  8
99
  6
CONTINUOUS
 62
1
 10
2.5913196E+002
 20
7.5805344E+001
 11
2.5913196E+002
 21
7.716008E+001
  0
ARC
  8
99
  6
CONTINUOUS
 62
1
 10
2.6184145E+002
 20
7.7160045E+001
 40
2.709492
 50
8.9999111E+001
 51
1.7999927E+002
  0
LINE
  8
99
  6
CONTINUOUS
 62
1
 10
2.618415E+002
 20
7.9869537E+001
 11
2.640994E+002
 21
7.9869553E+001
  0
ARC
  8
99
  6
CONTINUOUS
 62
1
 10
2.6432518E+002
 20
6.9708937E+001
 40
2.4837052
 50
3.71454E-005
 51
9.0000318E+001
  0
LINE
  8
99
  6
CONTINUOUS
 62
1
 10
2.6680889E+002
 20
6.9708939E+001
 11
2.6680889E+002
 21
6.5644699E+001
  0
LINE
  8
99
  6
CONTINUOUS
 62
1
 10
2.6680889E+002
 20
6.5644699E+001
 11
2.5913196E+002
 21
6.5644699E+001
  0
LINE
  8
99
  6
CONTINUOUS
 62
1
 10
2.5913196E+002
 20
6.5644699E+001
 11
2.5913196E+002
 21
6.9708939E+001
  0
ARC
  8
99
  6
CONTINUOUS
 62
1
 10
2.6161565E+002
 20
6.9708927E+001
 40
2.483685
 50
8.9999563E+001
 51
1.7999972E+002
  0
LINE
  8
99
  6
CONTINUOUS
 62
1
 10
2.6161566E+002
 20
7.2192612E+001
 11
2.6432517E+002
 21
7.2192642E+001
  0
ARC
  8
99
  6
CONTINUOUS
 62
1
 10
2.6477678E+002
 20
6.9257367E+001
 40
4.5157155E-001
 50
3.599965E+002
 51
4.5000158E+002
  0
LINE
  8
99
  6
CONTINUOUS
 62
1
 10
2.6522835E+002
 20
6.925734E+001
 11
2.6522835E+002
 21
6.8128372E+001
  0
LINE
  8
99
  6
CONTINUOUS
 62
1
 10
2.6522835E+002
 20
6.8128372E+001
 11
2.607125E+002
 21
6.8128372E+001
  0
LINE
  8
99
  6
CONTINUOUS
 62
1
 10
2.607125E+002
 20
6.8128372E+001
 11
2.607125E+002
 21
6.925734E+001
  0
ARC
  8
99
  6
CONTINUOUS
 62
1
 10
2.6116409E+002
 20
6.9257304E+001
 40
4.5158831E-001
 50
8.9998643E+001
 51
1.7999556E+002
  0
LINE
  8
99
  6
CONTINUOUS
 62
1
 10
2.611641E+002
 20
6.9708893E+001
 11
2.6477677E+002
 21
6.9708939E+001
  0
ARC
  8
99
  6
CONTINUOUS
 62
1
 10
2.1535595E+002
 20
8.4870451E+001
 40
3.6864011E+001
 50
3.2080506E+002
 51
3.5231285E+002
  0
LINE
  8
99
  6
CONTINUOUS
 62
1
 10
2.4392557E+002
 20
6.1573837E+001
 11
2.5774958E+002
 21
6.5516861E+001
  0
LINE
  8
99
  6
CONTINUOUS
 62
1
 10
2.5774958E+002
 20
6.5516861E+001
 11
2.5774958E+002
 21
6.8414017E+001
  0
LINE
  8
99
  6
CONTINUOUS
 62
1
 10
2.5774958E+002
 20
6.8414017E+001
 11
2.5097394E+002
 21
6.6471146E+001
  0
ARC
  8
99
  6
CONTINUOUS
 62
1
 10
2.1535595E+002
 20
8.4870431E+001
 40
4.0089589E+001
 50
3.3268036E+002
 51
3.504333E+002
  0
ARC
  8
99
  6
CONTINUOUS
 62
1
 10
2.1535603E+002
 20
8.4870982E+001
 40
4.0089602E+001
 50
3.5043251E+002
 51
3.5471276E+002
  0
LINE
  8
99
  6
CONTINUOUS
 62
1
 10
2.5527506E+002
 20
8.1176773E+001
 11
2.4887738E+002
 21
8.4870468E+001
  0
LINE
  8
99
  6
CONTINUOUS
 62
1
 10
2.4887738E+002
 20
8.4870468E+001
 11
2.5527506E+002
 21
8.8564163E+001
  0
ARC
  8
99
  6
CONTINUOUS
 62
1
 10
2.1535596E+002
 20
8.4870468E+001
 40
4.0089622E+001
 50
5.2864981
 51
2.7319681E+001
  0
LINE
  8
99
  6
CONTINUOUS
 62
1
 10
2.5097397E+002
 20
1.0326979E+002
 11
2.5774958E+002
 21
1.0132692E+002
  0
LINE
  8
99
  6
CONTINUOUS
 62
1
 10
2.5774958E+002
 20
1.0132692E+002
 11
2.5774958E+002
 21
1.0422408E+002
  0
LINE
  8
99
  6
CONTINUOUS
 62
1
 10
2.5774958E+002
 20
1.0422408E+002
 11
2.4392557E+002
 21
1.081671E+002
  0
ARC
  8
99
  6
CONTINUOUS
 62
1
 10
2.1535595E+002
 20
8.4870485E+001
 40
3.6864011E+001
 50
7.6871486
 51
3.9194943E+001
  0
LINE
  8
99
  6
CONTINUOUS
 62
1
 10
2.5188868E+002
 20
8.9801559E+001
 11
2.4334778E+002
 21
8.4870468E+001
  0
LINE
  8
99
  6
CONTINUOUS
 62
1
 10
2.4334778E+002
 20
8.4870468E+001
 11
2.5188868E+002
 21
7.9939377E+001
  0
LINE
  8
MED-1
  6
HIDDEN
 62
40
 10
2.5251151E+002
 20
6.6912064E+001
 11
2.5612158E+002
 21
6.794722E+001
  0
LINE
  8
99
  6
CONTINUOUS
 62
1
 10
3.1180237E+002
 20
5.5870468E+001
 11
3.278653E+002
 21
5.5870468E+001
  0
LINE
  8
99
  6
CONTINUOUS
 62
1
 10
3.1972913E+002
 20
4.6896256E+001
 11
3.1972913E+002
 21
6.4288528E+001
  0
CIRCLE
  8
104
  6
CONTINUOUS
 62
40
 10
3.1972913E+002
 20
5.5870468E+001
 40
2.5
  0
CIRCLE
  8
104
  6
CONTINUOUS
 62
40
 10
1.5172913E+002
 20
8.4870468E+001
 40
4.599976
  0
CIRCLE
  8
104
  6
CONTINUOUS
 62
40
 10
1.5172913E+002
 20
8.4870468E+001
 40
2.5
  0
LINE
  8
99
  6
CONTINUOUS
 62
1
 10
1.4380234E+002
 20
8.4870468E+001
 11
1.598653E+002
 21
8.4870468E+001
  0
LINE
  8
99
  6
CONTINUOUS
 62
1
 10
1.5172913E+002
 20
7.5896255E+001
 11
1.5172913E+002
 21
9.3288528E+001
  0
LINE
  8
106
  6
CENTERLINE
 62
1
 10
1.2354129E+001
 20
8.4870468E+001
 11
1.1754163E+002
 21
8.4870468E+001
  0
LINE
  8
106
  6
CENTERLINE
 62
1
 10
8.6729129E+001
 20
5.5870468E+001
 11
8.6729129E+001
 21
1.1387047E+002
  0
CIRCLE
  8
104
  6
CONTINUOUS
 62
40
 10
3.1972913E+002
 20
5.5870468E+001
 40
4.599976
  0
CIRCLE
  8
104
  6
CONTINUOUS
 62
40
 10
3.1972913E+002
 20
1.1387047E+002
 40
4.599976
  0
CIRCLE
  8
104
  6
CONTINUOUS
 62
40
 10
3.1972913E+002
 20
1.1387047E+002
 40
2.5
  0
LINE
  8
99
  6
CONTINUOUS
 62
1
 10
3.1180237E+002
 20
1.1387047E+002
 11
3.278653E+002
 21
1.1387047E+002
  0
LINE
  8
99
  6
CONTINUOUS
 62
1
 10
3.1972913E+002
 20
1.0489626E+002
 11
3.1972913E+002
 21
1.2228853E+002
  0
LINE
  8
99
  6
CONTINUOUS
 62
1
 10
2.4729129E+001
 20
1.4487047E+002
 11
3.4372913E+002
 21
1.4487047E+002
  0
LINE
  8
99
  6
CONTINUOUS
 62
1
 10
3.4372913E+002
 20
1.4487047E+002
 11
3.4372913E+002
 21
2.4870468E+001
  0
LINE
  8
99
  6
CONTINUOUS
 62
1
 10
3.4372913E+002
 20
2.4870468E+001
 11
2.4729129E+001
 21
2.4870468E+001
  0
LINE
  8
99
  6
CONTINUOUS
 62
1
 10
3.4372913E+002
 20
2.4870468E+001
 11
3.4872913E+002
 21
1.9870468E+001
  0
LINE
  8
99
  6
CONTINUOUS
 62
1
 10
3.4372913E+002
 20
1.4487047E+002
 11
3.4872913E+002
 21
1.4987047E+002
  0
LINE
  8
104
  6
CONTINUOUS
 62
40
 10
2.4729129E+001
 20
1.4987047E+002
 11
3.4872913E+002
 21
1.4987047E+002
  0
LINE
  8
104
  6
CONTINUOUS
 62
40
 10
3.4872913E+002
 20
1.4987047E+002
 11
3.4872913E+002
 21
1.9870468E+001
  0
LINE
  8
104
  6
CONTINUOUS
 62
40
 10
3.4872913E+002
 20
1.9870468E+001
 11
2.4729129E+001
 21
1.9870468E+001
  0
LINE
  8
104
  6
CONTINUOUS
 62
40
 10
2.4729129E+001
 20
1.9870468E+001
 11
2.4729129E+001
 21
6.9620468E+001
  0
LINE
  8
104
  6
CONTINUOUS
 62
40
 10
2.4729129E+001
 20
6.9620468E+001
 11
7.2002353E+001
 21
6.9620468E+001
  0
LINE
  8
104
  6
CONTINUOUS
 62
40
 10
7.2002353E+001
 20
1.0012047E+002
 11
2.4729129E+001
 21
1.0012047E+002
  0
LINE
  8
104
  6
CONTINUOUS
 62
40
 10
2.4729129E+001
 20
1.0012047E+002
 11
2.4729129E+001
 21
1.4987047E+002
  0
LINE
  8
104
  6
CONTINUOUS
 62
40
 10
2.4729129E+001
 20
6.9620468E+001
 11
2.4729129E+001
 21
1.0012047E+002
  0
CIRCLE
  8
104
  6
CONTINUOUS
 62
40
 10
8.6729129E+001
 20
8.4870468E+001
 40
2.1200012E+001
  0
TEXT
  8
103
  6
CONTINUOUS
 62
40
 10
2.8773949E+001
 20
4.0944302E+002
 40
5.0
  1
M 1:1
 41
6.3E-001
 72
1
 11
2.0898949E+001
 21
4.0694302E+002
 73
2
  0
LINE
  8
98
  6
CONTINUOUS
 62
1
 10
5.0
 20
5.0
 11
5.89E+002
 21
5.0
  0
LINE
  8
98
  6
CONTINUOUS
 62
1
 10
5.89E+002
 20
5.0
 11
5.89E+002
 21
4.15E+002
  0
LINE
  8
98
  6
CONTINUOUS
 62
1
 10
5.89E+002
 20
4.15E+002
 11
5.0
 21
4.15E+002
  0
LINE
  8
98
  6
CONTINUOUS
 62
1
 10
5.0
 20
4.15E+002
 11
5.0
 21
5.0
  0
ENDSEC
  0
EOF
