  0
SECTION
  2
HEADER
  9
$ACADVER
  1
AC1009
  9
$DWGCODEPAGE
  3
ISO8859-1
  9
$ATTMODE
 70
1
  9
$FILLMODE
 70
1
  9
$PDMODE
 70
0
  9
$PDSIZE
 40
0.0
  9
$PSLTSCALE
 70
0
  9
$QTEXTMODE
 70
0
  9
$SPLFRAME
 70
0
  9
$TILEMODE
 70
1
  9
$VISRETAIN
 70
1
  9
$LTSCALE
 40
12.0
  9
$LUNITS
 70
2
  9
$DIMSTYLE
  2
MEDDIM
  9
$DIMLFAC
 40
1.0
  9
$EXTMIN
 10
0.0
 20
0.0
  9
$EXTMAX
 10
594.0
 20
420.0
  9
$LIMMIN
 10
0.0
 20
0.0
  9
$LIMMAX
 10
594.0
 20
420.0
  0
ENDSEC
  0
SECTION
  2
TABLES
  0
TABLE
  2
LTYPE
 70
6
  0
LTYPE
  2
SL2
 70
0
  3
SL2
 72
65
 73
4
 40
1.125
 49
0.75
 49
-0.125
 49
0.125
 49
-0.125
  0
LTYPE
  2
SL5
 70
0
  3
SL5
 72
65
 73
0
 40
0.0
  0
LTYPE
  2
SL0
 70
0
  3
SL0
 72
65
 73
0
 40
0.0
  0
LTYPE
  2
L1
 70
0
  3
L1
 72
65
 73
2
 40
0.25
 49
0.0
 49
-0.25
  0
LTYPE
  2
L0
 70
0
  3
L0
 72
65
 73
0
 40
0.0
  0
LTYPE
  2
CONTINUOUS
 70
0
  3
CONTINUOUS
 72
65
 73
0
 40
0.0
  0
ENDTAB
  0
TABLE
  2
STYLE
 70
1
  0
STYLE
  2
T3
 70
64
 40
5.0
 41
0.675
 50
0.0
 71
0
 42
0.0
  3
medtext
  0
ENDTAB
  0
TABLE
  2
LAYER
 70
4
  0
LAYER
  2
6
  6
CONTINUOUS
 62
7
 70
0
  0
LAYER
  2
11
  6
CONTINUOUS
 62
7
 70
0
  0
LAYER
  2
1
  6
CONTINUOUS
 62
7
 70
0
  0
LAYER
  2
0
  6
CONTINUOUS
 62
7
 70
0
  0
ENDTAB
  0
TABLE
  2
DIMSTYLE
 70
1
  0
DIMSTYLE
  2
MEDDIM
 70
0
  3

  4

  5

  6

  7

 40
1.0
 41
3.5
 42
0.1
 43
7.0
 44
0.5
 45
0.01
 46
0.0
 47
0.0
 48
0.0
140
3.5
141
1.5
142
0.0
143
0.03937
144
1.0
145
0.0
146
0.7
147
1.0
 71
0
 72
0
 73
0
 74
0
 75
0
 76
0
 77
1
 78
12
170
0
171
2
172
1
173
0
174
0
175
0
176
7
177
7
178
7
  0
ENDTAB
  0
ENDSEC
  0
SECTION
  2
BLOCKS
  0
BLOCK
  8
0
  2
MEDCLUMP_SET_208_
 70
64
 10
0.0
 20
0.0
 30
0.0
  0
POLYLINE
  6
SL0
  8
11
 62
7
 66
1
 70
0
  0
VERTEX
  6
SL0
  8
11
 62
7
 10
266.790839
 20
79.939377
 30
0.0
 42
-0.138352
  0
VERTEX
  6
SL0
  8
11
 62
7
 10
258.827704
 20
61.573837
 30
0.0
  0
VERTEX
  6
SL0
  8
11
 62
7
 10
272.651709
 20
65.516861
 30
0.0
  0
VERTEX
  6
SL0
  8
11
 62
7
 10
272.651709
 20
68.414017
 30
0.0
  0
VERTEX
  6
SL0
  8
11
 62
7
 10
265.876105
 20
66.471146
 30
0.0
 42
0.077617
  0
VERTEX
  6
SL0
  8
11
 62
7
 10
269.790168
 20
78.207718
 30
0.0
 42
0.018678
  0
VERTEX
  6
SL0
  8
11
 62
7
 10
270.177192
 20
81.176773
 30
0.0
  0
VERTEX
  6
SL0
  8
11
 62
7
 10
263.779548
 20
84.870468
 30
0.0
  0
VERTEX
  6
SL0
  8
11
 62
7
 10
270.177192
 20
88.564163
 30
0.0
 42
0.096435
  0
VERTEX
  6
SL0
  8
11
 62
7
 10
265.876105
 20
103.269791
 30
0.0
  0
VERTEX
  6
SL0
  8
11
 62
7
 10
272.651709
 20
101.32692
 30
0.0
  0
VERTEX
  6
SL0
  8
11
 62
7
 10
272.651709
 20
104.224075
 30
0.0
  0
VERTEX
  6
SL0
  8
11
 62
7
 10
258.827704
 20
108.167099
 30
0.0
 42
-0.138352
  0
VERTEX
  6
SL0
  8
11
 62
7
 10
266.790839
 20
89.801559
 30
0.0
  0
VERTEX
  6
SL0
  8
11
 62
7
 10
258.249946
 20
84.870468
 30
0.0
  0
VERTEX
  6
SL0
  8
11
 62
7
 10
266.790839
 20
79.939377
 30
0.0
  0
SEQEND
  0
ENDBLK
  8
0
  0
BLOCK
  8
0
  2
MEDCLUMP_SET_198_
 70
64
 10
0.0
 20
0.0
 30
0.0
  0
POLYLINE
  6
SL0
  8
11
 62
7
 66
1
 70
0
  0
VERTEX
  6
SL0
  8
11
 62
7
 10
279.001532
 20
101.581741
 30
0.0
  0
VERTEX
  6
SL0
  8
11
 62
7
 10
279.001532
 20
103.090012
 30
0.0
  0
VERTEX
  6
SL0
  8
11
 62
7
 10
276.06623
 20
102.561691
 30
0.0
  0
VERTEX
  6
SL0
  8
11
 62
7
 10
276.06623
 20
102.110062
 30
0.0
  0
VERTEX
  6
SL0
  8
11
 62
7
 10
279.001532
 20
101.581741
 30
0.0
  0
SEQEND
  0
POLYLINE
  6
SL0
  8
11
 62
7
 66
1
 70
0
  0
VERTEX
  6
SL0
  8
11
 62
7
 10
281.711036
 20
98.384537
 30
0.0
  0
VERTEX
  6
SL0
  8
11
 62
7
 10
274.034125
 20
100.190842
 30
0.0
  0
VERTEX
  6
SL0
  8
11
 62
7
 10
274.034125
 20
104.480881
 30
0.0
  0
VERTEX
  6
SL0
  8
11
 62
7
 10
281.711036
 20
106.287216
 30
0.0
  0
VERTEX
  6
SL0
  8
11
 62
7
 10
281.711036
 20
103.577744
 30
0.0
  0
VERTEX
  6
SL0
  8
11
 62
7
 10
280.356299
 20
103.333847
 30
0.0
  0
VERTEX
  6
SL0
  8
11
 62
7
 10
280.356299
 20
101.337845
 30
0.0
  0
VERTEX
  6
SL0
  8
11
 62
7
 10
281.711036
 20
101.094009
 30
0.0
  0
VERTEX
  6
SL0
  8
11
 62
7
 10
281.711036
 20
98.384537
 30
0.0
  0
SEQEND
  0
POLYLINE
  6
SL0
  8
11
 62
7
 66
1
 70
0
  0
VERTEX
  6
SL0
  8
11
 62
7
 10
281.711036
 20
90.707565
 30
0.0
  0
VERTEX
  6
SL0
  8
11
 62
7
 10
281.711036
 20
88.449661
 30
0.0
  0
VERTEX
  6
SL0
  8
11
 62
7
 10
274.034125
 20
88.449661
 30
0.0
  0
VERTEX
  6
SL0
  8
11
 62
7
 10
274.034125
 20
92.062302
 30
0.0
  0
VERTEX
  6
SL0
  8
11
 62
7
 10
278.549933
 20
93.055832
 30
0.0
  0
VERTEX
  6
SL0
  8
11
 62
7
 10
278.549933
 20
93.191269
 30
0.0
  0
VERTEX
  6
SL0
  8
11
 62
7
 10
278.549933
 20
93.326767
 30
0.0
  0
VERTEX
  6
SL0
  8
11
 62
7
 10
274.034125
 20
94.320267
 30
0.0
  0
VERTEX
  6
SL0
  8
11
 62
7
 10
274.034125
 20
97.932907
 30
0.0
  0
VERTEX
  6
SL0
  8
11
 62
7
 10
281.711036
 20
97.932907
 30
0.0
  0
VERTEX
  6
SL0
  8
11
 62
7
 10
281.711036
 20
95.675003
 30
0.0
  0
VERTEX
  6
SL0
  8
11
 62
7
 10
276.06623
 20
95.675003
 30
0.0
  0
VERTEX
  6
SL0
  8
11
 62
7
 10
276.06623
 20
95.449234
 30
0.0
  0
VERTEX
  6
SL0
  8
11
 62
7
 10
281.711036
 20
94.207321
 30
0.0
  0
VERTEX
  6
SL0
  8
11
 62
7
 10
281.711036
 20
92.175217
 30
0.0
  0
VERTEX
  6
SL0
  8
11
 62
7
 10
276.06623
 20
90.933365
 30
0.0
  0
VERTEX
  6
SL0
  8
11
 62
7
 10
276.06623
 20
90.707565
 30
0.0
  0
VERTEX
  6
SL0
  8
11
 62
7
 10
281.711036
 20
90.707565
 30
0.0
  0
SEQEND
  0
POLYLINE
  6
SL0
  8
11
 62
7
 66
1
 70
0
  0
VERTEX
  6
SL0
  8
11
 62
7
 10
276.37107
 20
84.83696
 30
0.0
 42
-0.414214
  0
VERTEX
  6
SL0
  8
11
 62
7
 10
277.13874
 20
84.06929
 30
0.0
  0
VERTEX
  6
SL0
  8
11
 62
7
 10
277.13874
 20
83.030685
 30
0.0
  0
VERTEX
  6
SL0
  8
11
 62
7
 10
275.445319
 20
83.030685
 30
0.0
  0
VERTEX
  6
SL0
  8
11
 62
7
 10
275.445319
 20
84.06929
 30
0.0
 42
-0.414214
  0
VERTEX
  6
SL0
  8
11
 62
7
 10
276.213019
 20
84.837006
 30
0.0
  0
VERTEX
  6
SL0
  8
11
 62
7
 10
276.37107
 20
84.83696
 30
0.0
  0
SEQEND
  0
POLYLINE
  6
SL0
  8
11
 62
7
 66
1
 70
0
  0
VERTEX
  6
SL0
  8
11
 62
7
 10
281.711036
 20
80.77272
 30
0.0
  0
VERTEX
  6
SL0
  8
11
 62
7
 10
274.034125
 20
80.77272
 30
0.0
  0
VERTEX
  6
SL0
  8
11
 62
7
 10
274.034125
 20
85.288589
 30
0.0
 42
-0.414214
  0
VERTEX
  6
SL0
  8
11
 62
7
 10
276.29206
 20
87.546494
 30
0.0
  0
VERTEX
  6
SL0
  8
11
 62
7
 70
16
 10
276.29206
 20
87.546494
 30
0.0
  0
VERTEX
  6
SL0
  8
11
 62
7
 70
8
 10
276.29206
 20
87.546494
 30
0.0
  0
VERTEX
  6
SL0
  8
11
 62
7
 70
8
 10
276.683779
 20
87.51568
 30
0.0
  0
VERTEX
  6
SL0
  8
11
 62
7
 70
8
 10
276.882249
 20
87.475806
 30
0.0
  0
VERTEX
  6
SL0
  8
11
 62
7
 70
8
 10
277.079452
 20
87.418827
 30
0.0
  0
VERTEX
  6
SL0
  8
11
 62
7
 70
8
 10
277.272944
 20
87.344604
 30
0.0
  0
VERTEX
  6
SL0
  8
11
 62
7
 70
8
 10
277.460233
 20
87.253412
 30
0.0
  0
VERTEX
  6
SL0
  8
11
 62
7
 70
8
 10
277.638876
 20
87.145951
 30
0.0
  0
VERTEX
  6
SL0
  8
11
 62
7
 70
8
 10
277.806584
 20
87.023336
 30
0.0
  0
VERTEX
  6
SL0
  8
11
 62
7
 70
8
 10
277.961312
 20
86.887061
 30
0.0
  0
VERTEX
  6
SL0
  8
11
 62
7
 70
8
 10
278.101349
 20
86.738937
 30
0.0
  0
VERTEX
  6
SL0
  8
11
 62
7
 70
8
 10
278.225373
 20
86.581015
 30
0.0
  0
VERTEX
  6
SL0
  8
11
 62
7
 70
8
 10
278.332491
 20
86.415498
 30
0.0
  0
VERTEX
  6
SL0
  8
11
 62
7
 70
8
 10
278.422249
 20
86.244642
 30
0.0
  0
VERTEX
  6
SL0
  8
11
 62
7
 70
8
 10
278.494613
 20
86.070673
 30
0.0
  0
VERTEX
  6
SL0
  8
11
 62
7
 70
8
 10
278.549933
 20
85.895706
 30
0.0
  0
VERTEX
  6
SL0
  8
11
 62
7
 70
16
 10
278.549933
 20
85.895706
 30
0.0
  0
VERTEX
  6
SL0
  8
11
 62
7
 10
278.549933
 20
85.895706
 30
0.0
  0
VERTEX
  6
SL0
  8
11
 62
7
 10
281.711036
 20
87.546494
 30
0.0
  0
VERTEX
  6
SL0
  8
11
 62
7
 10
281.711036
 20
85.06279
 30
0.0
  0
VERTEX
  6
SL0
  8
11
 62
7
 10
278.549933
 20
83.798355
 30
0.0
  0
VERTEX
  6
SL0
  8
11
 62
7
 10
278.549933
 20
83.030685
 30
0.0
  0
VERTEX
  6
SL0
  8
11
 62
7
 10
281.711036
 20
83.030685
 30
0.0
  0
VERTEX
  6
SL0
  8
11
 62
7
 10
281.711036
 20
80.77272
 30
0.0
  0
SEQEND
  0
POLYLINE
  6
SL0
  8
11
 62
7
 66
1
 70
0
  0
VERTEX
  6
SL0
  8
11
 62
7
 10
279.3628
 20
77.329391
 30
0.0
 42
-0.414214
  0
VERTEX
  6
SL0
  8
11
 62
7
 10
280.130469
 20
76.561722
 30
0.0
  0
VERTEX
  6
SL0
  8
11
 62
7
 10
280.130469
 20
76.403671
 30
0.0
 42
-0.414214
  0
VERTEX
  6
SL0
  8
11
 62
7
 10
279.3628
 20
75.635986
 30
0.0
  0
VERTEX
  6
SL0
  8
11
 62
7
 10
276.382331
 20
75.635986
 30
0.0
 42
-0.414214
  0
VERTEX
  6
SL0
  8
11
 62
7
 10
275.614646
 20
76.403671
 30
0.0
  0
VERTEX
  6
SL0
  8
11
 62
7
 10
275.614646
 20
76.561722
 30
0.0
 42
-0.414214
  0
VERTEX
  6
SL0
  8
11
 62
7
 10
276.382331
 20
77.329391
 30
0.0
  0
VERTEX
  6
SL0
  8
11
 62
7
 10
279.3628
 20
77.329391
 30
0.0
  0
SEQEND
  0
POLYLINE
  6
SL0
  8
11
 62
7
 66
1
 70
0
  0
VERTEX
  6
SL0
  8
11
 62
7
 10
279.001532
 20
79.869553
 30
0.0
 42
-0.414214
  0
VERTEX
  6
SL0
  8
11
 62
7
 10
281.71102
 20
77.16008
 30
0.0
  0
VERTEX
  6
SL0
  8
11
 62
7
 10
281.71102
 20
75.805344
 30
0.0
 42
-0.414214
  0
VERTEX
  6
SL0
  8
11
 62
7
 10
279.001532
 20
73.095764
 30
0.0
  0
VERTEX
  6
SL0
  8
11
 62
7
 10
276.743628
 20
73.095764
 30
0.0
 42
-0.414214
  0
VERTEX
  6
SL0
  8
11
 62
7
 10
274.034095
 20
75.805344
 30
0.0
  0
VERTEX
  6
SL0
  8
11
 62
7
 10
274.034095
 20
77.16008
 30
0.0
 42
-0.414214
  0
VERTEX
  6
SL0
  8
11
 62
7
 10
276.743628
 20
79.869553
 30
0.0
  0
VERTEX
  6
SL0
  8
11
 62
7
 10
279.001532
 20
79.869553
 30
0.0
  0
SEQEND
  0
POLYLINE
  6
SL0
  8
11
 62
7
 66
1
 70
0
  0
VERTEX
  6
SL0
  8
11
 62
7
 10
279.227302
 20
72.192642
 30
0.0
 42
-0.414214
  0
VERTEX
  6
SL0
  8
11
 62
7
 10
281.71102
 20
69.708939
 30
0.0
  0
VERTEX
  6
SL0
  8
11
 62
7
 10
281.71102
 20
65.644699
 30
0.0
  0
VERTEX
  6
SL0
  8
11
 62
7
 10
274.034125
 20
65.644699
 30
0.0
  0
VERTEX
  6
SL0
  8
11
 62
7
 10
274.034125
 20
69.708939
 30
0.0
 42
-0.414214
  0
VERTEX
  6
SL0
  8
11
 62
7
 10
276.517829
 20
72.192627
 30
0.0
  0
VERTEX
  6
SL0
  8
11
 62
7
 10
279.227302
 20
72.192642
 30
0.0
  0
SEQEND
  0
POLYLINE
  6
SL0
  8
11
 62
7
 66
1
 70
0
  0
VERTEX
  6
SL0
  8
11
 62
7
 10
279.678901
 20
69.708939
 30
0.0
 42
-0.414214
  0
VERTEX
  6
SL0
  8
11
 62
7
 10
280.130469
 20
69.257339
 30
0.0
  0
VERTEX
  6
SL0
  8
11
 62
7
 10
280.130469
 20
68.128372
 30
0.0
  0
VERTEX
  6
SL0
  8
11
 62
7
 10
275.614631
 20
68.128372
 30
0.0
  0
VERTEX
  6
SL0
  8
11
 62
7
 10
275.614631
 20
69.257339
 30
0.0
 42
-0.414214
  0
VERTEX
  6
SL0
  8
11
 62
7
 10
276.06623
 20
69.708908
 30
0.0
  0
VERTEX
  6
SL0
  8
11
 62
7
 10
279.678901
 20
69.708939
 30
0.0
  0
SEQEND
  0
ENDBLK
  8
0
  0
BLOCK
  8
0
  2
MEDCLUMP_SET_179_
 70
64
 10
0.0
 20
0.0
 30
0.0
  0
CIRCLE
  6
SL5
  8
11
 62
2
 10
174.059577
 20
57.870468
 30
0.0
 40
2.5
  0
CIRCLE
  6
SL5
  8
11
 62
2
 10
334.059577
 20
57.870468
 30
0.0
 40
2.5
  0
CIRCLE
  6
SL5
  8
11
 62
2
 10
334.059577
 20
111.870468
 30
0.0
 40
2.5
  0
CIRCLE
  6
SL5
  8
11
 62
2
 10
174.059577
 20
111.870468
 30
0.0
 40
2.5
  0
POLYLINE
  6
SL5
  8
11
 62
2
 66
1
 70
0
  0
VERTEX
  6
SL5
  8
11
 62
2
 10
76.059577
 20
97.370468
 30
0.0
  0
VERTEX
  6
SL5
  8
11
 62
2
 10
116.936805
 20
97.370468
 30
0.0
 42
0.326177
  0
VERTEX
  6
SL5
  8
11
 62
2
 10
116.936805
 20
72.370468
 30
0.0
  0
VERTEX
  6
SL5
  8
11
 62
2
 10
76.059577
 20
72.370468
 30
0.0
  0
VERTEX
  6
SL5
  8
11
 62
2
 10
76.059577
 20
97.370468
 30
0.0
  0
SEQEND
  0
POLYLINE
  6
SL0
  8
11
 62
7
 66
1
 70
0
  0
VERTEX
  6
SL0
  8
11
 62
7
 10
174.059577
 20
120.155624
 30
0.0
  0
VERTEX
  6
SL0
  8
11
 62
7
 10
174.059577
 20
102.366562
 30
0.0
  0
SEQEND
  0
POLYLINE
  6
SL0
  8
11
 62
7
 66
1
 70
0
  0
VERTEX
  6
SL0
  8
11
 62
7
 10
174.059577
 20
66.788437
 30
0.0
  0
VERTEX
  6
SL0
  8
11
 62
7
 10
174.059577
 20
49.386093
 30
0.0
  0
SEQEND
  0
POLYLINE
  6
SL0
  8
11
 62
7
 66
1
 70
0
  0
VERTEX
  6
SL0
  8
11
 62
7
 10
166.500983
 20
57.870468
 30
0.0
  0
VERTEX
  6
SL0
  8
11
 62
7
 10
184.290046
 20
57.870468
 30
0.0
  0
SEQEND
  0
POLYLINE
  6
SL0
  8
11
 62
7
 66
1
 70
0
  0
VERTEX
  6
SL0
  8
11
 62
7
 10
325.329108
 20
57.870468
 30
0.0
  0
VERTEX
  6
SL0
  8
11
 62
7
 10
343.891608
 20
57.870468
 30
0.0
  0
SEQEND
  0
POLYLINE
  6
SL0
  8
11
 62
7
 66
1
 70
0
  0
VERTEX
  6
SL0
  8
11
 62
7
 10
334.059577
 20
50.159531
 30
0.0
  0
VERTEX
  6
SL0
  8
11
 62
7
 10
334.059577
 20
66.401718
 30
0.0
  0
SEQEND
  0
POLYLINE
  6
SL0
  8
11
 62
7
 66
1
 70
0
  0
VERTEX
  6
SL0
  8
11
 62
7
 10
334.059577
 20
102.366562
 30
0.0
  0
VERTEX
  6
SL0
  8
11
 62
7
 10
334.059577
 20
120.155624
 30
0.0
  0
SEQEND
  0
POLYLINE
  6
SL0
  8
11
 62
7
 66
1
 70
0
  0
VERTEX
  6
SL0
  8
11
 62
7
 10
342.731452
 20
111.870468
 30
0.0
  0
VERTEX
  6
SL0
  8
11
 62
7
 10
324.168952
 20
111.870468
 30
0.0
  0
SEQEND
  0
POLYLINE
  6
SL0
  8
11
 62
7
 66
1
 70
0
  0
VERTEX
  6
SL0
  8
11
 62
7
 10
184.676764
 20
111.870468
 30
0.0
  0
VERTEX
  6
SL0
  8
11
 62
7
 10
164.567389
 20
111.870468
 30
0.0
  0
SEQEND
  0
CIRCLE
  6
SL5
  8
11
 62
2
 10
174.059577
 20
111.870468
 30
0.0
 40
4.75
  0
CIRCLE
  6
SL5
  8
11
 62
2
 10
334.059577
 20
57.870468
 30
0.0
 40
4.75
  0
CIRCLE
  6
SL5
  8
11
 62
2
 10
334.059577
 20
111.870468
 30
0.0
 40
4.75
  0
CIRCLE
  6
SL5
  8
11
 62
2
 10
174.059577
 20
57.870468
 30
0.0
 40
4.75
  0
POLYLINE
  6
SL0
  8
11
 62
7
 66
1
 70
0
  0
VERTEX
  6
SL0
  8
11
 62
7
 10
76.059577
 20
132.370468
 30
0.0
  0
VERTEX
  6
SL0
  8
11
 62
7
 10
153.059577
 20
132.370468
 30
0.0
  0
SEQEND
  0
POLYLINE
  6
SL0
  8
11
 62
7
 66
1
 70
0
  0
VERTEX
  6
SL0
  8
11
 62
7
 10
155.059577
 20
132.370468
 30
0.0
  0
VERTEX
  6
SL0
  8
11
 62
7
 10
379.059577
 20
132.370468
 30
0.0
  0
VERTEX
  6
SL0
  8
11
 62
7
 10
379.059577
 20
37.370468
 30
0.0
  0
VERTEX
  6
SL0
  8
11
 62
7
 10
155.059577
 20
37.370468
 30
0.0
  0
SEQEND
  0
POLYLINE
  6
SL0
  8
11
 62
7
 66
1
 70
0
  0
VERTEX
  6
SL0
  8
11
 62
7
 10
153.059577
 20
37.370468
 30
0.0
  0
VERTEX
  6
SL0
  8
11
 62
7
 10
76.059577
 20
37.370468
 30
0.0
  0
SEQEND
  0
POLYLINE
  6
SL0
  8
11
 62
7
 66
1
 70
0
  0
VERTEX
  6
SL0
  8
11
 62
7
 10
379.059577
 20
132.370468
 30
0.0
  0
VERTEX
  6
SL0
  8
11
 62
7
 10
384.059577
 20
137.370468
 30
0.0
  0
SEQEND
  0
POLYLINE
  6
SL0
  8
11
 62
7
 66
1
 70
0
  0
VERTEX
  6
SL0
  8
11
 62
7
 10
384.059577
 20
32.370468
 30
0.0
  0
VERTEX
  6
SL0
  8
11
 62
7
 10
379.059577
 20
37.370468
 30
0.0
  0
SEQEND
  0
POLYLINE
  6
SL2
  8
11
 62
1
 66
1
 70
0
  0
VERTEX
  6
SL2
  8
11
 62
1
 10
134.059577
 20
112.123428
 30
0.0
  0
VERTEX
  6
SL2
  8
11
 62
1
 10
134.059577
 20
58.617966
 30
0.0
  0
SEQEND
  0
POLYLINE
  6
SL2
  8
11
 62
1
 66
1
 70
0
  0
VERTEX
  6
SL2
  8
11
 62
1
 10
73.301764
 20
84.870468
 30
0.0
  0
VERTEX
  6
SL2
  8
11
 62
1
 10
159.540046
 20
84.870468
 30
0.0
  0
SEQEND
  0
POLYLINE
  6
SL5
  8
11
 62
2
 66
1
 70
0
  0
VERTEX
  6
SL5
  8
11
 62
2
 10
76.059577
 20
49.870468
 30
0.0
  0
VERTEX
  6
SL5
  8
11
 62
2
 10
76.059577
 20
32.370468
 30
0.0
  0
VERTEX
  6
SL5
  8
11
 62
2
 10
153.059577
 20
32.370468
 30
0.0
  0
VERTEX
  6
SL5
  8
11
 62
2
 10
153.059577
 20
49.870468
 30
0.0
  0
SEQEND
  0
POLYLINE
  6
SL5
  8
11
 62
2
 66
1
 70
0
  0
VERTEX
  6
SL5
  8
11
 62
2
 10
76.059577
 20
119.870468
 30
0.0
  0
VERTEX
  6
SL5
  8
11
 62
2
 10
155.059577
 20
119.870468
 30
0.0
  0
VERTEX
  6
SL5
  8
11
 62
2
 10
155.059577
 20
137.370468
 30
0.0
  0
VERTEX
  6
SL5
  8
11
 62
2
 10
384.059577
 20
137.370468
 30
0.0
  0
VERTEX
  6
SL5
  8
11
 62
2
 10
384.059577
 20
32.370468
 30
0.0
  0
VERTEX
  6
SL5
  8
11
 62
2
 10
155.059577
 20
32.370468
 30
0.0
  0
VERTEX
  6
SL5
  8
11
 62
2
 10
155.059577
 20
49.870468
 30
0.0
  0
VERTEX
  6
SL5
  8
11
 62
2
 10
76.059577
 20
49.870468
 30
0.0
  0
VERTEX
  6
SL5
  8
11
 62
2
 10
76.059577
 20
72.370468
 30
0.0
  0
VERTEX
  6
SL5
  8
11
 62
2
 10
116.936805
 20
72.370468
 30
0.0
 42
3.065821
  0
VERTEX
  6
SL5
  8
11
 62
2
 10
116.936805
 20
97.370468
 30
0.0
  0
VERTEX
  6
SL5
  8
11
 62
2
 10
76.059577
 20
97.370468
 30
0.0
  0
VERTEX
  6
SL5
  8
11
 62
2
 10
76.059577
 20
119.870468
 30
0.0
  0
SEQEND
  0
POLYLINE
  6
SL5
  8
11
 62
2
 66
1
 70
0
  0
VERTEX
  6
SL5
  8
11
 62
2
 10
153.059577
 20
119.870468
 30
0.0
  0
VERTEX
  6
SL5
  8
11
 62
2
 10
153.059577
 20
137.370468
 30
0.0
  0
VERTEX
  6
SL5
  8
11
 62
2
 10
76.059577
 20
137.370468
 30
0.0
  0
VERTEX
  6
SL5
  8
11
 62
2
 10
76.059577
 20
119.870468
 30
0.0
  0
SEQEND
  0
ENDBLK
  8
0
  0
BLOCK
  8
0
  2
MEDCLUMP_SET_174_
 70
64
 10
0.0
 20
0.0
 30
0.0
  0
POLYLINE
  6
SL5
  8
11
 62
2
 66
1
 70
0
  0
VERTEX
  6
SL5
  8
11
 62
2
 10
497.575202
 20
97.294235
 30
0.0
  0
VERTEX
  6
SL5
  8
11
 62
2
 10
499.575202
 20
97.294235
 30
0.0
  0
SEQEND
  0
POLYLINE
  6
SL5
  8
11
 62
2
 66
1
 70
0
  0
VERTEX
  6
SL5
  8
11
 62
2
 10
497.575202
 20
72.370468
 30
0.0
  0
VERTEX
  6
SL5
  8
11
 62
2
 10
499.575202
 20
72.370468
 30
0.0
  0
SEQEND
  0
POLYLINE
  6
SL2
  8
11
 62
1
 66
1
 70
0
  0
VERTEX
  6
SL2
  8
11
 62
1
 10
495.702521
 20
84.870468
 30
0.0
  0
VERTEX
  6
SL2
  8
11
 62
1
 10
502.035041
 20
84.870468
 30
0.0
  0
SEQEND
  0
POLYLINE
  6
SL5
  8
11
 62
2
 66
1
 70
0
  0
VERTEX
  6
SL5
  8
11
 62
2
 10
497.575202
 20
37.7556
 30
0.0
  0
VERTEX
  6
SL5
  8
11
 62
2
 10
497.575202
 20
131.985275
 30
0.0
  0
VERTEX
  6
SL5
  8
11
 62
2
 10
495.718207
 20
136.62767
 30
0.0
  0
VERTEX
  6
SL5
  8
11
 62
2
 10
497.575202
 20
137.370468
 30
0.0
  0
VERTEX
  6
SL5
  8
11
 62
2
 10
499.575202
 20
132.370468
 30
0.0
  0
VERTEX
  6
SL5
  8
11
 62
2
 10
499.575202
 20
37.370468
 30
0.0
  0
VERTEX
  6
SL5
  8
11
 62
2
 10
497.575202
 20
32.370468
 30
0.0
  0
VERTEX
  6
SL5
  8
11
 62
2
 10
495.718268
 20
33.113235
 30
0.0
  0
VERTEX
  6
SL5
  8
11
 62
2
 10
497.575202
 20
37.7556
 30
0.0
  0
SEQEND
  0
ENDBLK
  8
0
  0
BLOCK
  8
0
  2
MEDCLUMP_SET_171_
 70
64
 10
0.0
 20
0.0
 30
0.0
  0
POLYLINE
  6
SL2
  8
11
 62
1
 66
1
 70
0
  0
VERTEX
  6
SL2
  8
11
 62
1
 10
467.887694
 20
346.154452
 30
0.0
  0
VERTEX
  6
SL2
  8
11
 62
1
 10
467.887679
 20
282.040614
 30
0.0
  0
SEQEND
  0
POLYLINE
  6
SL5
  8
11
 62
2
 66
1
 70
0
  0
VERTEX
  6
SL5
  8
11
 62
2
 10
426.88771
 20
336.934161
 30
0.0
  0
VERTEX
  6
SL5
  8
11
 62
2
 10
426.88771
 20
287.434169
 30
0.0
  0
VERTEX
  6
SL5
  8
11
 62
2
 10
508.88771
 20
287.434169
 30
0.0
  0
VERTEX
  6
SL5
  8
11
 62
2
 10
508.88771
 20
336.934161
 30
0.0
  0
VERTEX
  6
SL5
  8
11
 62
2
 10
426.88771
 20
336.934161
 30
0.0
  0
SEQEND
  0
ENDBLK
  8
0
  0
BLOCK
  8
0
  2
MEDCLUMP_SET_168_
 70
64
 10
0.0
 20
0.0
 30
0.0
  0
POLYLINE
  6
SL2
  8
11
 62
1
 66
1
 70
0
  0
VERTEX
  6
SL2
  8
11
 62
1
 10
134.059569
 20
280.410594
 30
0.0
  0
VERTEX
  6
SL2
  8
11
 62
1
 10
134.059569
 20
346.154452
 30
0.0
  0
SEQEND
  0
POLYLINE
  6
SL5
  8
11
 62
2
 66
1
 70
0
  0
VERTEX
  6
SL5
  8
11
 62
2
 10
79.059585
 20
336.934161
 30
0.0
  0
VERTEX
  6
SL5
  8
11
 62
2
 10
79.059585
 20
287.434169
 30
0.0
  0
VERTEX
  6
SL5
  8
11
 62
2
 10
364.059585
 20
287.434169
 30
0.0
  0
VERTEX
  6
SL5
  8
11
 62
2
 10
364.059585
 20
336.934161
 30
0.0
  0
VERTEX
  6
SL5
  8
11
 62
2
 10
79.059585
 20
336.934161
 30
0.0
  0
SEQEND
  0
ENDBLK
  8
0
  0
BLOCK
  8
0
  2
MEDCLUMP_SET_164_
 70
64
 10
0.0
 20
0.0
 30
0.0
  0
POLYLINE
  6
SL5
  8
11
 62
2
 66
1
 70
0
  0
VERTEX
  6
SL5
  8
11
 62
2
 10
351.059569
 20
166.961913
 30
0.0
  0
VERTEX
  6
SL5
  8
11
 62
2
 10
351.059554
 20
171.611915
 30
0.0
  0
SEQEND
  0
POLYLINE
  6
SL5
  8
11
 62
2
 66
1
 70
0
  0
VERTEX
  6
SL5
  8
11
 62
2
 10
351.059524
 20
237.611903
 30
0.0
  0
VERTEX
  6
SL5
  8
11
 62
2
 10
351.059554
 20
242.361903
 30
0.0
  0
SEQEND
  0
POLYLINE
  6
SL5
  8
11
 62
2
 66
1
 70
0
  0
VERTEX
  6
SL5
  8
11
 62
2
 10
117.059592
 20
244.211909
 30
0.0
  0
VERTEX
  6
SL5
  8
11
 62
2
 10
117.059585
 20
239.111926
 30
0.0
  0
SEQEND
  0
POLYLINE
  6
SL5
  8
11
 62
2
 66
1
 70
0
  0
VERTEX
  6
SL5
  8
11
 62
2
 10
104.059604
 20
244.211909
 30
0.0
  0
VERTEX
  6
SL5
  8
11
 62
2
 10
104.059604
 20
239.111941
 30
0.0
  0
SEQEND
  0
ENDBLK
  8
0
  0
BLOCK
  8
0
  2
MEDCLUMP_SET_156_
 70
64
 10
0.0
 20
0.0
 30
0.0
  0
POLYLINE
  6
SL5
  8
11
 62
2
 66
1
 70
0
  0
VERTEX
  6
SL5
  8
11
 62
2
 10
368.059554
 20
163.611907
 30
0.0
  0
VERTEX
  6
SL5
  8
11
 62
2
 10
83.059596
 20
163.611907
 30
0.0
  0
VERTEX
  6
SL5
  8
11
 62
2
 10
83.059596
 20
245.711909
 30
0.0
  0
VERTEX
  6
SL5
  8
11
 62
2
 10
368.059554
 20
245.711909
 30
0.0
  0
VERTEX
  6
SL5
  8
11
 62
2
 10
368.059554
 20
163.611907
 30
0.0
  0
SEQEND
  0
POLYLINE
  6
SL5
  8
11
 62
2
 66
1
 70
0
  0
VERTEX
  6
SL5
  8
11
 62
2
 10
366.559554
 20
165.111907
 30
0.0
  0
VERTEX
  6
SL5
  8
11
 62
2
 10
84.559596
 20
165.111907
 30
0.0
  0
VERTEX
  6
SL5
  8
11
 62
2
 10
84.559596
 20
244.211909
 30
0.0
  0
VERTEX
  6
SL5
  8
11
 62
2
 10
366.559554
 20
244.211909
 30
0.0
  0
VERTEX
  6
SL5
  8
11
 62
2
 10
366.559554
 20
165.111907
 30
0.0
  0
SEQEND
  0
POLYLINE
  6
SL5
  8
11
 62
2
 66
1
 70
0
  0
VERTEX
  6
SL5
  8
11
 62
2
 10
117.059592
 20
165.111907
 30
0.0
  0
VERTEX
  6
SL5
  8
11
 62
2
 10
117.059592
 20
170.111812
 30
0.0
  0
SEQEND
  0
POLYLINE
  6
SL5
  8
11
 62
2
 66
1
 70
0
  0
VERTEX
  6
SL5
  8
11
 62
2
 10
104.059604
 20
165.111907
 30
0.0
  0
VERTEX
  6
SL5
  8
11
 62
2
 10
104.059604
 20
170.111831
 30
0.0
  0
VERTEX
  6
SL5
  8
11
 62
2
 10
104.059604
 20
165.111907
 30
0.0
  0
SEQEND
  0
POLYLINE
  6
SL5
  8
11
 62
2
 66
1
 70
0
  0
VERTEX
  6
SL5
  8
11
 62
2
 10
348.559569
 20
244.211909
 30
0.0
  0
VERTEX
  6
SL5
  8
11
 62
2
 10
348.559569
 20
242.711879
 30
0.0
  0
VERTEX
  6
SL5
  8
11
 62
2
 10
348.559569
 20
242.361903
 30
0.0
  0
VERTEX
  6
SL5
  8
11
 62
2
 10
357.689742
 20
242.361903
 30
0.0
  0
VERTEX
  6
SL5
  8
11
 62
2
 10
362.559569
 20
242.361903
 30
0.0
  0
VERTEX
  6
SL5
  8
11
 62
2
 10
362.559569
 20
244.211909
 30
0.0
  0
SEQEND
  0
POLYLINE
  6
SL5
  8
11
 62
2
 66
1
 70
0
  0
VERTEX
  6
SL5
  8
11
 62
2
 10
348.559569
 20
165.111907
 30
0.0
  0
VERTEX
  6
SL5
  8
11
 62
2
 10
348.559569
 20
166.961913
 30
0.0
  0
VERTEX
  6
SL5
  8
11
 62
2
 10
362.559569
 20
166.961913
 30
0.0
  0
VERTEX
  6
SL5
  8
11
 62
2
 10
362.559569
 20
165.111907
 30
0.0
  0
SEQEND
  0
POLYLINE
  6
SL5
  8
11
 62
2
 66
1
 70
0
  0
VERTEX
  6
SL5
  8
11
 62
2
 10
84.559601
 20
177.161914
 30
0.0
  0
VERTEX
  6
SL5
  8
11
 62
2
 10
83.059601
 20
177.161914
 30
0.0
  0
SEQEND
  0
ENDBLK
  8
0
  0
BLOCK
  8
0
  2
MEDCLUMP_S2T_155_
 70
64
 10
0.0
 20
0.0
 30
0.0
  0
INSERT
  8
0
  2
MEDCLUMP_SET_156_
 10
0.0
 20
0.0
 30
0.0
  0
INSERT
  8
0
  2
MEDCLUMP_SET_164_
 10
0.0
 20
0.0
 30
0.0
  0
ENDBLK
  8
0
  0
BLOCK
  8
0
  2
MEDCLUMP_SET_151_
 70
64
 10
0.0
 20
0.0
 30
0.0
  0
POLYLINE
  6
SL5
  8
11
 62
2
 66
1
 70
0
  0
VERTEX
  6
SL5
  8
11
 62
2
 10
210.071212
 20
228.684184
 30
0.0
  0
VERTEX
  6
SL5
  8
11
 62
2
 10
215.987304
 20
234.600261
 30
0.0
  0
SEQEND
  0
POLYLINE
  6
SL5
  8
11
 62
2
 66
1
 70
0
  0
VERTEX
  6
SL5
  8
11
 62
2
 10
217.047957
 20
233.539592
 30
0.0
  0
VERTEX
  6
SL5
  8
11
 62
2
 10
211.131865
 20
227.623515
 30
0.0
  0
SEQEND
  0
CIRCLE
  6
SL5
  8
11
 62
2
 10
213.559585
 20
231.111888
 30
0.0
 40
4.25
  0
ENDBLK
  8
0
  0
BLOCK
  8
0
  2
MEDCLUMP_SET_147_
 70
64
 10
0.0
 20
0.0
 30
0.0
  0
POLYLINE
  6
SL5
  8
11
 62
2
 66
1
 70
0
  0
VERTEX
  6
SL5
  8
11
 62
2
 10
204.871192
 20
175.684199
 30
0.0
  0
VERTEX
  6
SL5
  8
11
 62
2
 10
210.787284
 20
181.600276
 30
0.0
  0
SEQEND
  0
POLYLINE
  6
SL5
  8
11
 62
2
 66
1
 70
0
  0
VERTEX
  6
SL5
  8
11
 62
2
 10
211.847938
 20
180.539607
 30
0.0
  0
VERTEX
  6
SL5
  8
11
 62
2
 10
205.931846
 20
174.62353
 30
0.0
  0
SEQEND
  0
CIRCLE
  6
SL5
  8
11
 62
2
 10
208.359565
 20
178.111903
 30
0.0
 40
4.25
  0
ENDBLK
  8
0
  0
BLOCK
  8
0
  2
MEDCLUMP_S2T_146_
 70
64
 10
0.0
 20
0.0
 30
0.0
  0
INSERT
  8
0
  2
MEDCLUMP_SET_147_
 10
0.0
 20
0.0
 30
0.0
  0
INSERT
  8
0
  2
MEDCLUMP_SET_151_
 10
0.0
 20
0.0
 30
0.0
  0
ENDBLK
  8
0
  0
BLOCK
  8
0
  2
MEDCLUMP_SET_143_
 70
64
 10
0.0
 20
0.0
 30
0.0
  0
CIRCLE
  6
SL2
  8
11
 62
1
 10
134.059569
 20
204.611903
 30
0.0
 40
2.150002
  0
POLYLINE
  6
SL2
  8
11
 62
1
 66
1
 70
0
  0
VERTEX
  6
SL2
  8
11
 62
1
 10
124.305098
 20
198.711925
 30
0.0
  0
VERTEX
  6
SL2
  8
11
 62
1
 10
143.814055
 20
198.711925
 30
0.0
 42
0.2789
  0
VERTEX
  6
SL2
  8
11
 62
1
 10
143.814055
 20
210.511912
 30
0.0
  0
VERTEX
  6
SL2
  8
11
 62
1
 10
124.305098
 20
210.511912
 30
0.0
 42
0.278901
  0
VERTEX
  6
SL2
  8
11
 62
1
 10
124.305098
 20
198.711925
 30
0.0
  0
SEQEND
  0
ENDBLK
  8
0
  0
BLOCK
  8
0
  2
MEDCLUMP_SET_133_
 70
64
 10
0.0
 20
0.0
 30
0.0
  0
CIRCLE
  6
SL5
  8
11
 62
2
 10
93.059592
 20
204.611873
 30
0.0
 40
4.749996
  0
CIRCLE
  6
SL5
  8
11
 62
2
 10
93.059592
 20
204.611873
 30
0.0
 40
1.849998
  0
POLYLINE
  6
SL5
  8
11
 62
2
 66
1
 70
0
  0
VERTEX
  6
SL5
  8
11
 62
2
 10
84.559592
 20
204.611873
 30
0.0
  0
VERTEX
  6
SL5
  8
11
 62
2
 10
84.559592
 20
189.861873
 30
0.0
 42
0.414214
  0
VERTEX
  6
SL5
  8
11
 62
2
 10
89.559592
 20
184.861873
 30
0.0
  0
VERTEX
  6
SL5
  8
11
 62
2
 10
99.162398
 20
184.861873
 30
0.0
 42
-0.131645
  0
VERTEX
  6
SL5
  8
11
 62
2
 10
101.162398
 20
184.325984
 30
0.0
  0
VERTEX
  6
SL5
  8
11
 62
2
 10
110.059569
 20
179.189189
 30
0.0
 42
-0.267943
  0
VERTEX
  6
SL5
  8
11
 62
2
 10
111.059569
 20
177.457149
 30
0.0
  0
VERTEX
  6
SL5
  8
11
 62
2
 10
111.059592
 20
172.111812
 30
0.0
 42
0.414214
  0
VERTEX
  6
SL5
  8
11
 62
2
 10
113.059592
 20
170.111812
 30
0.0
  0
VERTEX
  6
SL5
  8
11
 62
2
 10
161.059554
 20
170.111812
 30
0.0
 42
0.414214
  0
VERTEX
  6
SL5
  8
11
 62
2
 10
163.059562
 20
172.111812
 30
0.0
  0
VERTEX
  6
SL5
  8
11
 62
2
 10
163.059562
 20
172.111857
 30
0.0
 42
-0.414214
  0
VERTEX
  6
SL5
  8
11
 62
2
 10
165.059562
 20
174.111857
 30
0.0
  0
VERTEX
  6
SL5
  8
11
 62
2
 10
166.559569
 20
174.111857
 30
0.0
 42
0.414214
  0
VERTEX
  6
SL5
  8
11
 62
2
 10
168.559569
 20
176.111857
 30
0.0
  0
VERTEX
  6
SL5
  8
11
 62
2
 10
168.559562
 20
204.611873
 30
0.0
  0
SEQEND
  0
POLYLINE
  6
SL2
  8
11
 62
1
 66
1
 70
0
  0
VERTEX
  6
SL2
  8
11
 62
1
 10
134.059577
 20
204.611873
 30
0.0
  0
VERTEX
  6
SL2
  8
11
 62
1
 10
134.059577
 20
164.859981
 30
0.0
  0
SEQEND
  0
CIRCLE
  6
SL5
  8
11
 62
2
 10
93.059592
 20
204.611873
 30
0.0
 40
4.75
  0
CIRCLE
  6
SL5
  8
11
 62
2
 10
93.059592
 20
204.611873
 30
0.0
 40
1.850002
  0
POLYLINE
  6
SL2
  8
11
 62
1
 66
1
 70
0
  0
VERTEX
  6
SL2
  8
11
 62
1
 10
134.059577
 20
204.611873
 30
0.0
  0
VERTEX
  6
SL2
  8
11
 62
1
 10
134.059577
 20
240.363749
 30
0.0
  0
SEQEND
  0
POLYLINE
  6
SL5
  8
11
 62
2
 66
1
 70
0
  0
VERTEX
  6
SL5
  8
11
 62
2
 10
84.559592
 20
204.611873
 30
0.0
  0
VERTEX
  6
SL5
  8
11
 62
2
 10
84.559592
 20
219.361857
 30
0.0
 42
-0.414214
  0
VERTEX
  6
SL5
  8
11
 62
2
 10
89.559592
 20
224.361857
 30
0.0
  0
VERTEX
  6
SL5
  8
11
 62
2
 10
99.162398
 20
224.361857
 30
0.0
 42
0.131649
  0
VERTEX
  6
SL5
  8
11
 62
2
 10
101.162398
 20
224.897761
 30
0.0
  0
VERTEX
  6
SL5
  8
11
 62
2
 10
110.059569
 20
230.034541
 30
0.0
 42
0.267952
  0
VERTEX
  6
SL5
  8
11
 62
2
 10
111.059569
 20
231.766581
 30
0.0
  0
VERTEX
  6
SL5
  8
11
 62
2
 10
111.059592
 20
237.111918
 30
0.0
 42
-0.414214
  0
VERTEX
  6
SL5
  8
11
 62
2
 10
113.059592
 20
239.111918
 30
0.0
  0
VERTEX
  6
SL5
  8
11
 62
2
 10
161.059554
 20
239.111918
 30
0.0
 42
-0.414214
  0
VERTEX
  6
SL5
  8
11
 62
2
 10
163.059562
 20
237.111918
 30
0.0
  0
VERTEX
  6
SL5
  8
11
 62
2
 10
163.059562
 20
237.111888
 30
0.0
 42
0.414214
  0
VERTEX
  6
SL5
  8
11
 62
2
 10
165.059562
 20
235.111888
 30
0.0
  0
VERTEX
  6
SL5
  8
11
 62
2
 10
166.559569
 20
235.111888
 30
0.0
 42
-0.414214
  0
VERTEX
  6
SL5
  8
11
 62
2
 10
168.559569
 20
233.111888
 30
0.0
  0
VERTEX
  6
SL5
  8
11
 62
2
 10
168.559569
 20
204.611873
 30
0.0
  0
SEQEND
  0
POLYLINE
  6
SL2
  8
11
 62
1
 66
1
 70
0
  0
VERTEX
  6
SL2
  8
11
 62
1
 10
134.059577
 20
204.611873
 30
0.0
  0
VERTEX
  6
SL2
  8
11
 62
1
 10
134.059577
 20
240.363765
 30
0.0
  0
SEQEND
  0
ENDBLK
  8
0
  0
BLOCK
  8
0
  2
MEDCLUMP_SET_124_
 70
64
 10
0.0
 20
0.0
 30
0.0
  0
POLYLINE
  6
SL5
  8
11
 62
2
 66
1
 70
0
  0
VERTEX
  6
SL5
  8
11
 62
2
 10
90.056025
 20
179.897685
 30
0.0
  0
VERTEX
  6
SL5
  8
11
 62
2
 10
99.995112
 20
179.897685
 30
0.0
  0
SEQEND
  0
POLYLINE
  6
SL5
  8
11
 62
2
 66
1
 70
0
  0
VERTEX
  6
SL5
  8
11
 62
2
 10
99.966487
 20
178.397681
 30
0.0
  0
VERTEX
  6
SL5
  8
11
 62
2
 10
90.050807
 20
178.397681
 30
0.0
  0
SEQEND
  0
POLYLINE
  6
SL5
  8
11
 62
2
 66
1
 70
0
  0
VERTEX
  6
SL5
  8
11
 62
2
 10
90.045268
 20
176.808509
 30
0.0
  0
VERTEX
  6
SL5
  8
11
 62
2
 10
90.061686
 20
181.521426
 30
0.0
 42
-0.042783
  0
VERTEX
  6
SL5
  8
11
 62
2
 10
90.538066
 20
182.33121
 30
0.0
  0
VERTEX
  6
SL5
  8
11
 62
2
 10
94.508525
 20
184.623568
 30
0.0
 42
-0.042782
  0
VERTEX
  6
SL5
  8
11
 62
2
 10
95.447978
 20
184.631228
 30
0.0
  0
VERTEX
  6
SL5
  8
11
 62
2
 10
99.5377
 20
182.288974
 30
0.0
 42
-0.042172
  0
VERTEX
  6
SL5
  8
11
 62
2
 10
100.000773
 20
181.486911
 30
0.0
  0
VERTEX
  6
SL5
  8
11
 62
2
 10
99.983989
 20
176.773047
 30
0.0
 42
-0.042793
  0
VERTEX
  6
SL5
  8
11
 62
2
 10
99.507365
 20
175.963172
 30
0.0
  0
VERTEX
  6
SL5
  8
11
 62
2
 10
95.538737
 20
173.671912
 30
0.0
 42
-0.042793
  0
VERTEX
  6
SL5
  8
11
 62
2
 10
94.59904
 20
173.664039
 30
0.0
  0
VERTEX
  6
SL5
  8
11
 62
2
 10
90.508342
 20
176.006446
 30
0.0
 42
-0.042172
  0
VERTEX
  6
SL5
  8
11
 62
2
 10
90.045268
 20
176.808509
 30
0.0
  0
SEQEND
  0
POLYLINE
  6
SL5
  8
11
 62
2
 66
1
 70
0
  0
VERTEX
  6
SL5
  8
11
 62
2
 10
91.017085
 20
227.129985
 30
0.0
  0
VERTEX
  6
SL5
  8
11
 62
2
 10
98.045085
 20
234.157985
 30
0.0
  0
SEQEND
  0
POLYLINE
  6
SL5
  8
11
 62
2
 66
1
 70
0
  0
VERTEX
  6
SL5
  8
11
 62
2
 10
99.08549
 20
233.077083
 30
0.0
  0
VERTEX
  6
SL5
  8
11
 62
2
 10
92.074046
 20
226.065623
 30
0.0
  0
SEQEND
  0
POLYLINE
  6
SL5
  8
11
 62
2
 66
1
 70
0
  0
VERTEX
  6
SL5
  8
11
 62
2
 10
93.193843
 20
224.937999
 30
0.0
  0
VERTEX
  6
SL5
  8
11
 62
2
 10
89.87292
 20
228.282145
 30
0.0
 42
-0.042783
  0
VERTEX
  6
SL5
  8
11
 62
2
 10
89.637172
 20
229.1916
 30
0.0
  0
VERTEX
  6
SL5
  8
11
 62
2
 10
90.823756
 20
233.620082
 30
0.0
 42
-0.042782
  0
VERTEX
  6
SL5
  8
11
 62
2
 10
91.482646
 20
234.28979
 30
0.0
  0
VERTEX
  6
SL5
  8
11
 62
2
 10
96.030726
 20
235.525447
 30
0.0
 42
-0.042173
  0
VERTEX
  6
SL5
  8
11
 62
2
 10
96.925319
 20
235.285747
 30
0.0
  0
VERTEX
  6
SL5
  8
11
 62
2
 10
100.246653
 20
231.940669
 30
0.0
 42
-0.042793
  0
VERTEX
  6
SL5
  8
11
 62
2
 10
100.48231
 20
231.030971
 30
0.0
  0
VERTEX
  6
SL5
  8
11
 62
2
 10
99.296229
 20
226.604564
 30
0.0
 42
-0.042793
  0
VERTEX
  6
SL5
  8
11
 62
2
 10
98.637324
 20
225.934535
 30
0.0
  0
VERTEX
  6
SL5
  8
11
 62
2
 10
94.088435
 20
224.698298
 30
0.0
 42
-0.042173
  0
VERTEX
  6
SL5
  8
11
 62
2
 10
93.193843
 20
224.937999
 30
0.0
  0
SEQEND
  0
ENDBLK
  8
0
  0
BLOCK
  8
0
  2
MEDCLUMP_SET_121_
 70
64
 10
0.0
 20
0.0
 30
0.0
  0
CIRCLE
  6
SL5
  8
11
 62
2
 10
116.059577
 20
234.111964
 30
0.0
 40
1.975004
  0
CIRCLE
  6
SL5
  8
11
 62
2
 10
116.059577
 20
234.111964
 30
0.0
 40
3.850002
  0
ENDBLK
  8
0
  0
BLOCK
  8
0
  2
MEDCLUMP_SET_118_
 70
64
 10
0.0
 20
0.0
 30
0.0
  0
CIRCLE
  6
SL5
  8
11
 62
2
 10
163.059546
 20
229.611934
 30
0.0
 40
1.974998
  0
CIRCLE
  6
SL5
  8
11
 62
2
 10
163.059546
 20
229.611934
 30
0.0
 40
3.849995
  0
ENDBLK
  8
0
  0
BLOCK
  8
0
  2
MEDCLUMP_SET_115_
 70
64
 10
0.0
 20
0.0
 30
0.0
  0
CIRCLE
  6
SL5
  8
11
 62
2
 10
90.059581
 20
219.361964
 30
0.0
 40
1.975001
  0
CIRCLE
  6
SL5
  8
11
 62
2
 10
90.059581
 20
219.361964
 30
0.0
 40
3.849998
  0
ENDBLK
  8
0
  0
BLOCK
  8
0
  2
MEDCLUMP_SET_112_
 70
64
 10
0.0
 20
0.0
 30
0.0
  0
CIRCLE
  6
SL5
  8
11
 62
2
 10
90.059581
 20
189.861873
 30
0.0
 40
1.975001
  0
CIRCLE
  6
SL5
  8
11
 62
2
 10
90.059581
 20
189.861873
 30
0.0
 40
3.849998
  0
ENDBLK
  8
0
  0
BLOCK
  8
0
  2
MEDCLUMP_SET_107_
 70
64
 10
0.0
 20
0.0
 30
0.0
  0
CIRCLE
  6
SL5
  8
11
 62
2
 10
163.059554
 20
179.611934
 30
0.0
 40
1.975004
  0
CIRCLE
  6
SL5
  8
11
 62
2
 10
163.059554
 20
179.611934
 30
0.0
 40
3.850002
  0
ENDBLK
  8
0
  0
BLOCK
  8
0
  2
MEDCLUMP_SET_103_
 70
64
 10
0.0
 20
0.0
 30
0.0
  0
POLYLINE
  6
SL2
  8
11
 62
1
 66
1
 70
0
  0
VERTEX
  6
SL2
  8
11
 62
1
 10
75.361743
 20
204.611896
 30
0.0
  0
VERTEX
  6
SL2
  8
11
 62
1
 10
220.400306
 20
204.611896
 30
0.0
  0
SEQEND
  0
POLYLINE
  6
SL2
  8
11
 62
1
 66
1
 70
0
  0
VERTEX
  6
SL2
  8
11
 62
1
 10
220.400306
 20
204.611896
 30
0.0
  0
VERTEX
  6
SL2
  8
11
 62
1
 10
377.525405
 20
204.611896
 30
0.0
  0
SEQEND
  0
CIRCLE
  6
SL5
  8
11
 62
2
 10
134.059577
 20
204.611903
 30
0.0
 40
20.547703
  0
ENDBLK
  8
0
  0
BLOCK
  8
0
  2
MEDCLUMP_S2T_102_
 70
64
 10
0.0
 20
0.0
 30
0.0
  0
INSERT
  8
0
  2
MEDCLUMP_SET_103_
 10
0.0
 20
0.0
 30
0.0
  0
INSERT
  8
0
  2
MEDCLUMP_SET_107_
 10
0.0
 20
0.0
 30
0.0
  0
CIRCLE
  6
SL5
  8
11
 62
2
 10
116.059577
 20
175.111979
 30
0.0
 40
1.975004
  0
CIRCLE
  6
SL5
  8
11
 62
2
 10
116.059577
 20
175.111979
 30
0.0
 40
3.850002
  0
INSERT
  8
0
  2
MEDCLUMP_SET_112_
 10
0.0
 20
0.0
 30
0.0
  0
INSERT
  8
0
  2
MEDCLUMP_SET_115_
 10
0.0
 20
0.0
 30
0.0
  0
INSERT
  8
0
  2
MEDCLUMP_SET_118_
 10
0.0
 20
0.0
 30
0.0
  0
INSERT
  8
0
  2
MEDCLUMP_SET_121_
 10
0.0
 20
0.0
 30
0.0
  0
INSERT
  8
0
  2
MEDCLUMP_SET_124_
 10
0.0
 20
0.0
 30
0.0
  0
POLYLINE
  6
SL5
  8
11
 62
2
 66
1
 70
0
  0
VERTEX
  6
SL5
  8
11
 62
2
 10
105.342944
 20
176.267878
 30
0.0
  0
VERTEX
  6
SL5
  8
11
 62
2
 10
108.715629
 20
172.895198
 30
0.0
  0
SEQEND
  0
POLYLINE
  6
SL5
  8
11
 62
2
 66
1
 70
0
  0
VERTEX
  6
SL5
  8
11
 62
2
 10
109.77629
 20
173.955852
 30
0.0
  0
VERTEX
  6
SL5
  8
11
 62
2
 10
106.403602
 20
177.328547
 30
0.0
  0
SEQEND
  0
POLYLINE
  6
SL5
  8
11
 62
2
 66
1
 70
0
  0
VERTEX
  6
SL5
  8
11
 62
2
 10
105.342944
 20
232.955913
 30
0.0
  0
VERTEX
  6
SL5
  8
11
 62
2
 10
108.715629
 20
236.328593
 30
0.0
  0
SEQEND
  0
POLYLINE
  6
SL5
  8
11
 62
2
 66
1
 70
0
  0
VERTEX
  6
SL5
  8
11
 62
2
 10
109.77629
 20
235.26794
 30
0.0
  0
VERTEX
  6
SL5
  8
11
 62
2
 10
106.403602
 20
231.895259
 30
0.0
  0
SEQEND
  0
INSERT
  8
0
  2
MEDCLUMP_SET_133_
 10
0.0
 20
0.0
 30
0.0
  0
INSERT
  8
0
  2
MEDCLUMP_SET_143_
 10
0.0
 20
0.0
 30
0.0
  0
ENDBLK
  8
0
  0
BLOCK
  8
0
  2
MEDCLUMP_SET_97_
 70
64
 10
0.0
 20
0.0
 30
0.0
  0
POLYLINE
  6
SL5
  8
11
 62
2
 66
1
 70
0
  0
VERTEX
  6
SL5
  8
11
 62
2
 10
341.059462
 20
204.611903
 30
0.0
  0
VERTEX
  6
SL5
  8
11
 62
2
 10
345.933104
 20
204.611903
 30
0.0
  0
VERTEX
  6
SL5
  8
11
 62
2
 10
341.059462
 20
204.611903
 30
0.0
  0
SEQEND
  0
POLYLINE
  6
SL5
  8
11
 62
2
 66
1
 70
0
  0
VERTEX
  6
SL5
  8
11
 62
2
 10
338.059462
 20
198.861918
 30
0.0
  0
VERTEX
  6
SL5
  8
11
 62
2
 10
338.059462
 20
210.361918
 30
0.0
  0
SEQEND
  0
POLYLINE
  6
SL5
  8
11
 62
2
 66
1
 70
0
  0
VERTEX
  6
SL5
  8
11
 62
2
 10
338.059462
 20
198.611896
 30
0.0
  0
VERTEX
  6
SL5
  8
11
 62
2
 10
338.159469
 20
198.611896
 30
0.0
  0
SEQEND
  0
POLYLINE
  6
SL5
  8
11
 62
2
 66
1
 70
0
  0
VERTEX
  6
SL5
  8
11
 62
2
 10
341.059462
 20
199.611911
 30
0.0
  0
VERTEX
  6
SL5
  8
11
 62
2
 10
346.059462
 20
199.611896
 30
0.0
  0
VERTEX
  6
SL5
  8
11
 62
2
 70
16
 10
346.059462
 20
199.611896
 30
0.0
  0
VERTEX
  6
SL5
  8
11
 62
2
 70
8
 10
346.059462
 20
199.611896
 30
0.0
  0
VERTEX
  6
SL5
  8
11
 62
2
 70
8
 10
346.276147
 20
200.271814
 30
0.0
  0
VERTEX
  6
SL5
  8
11
 62
2
 70
8
 10
346.359716
 20
200.611379
 30
0.0
  0
VERTEX
  6
SL5
  8
11
 62
2
 70
8
 10
346.425728
 20
200.955531
 30
0.0
  0
VERTEX
  6
SL5
  8
11
 62
2
 70
8
 10
346.473572
 20
201.302808
 30
0.0
  0
VERTEX
  6
SL5
  8
11
 62
2
 70
8
 10
346.502785
 20
201.651684
 30
0.0
  0
VERTEX
  6
SL5
  8
11
 62
2
 70
8
 10
346.513068
 20
202.0006
 30
0.0
  0
VERTEX
  6
SL5
  8
11
 62
2
 70
8
 10
346.504289
 20
202.34798
 30
0.0
  0
VERTEX
  6
SL5
  8
11
 62
2
 70
8
 10
346.476488
 20
202.692258
 30
0.0
  0
VERTEX
  6
SL5
  8
11
 62
2
 70
8
 10
346.429875
 20
203.031901
 30
0.0
  0
VERTEX
  6
SL5
  8
11
 62
2
 70
8
 10
346.364826
 20
203.36543
 30
0.0
  0
VERTEX
  6
SL5
  8
11
 62
2
 70
8
 10
346.281877
 20
203.691444
 30
0.0
  0
VERTEX
  6
SL5
  8
11
 62
2
 70
8
 10
346.181712
 20
204.008635
 30
0.0
  0
VERTEX
  6
SL5
  8
11
 62
2
 70
8
 10
346.065143
 20
204.315809
 30
0.0
  0
VERTEX
  6
SL5
  8
11
 62
2
 70
8
 10
345.933104
 20
204.611896
 30
0.0
  0
VERTEX
  6
SL5
  8
11
 62
2
 70
16
 10
345.933104
 20
204.611896
 30
0.0
  0
VERTEX
  6
SL5
  8
11
 62
2
 70
16
 10
345.933104
 20
204.611896
 30
0.0
  0
VERTEX
  6
SL5
  8
11
 62
2
 70
8
 10
345.933104
 20
204.611896
 30
0.0
  0
VERTEX
  6
SL5
  8
11
 62
2
 70
8
 10
346.181711
 20
205.215149
 30
0.0
  0
VERTEX
  6
SL5
  8
11
 62
2
 70
8
 10
346.281877
 20
205.532338
 30
0.0
  0
VERTEX
  6
SL5
  8
11
 62
2
 70
8
 10
346.364825
 20
205.85835
 30
0.0
  0
VERTEX
  6
SL5
  8
11
 62
2
 70
8
 10
346.429874
 20
206.191878
 30
0.0
  0
VERTEX
  6
SL5
  8
11
 62
2
 70
8
 10
346.476487
 20
206.531519
 30
0.0
  0
VERTEX
  6
SL5
  8
11
 62
2
 70
8
 10
346.504289
 20
206.875797
 30
0.0
  0
VERTEX
  6
SL5
  8
11
 62
2
 70
8
 10
346.513067
 20
207.223177
 30
0.0
  0
VERTEX
  6
SL5
  8
11
 62
2
 70
8
 10
346.502784
 20
207.572093
 30
0.0
  0
VERTEX
  6
SL5
  8
11
 62
2
 70
8
 10
346.473571
 20
207.92097
 30
0.0
  0
VERTEX
  6
SL5
  8
11
 62
2
 70
8
 10
346.425727
 20
208.268248
 30
0.0
  0
VERTEX
  6
SL5
  8
11
 62
2
 70
8
 10
346.359715
 20
208.612403
 30
0.0
  0
VERTEX
  6
SL5
  8
11
 62
2
 70
8
 10
346.276147
 20
208.95197
 30
0.0
  0
VERTEX
  6
SL5
  8
11
 62
2
 70
8
 10
346.175772
 20
209.285564
 30
0.0
  0
VERTEX
  6
SL5
  8
11
 62
2
 70
8
 10
346.059462
 20
209.611896
 30
0.0
  0
VERTEX
  6
SL5
  8
11
 62
2
 70
16
 10
346.059462
 20
209.611896
 30
0.0
  0
VERTEX
  6
SL5
  8
11
 62
2
 10
341.059462
 20
209.611911
 30
0.0
  0
SEQEND
  0
POLYLINE
  6
SL5
  8
11
 62
2
 66
1
 70
0
  0
VERTEX
  6
SL5
  8
11
 62
2
 10
335.559585
 20
223.811892
 30
0.0
  0
VERTEX
  6
SL5
  8
11
 62
2
 10
337.559462
 20
223.811892
 30
0.0
  0
VERTEX
  6
SL5
  8
11
 62
2
 10
338.059462
 20
223.311885
 30
0.0
  0
VERTEX
  6
SL5
  8
11
 62
2
 10
338.059462
 20
185.911891
 30
0.0
  0
VERTEX
  6
SL5
  8
11
 62
2
 10
337.559462
 20
185.411891
 30
0.0
  0
VERTEX
  6
SL5
  8
11
 62
2
 10
335.559569
 20
185.411891
 30
0.0
  0
SEQEND
  0
ENDBLK
  8
0
  0
BLOCK
  8
0
  2
MEDCLUMP_SET_40_
 70
64
 10
0.0
 20
0.0
 30
0.0
  0
POLYLINE
  6
SL5
  8
11
 62
2
 66
1
 70
0
  0
VERTEX
  6
SL5
  8
11
 62
2
 10
335.559585
 20
222.500483
 30
0.0
  0
VERTEX
  6
SL5
  8
11
 62
2
 10
335.559585
 20
223.811892
 30
0.0
  0
VERTEX
  6
SL5
  8
11
 62
2
 10
338.059478
 20
223.811892
 30
0.0
  0
SEQEND
  0
POLYLINE
  6
SL5
  8
11
 62
2
 66
1
 70
0
  0
VERTEX
  6
SL5
  8
11
 62
2
 10
335.559569
 20
186.723323
 30
0.0
  0
VERTEX
  6
SL5
  8
11
 62
2
 10
335.559569
 20
185.411891
 30
0.0
  0
VERTEX
  6
SL5
  8
11
 62
2
 10
338.059478
 20
185.411891
 30
0.0
  0
SEQEND
  0
POLYLINE
  6
SL5
  8
11
 62
2
 66
1
 70
0
  0
VERTEX
  6
SL5
  8
11
 62
2
 10
325.328673
 20
193.672679
 30
0.0
  0
VERTEX
  6
SL5
  8
11
 62
2
 10
327.203124
 20
186.723369
 30
0.0
  0
VERTEX
  6
SL5
  8
11
 62
2
 10
327.203124
 20
173.612819
 30
0.0
 42
-0.414214
  0
VERTEX
  6
SL5
  8
11
 62
2
 10
325.203124
 20
171.612819
 30
0.0
  0
VERTEX
  6
SL5
  8
11
 62
2
 10
313.15364
 20
171.612819
 30
0.0
 42
-0.414214
  0
VERTEX
  6
SL5
  8
11
 62
2
 10
311.15364
 20
173.612819
 30
0.0
  0
VERTEX
  6
SL5
  8
11
 62
2
 10
311.15364
 20
186.681743
 30
0.0
  0
VERTEX
  6
SL5
  8
11
 62
2
 10
312.812209
 20
193.633952
 30
0.0
  0
SEQEND
  0
POLYLINE
  6
SL5
  8
11
 62
2
 66
1
 70
0
  0
VERTEX
  6
SL5
  8
11
 62
2
 10
335.059478
 20
204.611911
 30
0.0
  0
VERTEX
  6
SL5
  8
11
 62
2
 10
335.059478
 20
196.67055
 30
0.0
 42
-0.414214
  0
VERTEX
  6
SL5
  8
11
 62
2
 10
333.059478
 20
194.67055
 30
0.0
  0
VERTEX
  6
SL5
  8
11
 62
2
 10
327.059508
 20
194.67055
 30
0.0
 42
0.414214
  0
VERTEX
  6
SL5
  8
11
 62
2
 10
325.059508
 20
192.67055
 30
0.0
  0
VERTEX
  6
SL5
  8
11
 62
2
 10
325.059493
 20
173.61283
 30
0.0
 42
-0.414214
  0
VERTEX
  6
SL5
  8
11
 62
2
 10
323.059493
 20
171.61283
 30
0.0
  0
VERTEX
  6
SL5
  8
11
 62
2
 10
315.059493
 20
171.61283
 30
0.0
 42
-0.414214
  0
VERTEX
  6
SL5
  8
11
 62
2
 10
313.059493
 20
173.61283
 30
0.0
  0
VERTEX
  6
SL5
  8
11
 62
2
 10
313.059508
 20
192.67055
 30
0.0
 42
0.414214
  0
VERTEX
  6
SL5
  8
11
 62
2
 10
311.059508
 20
194.67055
 30
0.0
  0
VERTEX
  6
SL5
  8
11
 62
2
 10
183.059546
 20
194.67055
 30
0.0
 42
0.414214
  0
VERTEX
  6
SL5
  8
11
 62
2
 10
181.059546
 20
192.67055
 30
0.0
  0
VERTEX
  6
SL5
  8
11
 62
2
 10
181.059546
 20
173.612891
 30
0.0
 42
-0.414214
  0
VERTEX
  6
SL5
  8
11
 62
2
 10
179.059546
 20
171.612891
 30
0.0
  0
VERTEX
  6
SL5
  8
11
 62
2
 10
162.996299
 20
171.612891
 30
0.0
 42
-0.342142
  0
VERTEX
  6
SL5
  8
11
 62
2
 10
161.059554
 20
170.111899
 30
0.0
  0
SEQEND
  0
POLYLINE
  6
SL5
  8
11
 62
2
 66
1
 70
0
  0
VERTEX
  6
SL5
  8
11
 62
2
 10
168.559569
 20
204.611865
 30
0.0
  0
VERTEX
  6
SL5
  8
11
 62
2
 10
168.559569
 20
173.612891
 30
0.0
 42
0.414214
  0
VERTEX
  6
SL5
  8
11
 62
2
 10
170.559569
 20
171.612891
 30
0.0
  0
VERTEX
  6
SL5
  8
11
 62
2
 10
170.559569
 20
171.612891
 30
0.0
  0
SEQEND
  0
CIRCLE
  6
SL5
  8
11
 62
2
 10
174.059569
 20
177.610972
 30
0.0
 40
4.75
  0
CIRCLE
  6
SL5
  8
11
 62
2
 10
174.059569
 20
177.610972
 30
0.0
 40
2.0
  0
CIRCLE
  6
SL5
  8
11
 62
2
 10
174.059569
 20
231.610972
 30
0.0
 40
4.75
  0
CIRCLE
  6
SL5
  8
11
 62
2
 10
174.059569
 20
231.610972
 30
0.0
 40
2.0
  0
CIRCLE
  6
SL5
  8
11
 62
2
 10
319.059493
 20
177.611003
 30
0.0
 40
4.75
  0
CIRCLE
  6
SL5
  8
11
 62
2
 10
319.059493
 20
177.611003
 30
0.0
 40
2.0
  0
CIRCLE
  6
SL5
  8
11
 62
2
 10
319.059508
 20
231.610972
 30
0.0
 40
4.75
  0
CIRCLE
  6
SL5
  8
11
 62
2
 10
319.059508
 20
231.610972
 30
0.0
 40
2.0
  0
POLYLINE
  6
SL5
  8
11
 62
2
 66
1
 70
0
  0
VERTEX
  6
SL5
  8
11
 62
2
 10
86.559619
 20
185.861903
 30
0.0
  0
VERTEX
  6
SL5
  8
11
 62
2
 10
87.559611
 20
184.861918
 30
0.0
  0
VERTEX
  6
SL5
  8
11
 62
2
 10
99.162379
 20
184.861995
 30
0.0
 42
-0.131637
  0
VERTEX
  6
SL5
  8
11
 62
2
 10
101.162379
 20
184.326106
 30
0.0
  0
VERTEX
  6
SL5
  8
11
 62
2
 10
110.05955
 20
179.189326
 30
0.0
 42
-0.26793
  0
VERTEX
  6
SL5
  8
11
 62
2
 10
111.05955
 20
177.457271
 30
0.0
  0
VERTEX
  6
SL5
  8
11
 62
2
 10
111.05955
 20
172.111934
 30
0.0
 42
0.414214
  0
VERTEX
  6
SL5
  8
11
 62
2
 10
113.05955
 20
170.111934
 30
0.0
  0
VERTEX
  6
SL5
  8
11
 62
2
 10
113.05955
 20
170.111934
 30
0.0
  0
SEQEND
  0
POLYLINE
  6
SL5
  8
11
 62
2
 66
1
 70
0
  0
VERTEX
  6
SL5
  8
11
 62
2
 10
113.05955
 20
239.111873
 30
0.0
  0
VERTEX
  6
SL5
  8
11
 62
2
 10
113.05955
 20
239.111873
 30
0.0
 42
0.414214
  0
VERTEX
  6
SL5
  8
11
 62
2
 10
111.05955
 20
237.111873
 30
0.0
  0
VERTEX
  6
SL5
  8
11
 62
2
 10
111.05955
 20
231.766536
 30
0.0
 42
-0.267938
  0
VERTEX
  6
SL5
  8
11
 62
2
 10
110.05955
 20
230.03448
 30
0.0
  0
VERTEX
  6
SL5
  8
11
 62
2
 10
101.162379
 20
224.8977
 30
0.0
 42
-0.131654
  0
VERTEX
  6
SL5
  8
11
 62
2
 10
99.162379
 20
224.361812
 30
0.0
  0
VERTEX
  6
SL5
  8
11
 62
2
 10
87.559611
 20
224.361888
 30
0.0
  0
VERTEX
  6
SL5
  8
11
 62
2
 10
86.559619
 20
223.361903
 30
0.0
  0
SEQEND
  0
POLYLINE
  6
SL5
  8
11
 62
2
 66
1
 70
0
  0
VERTEX
  6
SL5
  8
11
 62
2
 10
84.559619
 20
204.611896
 30
0.0
  0
VERTEX
  6
SL5
  8
11
 62
2
 10
84.559619
 20
187.861896
 30
0.0
  0
VERTEX
  6
SL5
  8
11
 62
2
 10
86.559619
 20
185.861896
 30
0.0
  0
VERTEX
  6
SL5
  8
11
 62
2
 10
86.559615
 20
183.611865
 30
0.0
 42
0.414214
  0
VERTEX
  6
SL5
  8
11
 62
2
 10
87.559615
 20
182.611865
 30
0.0
  0
VERTEX
  6
SL5
  8
11
 62
2
 10
91.192969
 20
182.611865
 30
0.0
  0
SEQEND
  0
POLYLINE
  6
SL5
  8
11
 62
2
 66
1
 70
0
  0
VERTEX
  6
SL5
  8
11
 62
2
 10
91.194285
 20
175.611869
 30
0.0
  0
VERTEX
  6
SL5
  8
11
 62
2
 10
87.559619
 20
175.611869
 30
0.0
  0
SEQEND
  0
POLYLINE
  6
SL5
  8
11
 62
2
 66
1
 70
0
  0
VERTEX
  6
SL5
  8
11
 62
2
 10
87.250602
 20
175.562919
 30
0.0
  0
VERTEX
  6
SL5
  8
11
 62
2
 10
87.099967
 20
175.513984
 30
0.0
  0
SEQEND
  0
POLYLINE
  6
SL5
  8
11
 62
2
 66
1
 70
0
  0
VERTEX
  6
SL5
  8
11
 62
2
 10
86.843696
 20
175.327781
 30
0.0
  0
VERTEX
  6
SL5
  8
11
 62
2
 10
86.750602
 20
175.199653
 30
0.0
  0
VERTEX
  6
SL5
  8
11
 62
2
 10
86.657508
 20
175.071509
 30
0.0
  0
VERTEX
  6
SL5
  8
11
 62
2
 10
86.608561
 20
174.92089
 30
0.0
  0
VERTEX
  6
SL5
  8
11
 62
2
 10
86.608561
 20
174.770255
 30
0.0
  0
VERTEX
  6
SL5
  8
11
 62
2
 10
86.559615
 20
174.770255
 30
0.0
  0
VERTEX
  6
SL5
  8
11
 62
2
 10
86.559615
 20
174.92089
 30
0.0
  0
VERTEX
  6
SL5
  8
11
 62
2
 10
86.608561
 20
174.92089
 30
0.0
  0
SEQEND
  0
POLYLINE
  6
SL5
  8
11
 62
2
 66
1
 70
0
  0
VERTEX
  6
SL5
  8
11
 62
2
 10
86.559619
 20
174.611869
 30
0.0
  0
VERTEX
  6
SL5
  8
11
 62
2
 10
86.559619
 20
174.111869
 30
0.0
  0
VERTEX
  6
SL5
  8
11
 62
2
 10
86.636474
 20
173.331504
 30
0.0
  0
VERTEX
  6
SL5
  8
11
 62
2
 10
86.713328
 20
172.945106
 30
0.0
  0
VERTEX
  6
SL5
  8
11
 62
2
 10
86.864093
 20
172.581122
 30
0.0
  0
VERTEX
  6
SL5
  8
11
 62
2
 10
87.014853
 20
172.217139
 30
0.0
  0
VERTEX
  6
SL5
  8
11
 62
2
 10
87.233725
 20
171.889564
 30
0.0
 42
0.04916
  0
VERTEX
  6
SL5
  8
11
 62
2
 10
87.731173
 20
171.283408
 30
0.0
 42
0.049158
  0
VERTEX
  6
SL5
  8
11
 62
2
 10
88.337321
 20
170.785956
 30
0.0
 42
0.049157
  0
VERTEX
  6
SL5
  8
11
 62
2
 10
89.028869
 20
170.416312
 30
0.0
 42
0.049138
  0
VERTEX
  6
SL5
  8
11
 62
2
 10
89.77925
 20
170.188682
 30
0.0
 42
0.049128
  0
VERTEX
  6
SL5
  8
11
 62
2
 10
90.559619
 20
170.111838
 30
0.0
  0
VERTEX
  6
SL5
  8
11
 62
2
 10
161.067481
 20
170.111808
 30
0.0
  0
VERTEX
  6
SL5
  8
11
 62
2
 10
203.059569
 20
170.111869
 30
0.0
  0
SEQEND
  0
POLYLINE
  6
SL5
  8
11
 62
2
 66
1
 70
0
  0
VERTEX
  6
SL5
  8
11
 62
2
 10
213.559554
 20
239.111896
 30
0.0
  0
VERTEX
  6
SL5
  8
11
 62
2
 10
161.067481
 20
239.111896
 30
0.0
  0
VERTEX
  6
SL5
  8
11
 62
2
 10
161.067481
 20
239.111896
 30
0.0
  0
VERTEX
  6
SL5
  8
11
 62
2
 10
90.559619
 20
239.111957
 30
0.0
 42
0.414214
  0
VERTEX
  6
SL5
  8
11
 62
2
 10
86.559619
 20
235.111896
 30
0.0
  0
VERTEX
  6
SL5
  8
11
 62
2
 10
86.559619
 20
234.611804
 30
0.0
 42
0.414214
  0
VERTEX
  6
SL5
  8
11
 62
2
 10
87.559619
 20
233.611804
 30
0.0
  0
VERTEX
  6
SL5
  8
11
 62
2
 10
90.821494
 20
233.611804
 30
0.0
  0
SEQEND
  0
POLYLINE
  6
SL5
  8
11
 62
2
 66
1
 70
0
  0
VERTEX
  6
SL5
  8
11
 62
2
 10
91.489329
 20
226.611804
 30
0.0
  0
VERTEX
  6
SL5
  8
11
 62
2
 10
87.559615
 20
226.611804
 30
0.0
  0
VERTEX
  6
SL5
  8
11
 62
2
 10
87.427958
 20
226.611789
 30
0.0
  0
VERTEX
  6
SL5
  8
11
 62
2
 10
87.300792
 20
226.577716
 30
0.0
  0
VERTEX
  6
SL5
  8
11
 62
2
 10
87.173625
 20
226.543643
 30
0.0
  0
VERTEX
  6
SL5
  8
11
 62
2
 10
87.059611
 20
226.477817
 30
0.0
  0
VERTEX
  6
SL5
  8
11
 62
2
 10
86.945598
 20
226.41199
 30
0.0
  0
VERTEX
  6
SL5
  8
11
 62
2
 10
86.852504
 20
226.318896
 30
0.0
  0
VERTEX
  6
SL5
  8
11
 62
2
 10
86.759414
 20
226.225802
 30
0.0
  0
VERTEX
  6
SL5
  8
11
 62
2
 10
86.693587
 20
226.111789
 30
0.0
  0
VERTEX
  6
SL5
  8
11
 62
2
 10
86.627765
 20
225.997775
 30
0.0
  0
VERTEX
  6
SL5
  8
11
 62
2
 10
86.593688
 20
225.870608
 30
0.0
 42
0.065597
  0
VERTEX
  6
SL5
  8
11
 62
2
 10
86.559615
 20
225.611789
 30
0.0
  0
VERTEX
  6
SL5
  8
11
 62
2
 10
86.559619
 20
223.361896
 30
0.0
  0
VERTEX
  6
SL5
  8
11
 62
2
 10
84.559619
 20
221.361896
 30
0.0
  0
VERTEX
  6
SL5
  8
11
 62
2
 10
84.559619
 20
204.611896
 30
0.0
  0
SEQEND
  0
POLYLINE
  6
SL5
  8
11
 62
2
 66
1
 70
0
  0
VERTEX
  6
SL5
  8
11
 62
2
 10
224.597373
 20
183.831866
 30
0.0
  0
VERTEX
  6
SL5
  8
11
 62
2
 10
224.597358
 20
175.111762
 30
0.0
  0
VERTEX
  6
SL5
  8
11
 62
2
 70
16
 10
224.597358
 20
175.111762
 30
0.0
  0
VERTEX
  6
SL5
  8
11
 62
2
 70
8
 10
224.597358
 20
175.111762
 30
0.0
  0
VERTEX
  6
SL5
  8
11
 62
2
 70
8
 10
224.610481
 20
174.614321
 30
0.0
  0
VERTEX
  6
SL5
  8
11
 62
2
 70
8
 10
224.626885
 20
174.392522
 30
0.0
  0
VERTEX
  6
SL5
  8
11
 62
2
 70
8
 10
224.649851
 20
174.188672
 30
0.0
  0
VERTEX
  6
SL5
  8
11
 62
2
 70
8
 10
224.679379
 20
174.00277
 30
0.0
  0
VERTEX
  6
SL5
  8
11
 62
2
 70
8
 10
224.715468
 20
173.834816
 30
0.0
  0
VERTEX
  6
SL5
  8
11
 62
2
 70
8
 10
224.758119
 20
173.68481
 30
0.0
  0
VERTEX
  6
SL5
  8
11
 62
2
 70
8
 10
224.807332
 20
173.552753
 30
0.0
  0
VERTEX
  6
SL5
  8
11
 62
2
 70
8
 10
224.863106
 20
173.438643
 30
0.0
  0
VERTEX
  6
SL5
  8
11
 62
2
 70
8
 10
224.925442
 20
173.342482
 30
0.0
  0
VERTEX
  6
SL5
  8
11
 62
2
 70
8
 10
224.99434
 20
173.264268
 30
0.0
  0
VERTEX
  6
SL5
  8
11
 62
2
 70
8
 10
225.069799
 20
173.204003
 30
0.0
  0
VERTEX
  6
SL5
  8
11
 62
2
 70
8
 10
225.15182
 20
173.161686
 30
0.0
  0
VERTEX
  6
SL5
  8
11
 62
2
 70
8
 10
225.240403
 20
173.137317
 30
0.0
  0
VERTEX
  6
SL5
  8
11
 62
2
 70
8
 10
225.335547
 20
173.130897
 30
0.0
  0
VERTEX
  6
SL5
  8
11
 62
2
 70
16
 10
225.335547
 20
173.130897
 30
0.0
  0
SEQEND
  0
POLYLINE
  6
SL5
  8
11
 62
2
 66
1
 70
0
  0
VERTEX
  6
SL5
  8
11
 62
2
 10
195.226027
 20
176.488353
 30
0.0
 42
0.355546
  0
VERTEX
  6
SL5
  8
11
 62
2
 10
193.265067
 20
178.08192
 30
0.0
  0
VERTEX
  6
SL5
  8
11
 62
2
 10
183.059539
 20
178.08192
 30
0.0
 42
0.414214
  0
VERTEX
  6
SL5
  8
11
 62
2
 10
181.059539
 20
176.08192
 30
0.0
  0
VERTEX
  6
SL5
  8
11
 62
2
 10
181.059539
 20
176.08192
 30
0.0
  0
SEQEND
  0
POLYLINE
  6
SL5
  8
11
 62
2
 66
1
 70
0
  0
VERTEX
  6
SL5
  8
11
 62
2
 10
203.059569
 20
170.111873
 30
0.0
 42
-1.0
  0
VERTEX
  6
SL5
  8
11
 62
2
 10
203.059569
 20
186.111888
 30
0.0
  0
VERTEX
  6
SL5
  8
11
 62
2
 10
208.059577
 20
186.111888
 30
0.0
 42
-1.0
  0
VERTEX
  6
SL5
  8
11
 62
2
 10
208.059577
 20
170.111888
 30
0.0
  0
VERTEX
  6
SL5
  8
11
 62
2
 10
203.059569
 20
170.111873
 30
0.0
  0
SEQEND
  0
CIRCLE
  6
SL2
  8
11
 62
1
 10
134.059577
 20
204.611873
 30
0.0
 40
11.999985
  0
CIRCLE
  6
SL5
  8
11
 62
2
 10
213.559562
 20
231.111903
 30
0.0
 40
8.0
  0
POLYLINE
  6
SL5
  8
11
 62
2
 66
1
 70
0
  0
VERTEX
  6
SL5
  8
11
 62
2
 10
221.559607
 20
225.391902
 30
0.0
  0
VERTEX
  6
SL5
  8
11
 62
2
 10
224.597373
 20
225.391902
 30
0.0
  0
VERTEX
  6
SL5
  8
11
 62
2
 70
16
 10
224.597373
 20
225.391902
 30
0.0
  0
VERTEX
  6
SL5
  8
11
 62
2
 70
8
 10
224.597373
 20
225.391902
 30
0.0
  0
VERTEX
  6
SL5
  8
11
 62
2
 70
8
 10
224.644307
 20
225.834807
 30
0.0
  0
VERTEX
  6
SL5
  8
11
 62
2
 70
8
 10
224.706022
 20
226.070644
 30
0.0
  0
VERTEX
  6
SL5
  8
11
 62
2
 70
8
 10
224.795084
 20
226.311763
 30
0.0
  0
VERTEX
  6
SL5
  8
11
 62
2
 70
8
 10
224.911856
 20
226.554213
 30
0.0
  0
VERTEX
  6
SL5
  8
11
 62
2
 70
8
 10
225.055727
 20
226.79366
 30
0.0
  0
VERTEX
  6
SL5
  8
11
 62
2
 70
8
 10
225.225059
 20
227.025617
 30
0.0
  0
VERTEX
  6
SL5
  8
11
 62
2
 70
8
 10
225.417219
 20
227.245703
 30
0.0
  0
VERTEX
  6
SL5
  8
11
 62
2
 70
8
 10
225.628715
 20
227.449918
 30
0.0
  0
VERTEX
  6
SL5
  8
11
 62
2
 70
8
 10
225.855401
 20
227.634881
 30
0.0
  0
VERTEX
  6
SL5
  8
11
 62
2
 70
8
 10
226.092742
 20
227.798007
 30
0.0
  0
VERTEX
  6
SL5
  8
11
 62
2
 70
8
 10
226.336097
 20
227.937613
 30
0.0
  0
VERTEX
  6
SL5
  8
11
 62
2
 70
8
 10
226.580985
 20
228.052938
 30
0.0
  0
VERTEX
  6
SL5
  8
11
 62
2
 70
8
 10
226.823312
 20
228.144078
 30
0.0
  0
VERTEX
  6
SL5
  8
11
 62
2
 70
8
 10
227.059531
 20
228.211879
 30
0.0
  0
VERTEX
  6
SL5
  8
11
 62
2
 70
16
 10
227.059531
 20
228.211879
 30
0.0
  0
VERTEX
  6
SL5
  8
11
 62
2
 10
227.059531
 20
234.112025
 30
0.0
 42
0.414214
  0
VERTEX
  6
SL5
  8
11
 62
2
 10
225.059501
 20
236.112025
 30
0.0
  0
VERTEX
  6
SL5
  8
11
 62
2
 10
224.569587
 20
236.112025
 30
0.0
  0
VERTEX
  6
SL5
  8
11
 62
2
 10
223.059577
 20
236.112025
 30
0.0
  0
VERTEX
  6
SL5
  8
11
 62
2
 10
219.80445
 20
236.112025
 30
0.0
  0
SEQEND
  0
POLYLINE
  6
SL5
  8
11
 62
2
 66
1
 70
0
  0
VERTEX
  6
SL5
  8
11
 62
2
 10
313.059493
 20
196.009486
 30
0.0
 42
-0.414214
  0
VERTEX
  6
SL5
  8
11
 62
2
 10
311.059493
 20
198.009486
 30
0.0
  0
VERTEX
  6
SL5
  8
11
 62
2
 10
311.059493
 20
211.009486
 30
0.0
 42
-0.414214
  0
VERTEX
  6
SL5
  8
11
 62
2
 10
313.059493
 20
213.009486
 30
0.0
  0
VERTEX
  6
SL5
  8
11
 62
2
 10
325.059493
 20
213.009486
 30
0.0
 42
-0.414214
  0
VERTEX
  6
SL5
  8
11
 62
2
 10
327.059493
 20
211.009486
 30
0.0
  0
VERTEX
  6
SL5
  8
11
 62
2
 10
327.059493
 20
198.009486
 30
0.0
 42
-0.414214
  0
VERTEX
  6
SL5
  8
11
 62
2
 10
325.059493
 20
196.009486
 30
0.0
  0
VERTEX
  6
SL5
  8
11
 62
2
 10
313.059493
 20
196.009486
 30
0.0
  0
SEQEND
  0
POLYLINE
  6
SL5
  8
11
 62
2
 66
1
 70
0
  0
VERTEX
  6
SL5
  8
11
 62
2
 10
224.059562
 20
204.611873
 30
0.0
  0
VERTEX
  6
SL5
  8
11
 62
2
 10
224.059562
 20
211.111873
 30
0.0
 42
-0.414214
  0
VERTEX
  6
SL5
  8
11
 62
2
 10
226.059531
 20
213.111873
 30
0.0
  0
VERTEX
  6
SL5
  8
11
 62
2
 10
262.059508
 20
213.111857
 30
0.0
 42
-0.414214
  0
VERTEX
  6
SL5
  8
11
 62
2
 10
264.059508
 20
211.111857
 30
0.0
  0
VERTEX
  6
SL5
  8
11
 62
2
 10
264.059508
 20
198.111857
 30
0.0
 42
-0.414214
  0
VERTEX
  6
SL5
  8
11
 62
2
 10
262.059493
 20
196.111857
 30
0.0
  0
VERTEX
  6
SL5
  8
11
 62
2
 10
226.059562
 20
196.111903
 30
0.0
 42
-0.414214
  0
VERTEX
  6
SL5
  8
11
 62
2
 10
224.059562
 20
198.111903
 30
0.0
  0
VERTEX
  6
SL5
  8
11
 62
2
 10
224.059562
 20
204.611873
 30
0.0
  0
SEQEND
  0
POLYLINE
  6
SL5
  8
11
 62
2
 66
1
 70
0
  0
VERTEX
  6
SL5
  8
11
 62
2
 10
227.059531
 20
180.611842
 30
0.0
  0
VERTEX
  6
SL5
  8
11
 62
2
 10
291.239867
 20
180.611842
 30
0.0
  0
VERTEX
  6
SL5
  8
11
 62
2
 10
298.195556
 20
180.611873
 30
0.0
  0
VERTEX
  6
SL5
  8
11
 62
2
 10
308.059508
 20
180.611873
 30
0.0
 42
-0.414214
  0
VERTEX
  6
SL5
  8
11
 62
2
 10
310.059539
 20
178.611873
 30
0.0
  0
VERTEX
  6
SL5
  8
11
 62
2
 10
310.059539
 20
177.611873
 30
0.0
  0
VERTEX
  6
SL5
  8
11
 62
2
 10
310.059508
 20
173.611888
 30
0.0
 42
0.414214
  0
VERTEX
  6
SL5
  8
11
 62
2
 10
312.059508
 20
171.611873
 30
0.0
  0
VERTEX
  6
SL5
  8
11
 62
2
 10
336.059447
 20
171.611873
 30
0.0
  0
SEQEND
  0
POLYLINE
  6
SL5
  8
11
 62
2
 66
1
 70
0
  0
VERTEX
  6
SL5
  8
11
 62
2
 10
335.559569
 20
186.723384
 30
0.0
  0
VERTEX
  6
SL5
  8
11
 62
2
 10
327.203109
 20
186.723384
 30
0.0
  0
SEQEND
  0
POLYLINE
  6
SL5
  8
11
 62
2
 66
1
 70
0
  0
VERTEX
  6
SL5
  8
11
 62
2
 10
311.163543
 20
186.723414
 30
0.0
  0
VERTEX
  6
SL5
  8
11
 62
2
 10
311.059508
 20
186.723414
 30
0.0
  0
VERTEX
  6
SL5
  8
11
 62
2
 70
16
 10
311.059508
 20
186.723414
 30
0.0
  0
VERTEX
  6
SL5
  8
11
 62
2
 70
8
 10
311.059508
 20
186.723414
 30
0.0
  0
VERTEX
  6
SL5
  8
11
 62
2
 70
8
 10
310.865148
 20
186.694808
 30
0.0
  0
VERTEX
  6
SL5
  8
11
 62
2
 70
8
 10
310.765687
 20
186.657204
 30
0.0
  0
VERTEX
  6
SL5
  8
11
 62
2
 70
8
 10
310.666848
 20
186.602941
 30
0.0
  0
VERTEX
  6
SL5
  8
11
 62
2
 70
8
 10
310.570452
 20
186.531797
 30
0.0
  0
VERTEX
  6
SL5
  8
11
 62
2
 70
8
 10
310.478383
 20
186.444145
 30
0.0
  0
VERTEX
  6
SL5
  8
11
 62
2
 70
8
 10
310.392483
 20
186.340984
 30
0.0
  0
VERTEX
  6
SL5
  8
11
 62
2
 70
8
 10
310.314437
 20
186.223915
 30
0.0
  0
VERTEX
  6
SL5
  8
11
 62
2
 70
8
 10
310.245662
 20
186.095069
 30
0.0
  0
VERTEX
  6
SL5
  8
11
 62
2
 70
8
 10
310.187227
 20
185.956969
 30
0.0
  0
VERTEX
  6
SL5
  8
11
 62
2
 70
8
 10
310.139799
 20
185.812379
 30
0.0
  0
VERTEX
  6
SL5
  8
11
 62
2
 70
8
 10
310.103626
 20
185.664127
 30
0.0
  0
VERTEX
  6
SL5
  8
11
 62
2
 70
8
 10
310.078558
 20
185.514942
 30
0.0
  0
VERTEX
  6
SL5
  8
11
 62
2
 70
8
 10
310.064104
 20
185.367318
 30
0.0
  0
VERTEX
  6
SL5
  8
11
 62
2
 70
8
 10
310.059493
 20
185.223414
 30
0.0
  0
VERTEX
  6
SL5
  8
11
 62
2
 70
16
 10
310.059493
 20
185.223414
 30
0.0
  0
VERTEX
  6
SL5
  8
11
 62
2
 10
310.059493
 20
184.723384
 30
0.0
  0
VERTEX
  6
SL5
  8
11
 62
2
 10
310.059493
 20
184.723384
 30
0.0
  0
VERTEX
  6
SL5
  8
11
 62
2
 10
310.059539
 20
178.611873
 30
0.0
  0
SEQEND
  0
POLYLINE
  6
SL5
  8
11
 62
2
 66
1
 70
0
  0
VERTEX
  6
SL5
  8
11
 62
2
 10
335.559569
 20
186.723315
 30
0.0
  0
VERTEX
  6
SL5
  8
11
 62
2
 10
335.559569
 20
204.611865
 30
0.0
  0
SEQEND
  0
POLYLINE
  6
SL5
  8
11
 62
2
 66
1
 70
0
  0
VERTEX
  6
SL5
  8
11
 62
2
 10
311.163558
 20
222.500392
 30
0.0
  0
VERTEX
  6
SL5
  8
11
 62
2
 10
311.059524
 20
222.500392
 30
0.0
  0
VERTEX
  6
SL5
  8
11
 62
2
 70
16
 10
311.059524
 20
222.500392
 30
0.0
  0
VERTEX
  6
SL5
  8
11
 62
2
 70
8
 10
311.059524
 20
222.500392
 30
0.0
  0
VERTEX
  6
SL5
  8
11
 62
2
 70
8
 10
310.865162
 20
222.528987
 30
0.0
  0
VERTEX
  6
SL5
  8
11
 62
2
 70
8
 10
310.765701
 20
222.566586
 30
0.0
  0
VERTEX
  6
SL5
  8
11
 62
2
 70
8
 10
310.666862
 20
222.620845
 30
0.0
  0
VERTEX
  6
SL5
  8
11
 62
2
 70
8
 10
310.570466
 20
222.691985
 30
0.0
  0
VERTEX
  6
SL5
  8
11
 62
2
 70
8
 10
310.478397
 20
222.779635
 30
0.0
  0
VERTEX
  6
SL5
  8
11
 62
2
 70
8
 10
310.392497
 20
222.882796
 30
0.0
  0
VERTEX
  6
SL5
  8
11
 62
2
 70
8
 10
310.31445
 20
222.999864
 30
0.0
  0
VERTEX
  6
SL5
  8
11
 62
2
 70
8
 10
310.245676
 20
223.128711
 30
0.0
  0
VERTEX
  6
SL5
  8
11
 62
2
 70
8
 10
310.187241
 20
223.266813
 30
0.0
  0
VERTEX
  6
SL5
  8
11
 62
2
 70
8
 10
310.139813
 20
223.411406
 30
0.0
  0
VERTEX
  6
SL5
  8
11
 62
2
 70
8
 10
310.10364
 20
223.559663
 30
0.0
  0
VERTEX
  6
SL5
  8
11
 62
2
 70
8
 10
310.078573
 20
223.708853
 30
0.0
  0
VERTEX
  6
SL5
  8
11
 62
2
 70
8
 10
310.064119
 20
223.856483
 30
0.0
  0
VERTEX
  6
SL5
  8
11
 62
2
 70
8
 10
310.059508
 20
224.000392
 30
0.0
  0
VERTEX
  6
SL5
  8
11
 62
2
 70
16
 10
310.059508
 20
224.000392
 30
0.0
  0
VERTEX
  6
SL5
  8
11
 62
2
 10
310.059508
 20
224.500422
 30
0.0
  0
VERTEX
  6
SL5
  8
11
 62
2
 10
310.059508
 20
224.500422
 30
0.0
  0
VERTEX
  6
SL5
  8
11
 62
2
 10
310.059554
 20
230.611934
 30
0.0
  0
SEQEND
  0
POLYLINE
  6
SL5
  8
11
 62
2
 66
1
 70
0
  0
VERTEX
  6
SL5
  8
11
 62
2
 10
325.328673
 20
215.551112
 30
0.0
  0
VERTEX
  6
SL5
  8
11
 62
2
 10
327.203124
 20
222.500422
 30
0.0
  0
VERTEX
  6
SL5
  8
11
 62
2
 10
327.203124
 20
235.610972
 30
0.0
 42
0.414214
  0
VERTEX
  6
SL5
  8
11
 62
2
 10
325.203124
 20
237.610972
 30
0.0
  0
VERTEX
  6
SL5
  8
11
 62
2
 10
313.15364
 20
237.610972
 30
0.0
 42
0.414214
  0
VERTEX
  6
SL5
  8
11
 62
2
 10
311.15364
 20
235.610972
 30
0.0
  0
VERTEX
  6
SL5
  8
11
 62
2
 10
311.15364
 20
222.542048
 30
0.0
  0
VERTEX
  6
SL5
  8
11
 62
2
 10
312.812209
 20
215.589839
 30
0.0
  0
SEQEND
  0
POLYLINE
  6
SL5
  8
11
 62
2
 66
1
 70
0
  0
VERTEX
  6
SL5
  8
11
 62
2
 10
335.059478
 20
204.611888
 30
0.0
  0
VERTEX
  6
SL5
  8
11
 62
2
 10
335.059478
 20
212.553248
 30
0.0
 42
0.414214
  0
VERTEX
  6
SL5
  8
11
 62
2
 10
333.059478
 20
214.553248
 30
0.0
  0
VERTEX
  6
SL5
  8
11
 62
2
 10
327.059508
 20
214.553248
 30
0.0
 42
-0.414214
  0
VERTEX
  6
SL5
  8
11
 62
2
 10
325.059508
 20
216.553248
 30
0.0
  0
VERTEX
  6
SL5
  8
11
 62
2
 10
325.059493
 20
235.610972
 30
0.0
 42
0.414214
  0
VERTEX
  6
SL5
  8
11
 62
2
 10
323.059493
 20
237.610972
 30
0.0
  0
VERTEX
  6
SL5
  8
11
 62
2
 10
315.059493
 20
237.610972
 30
0.0
 42
0.414214
  0
VERTEX
  6
SL5
  8
11
 62
2
 10
313.059493
 20
235.610972
 30
0.0
  0
VERTEX
  6
SL5
  8
11
 62
2
 10
313.059508
 20
216.553248
 30
0.0
 42
-0.414214
  0
VERTEX
  6
SL5
  8
11
 62
2
 10
311.059508
 20
214.553248
 30
0.0
  0
VERTEX
  6
SL5
  8
11
 62
2
 10
183.059546
 20
214.553248
 30
0.0
 42
-0.414214
  0
VERTEX
  6
SL5
  8
11
 62
2
 10
181.059546
 20
216.553248
 30
0.0
  0
VERTEX
  6
SL5
  8
11
 62
2
 10
181.059546
 20
235.610911
 30
0.0
 42
0.414214
  0
VERTEX
  6
SL5
  8
11
 62
2
 10
179.059546
 20
237.610911
 30
0.0
  0
VERTEX
  6
SL5
  8
11
 62
2
 10
162.996299
 20
237.610911
 30
0.0
 42
0.342142
  0
VERTEX
  6
SL5
  8
11
 62
2
 10
161.059554
 20
239.111903
 30
0.0
  0
SEQEND
  0
POLYLINE
  6
SL5
  8
11
 62
2
 66
1
 70
0
  0
VERTEX
  6
SL5
  8
11
 62
2
 10
181.059546
 20
228.846827
 30
0.0
  0
VERTEX
  6
SL5
  8
11
 62
2
 10
181.059531
 20
225.791865
 30
0.0
 42
0.414214
  0
VERTEX
  6
SL5
  8
11
 62
2
 10
183.059531
 20
223.791865
 30
0.0
  0
VERTEX
  6
SL5
  8
11
 62
2
 10
203.559562
 20
223.791865
 30
0.0
 42
0.414214
  0
VERTEX
  6
SL5
  8
11
 62
2
 10
205.559562
 20
225.791865
 30
0.0
  0
VERTEX
  6
SL5
  8
11
 62
2
 10
205.559562
 20
231.111903
 30
0.0
  0
SEQEND
  0
POLYLINE
  6
SL5
  8
11
 62
2
 66
1
 70
0
  0
VERTEX
  6
SL5
  8
11
 62
2
 10
181.059546
 20
233.141871
 30
0.0
  0
VERTEX
  6
SL5
  8
11
 62
2
 10
181.059546
 20
233.141871
 30
0.0
 42
0.414214
  0
VERTEX
  6
SL5
  8
11
 62
2
 10
183.059539
 20
231.141871
 30
0.0
  0
VERTEX
  6
SL5
  8
11
 62
2
 10
203.765075
 20
231.141871
 30
0.0
 42
0.355546
  0
VERTEX
  6
SL5
  8
11
 62
2
 10
205.726035
 20
232.735438
 30
0.0
  0
SEQEND
  0
POLYLINE
  6
SL5
  8
11
 62
2
 66
1
 70
0
  0
VERTEX
  6
SL5
  8
11
 62
2
 10
181.059554
 20
181.262416
 30
0.0
  0
VERTEX
  6
SL5
  8
11
 62
2
 10
181.059554
 20
183.43191
 30
0.0
 42
-0.414214
  0
VERTEX
  6
SL5
  8
11
 62
2
 10
183.059554
 20
185.43191
 30
0.0
  0
VERTEX
  6
SL5
  8
11
 62
2
 10
193.059546
 20
185.431895
 30
0.0
 42
-0.414214
  0
VERTEX
  6
SL5
  8
11
 62
2
 10
195.059539
 20
183.431895
 30
0.0
  0
VERTEX
  6
SL5
  8
11
 62
2
 10
195.059562
 20
178.111873
 30
0.0
  0
SEQEND
  0
POLYLINE
  6
SL5
  8
11
 62
2
 66
1
 70
0
  0
VERTEX
  6
SL5
  8
11
 62
2
 10
224.597358
 20
225.391894
 30
0.0
  0
VERTEX
  6
SL5
  8
11
 62
2
 10
224.597342
 20
234.112002
 30
0.0
  0
VERTEX
  6
SL5
  8
11
 62
2
 70
16
 10
224.597342
 20
234.112002
 30
0.0
  0
VERTEX
  6
SL5
  8
11
 62
2
 70
8
 10
224.597342
 20
234.112002
 30
0.0
  0
VERTEX
  6
SL5
  8
11
 62
2
 70
8
 10
224.610466
 20
234.609443
 30
0.0
  0
VERTEX
  6
SL5
  8
11
 62
2
 70
8
 10
224.62687
 20
234.831242
 30
0.0
  0
VERTEX
  6
SL5
  8
11
 62
2
 70
8
 10
224.649836
 20
235.035092
 30
0.0
  0
VERTEX
  6
SL5
  8
11
 62
2
 70
8
 10
224.679364
 20
235.220994
 30
0.0
  0
VERTEX
  6
SL5
  8
11
 62
2
 70
8
 10
224.715453
 20
235.388948
 30
0.0
  0
VERTEX
  6
SL5
  8
11
 62
2
 70
8
 10
224.758104
 20
235.538954
 30
0.0
  0
VERTEX
  6
SL5
  8
11
 62
2
 70
8
 10
224.807316
 20
235.671012
 30
0.0
  0
VERTEX
  6
SL5
  8
11
 62
2
 70
8
 10
224.863091
 20
235.785121
 30
0.0
  0
VERTEX
  6
SL5
  8
11
 62
2
 70
8
 10
224.925427
 20
235.881283
 30
0.0
  0
VERTEX
  6
SL5
  8
11
 62
2
 70
8
 10
224.994324
 20
235.959496
 30
0.0
  0
VERTEX
  6
SL5
  8
11
 62
2
 70
8
 10
225.069784
 20
236.019761
 30
0.0
  0
VERTEX
  6
SL5
  8
11
 62
2
 70
8
 10
225.151805
 20
236.062078
 30
0.0
  0
VERTEX
  6
SL5
  8
11
 62
2
 70
8
 10
225.240388
 20
236.086447
 30
0.0
  0
VERTEX
  6
SL5
  8
11
 62
2
 70
8
 10
225.335532
 20
236.092868
 30
0.0
  0
VERTEX
  6
SL5
  8
11
 62
2
 70
16
 10
225.335532
 20
236.092868
 30
0.0
  0
SEQEND
  0
POLYLINE
  6
SL5
  8
11
 62
2
 66
1
 70
0
  0
VERTEX
  6
SL5
  8
11
 62
2
 10
216.059546
 20
183.831874
 30
0.0
  0
VERTEX
  6
SL5
  8
11
 62
2
 10
224.597373
 20
183.831874
 30
0.0
  0
VERTEX
  6
SL5
  8
11
 62
2
 70
16
 10
224.597373
 20
183.831874
 30
0.0
  0
VERTEX
  6
SL5
  8
11
 62
2
 70
8
 10
224.597373
 20
183.831874
 30
0.0
  0
VERTEX
  6
SL5
  8
11
 62
2
 70
8
 10
224.644307
 20
183.388955
 30
0.0
  0
VERTEX
  6
SL5
  8
11
 62
2
 70
8
 10
224.706022
 20
183.153112
 30
0.0
  0
VERTEX
  6
SL5
  8
11
 62
2
 70
8
 10
224.795084
 20
182.911989
 30
0.0
  0
VERTEX
  6
SL5
  8
11
 62
2
 70
8
 10
224.911856
 20
182.669535
 30
0.0
  0
VERTEX
  6
SL5
  8
11
 62
2
 70
8
 10
225.055727
 20
182.430084
 30
0.0
  0
VERTEX
  6
SL5
  8
11
 62
2
 70
8
 10
225.225059
 20
182.198127
 30
0.0
  0
VERTEX
  6
SL5
  8
11
 62
2
 70
8
 10
225.417219
 20
181.978041
 30
0.0
  0
VERTEX
  6
SL5
  8
11
 62
2
 70
8
 10
225.628715
 20
181.773826
 30
0.0
  0
VERTEX
  6
SL5
  8
11
 62
2
 70
8
 10
225.855401
 20
181.588867
 30
0.0
  0
VERTEX
  6
SL5
  8
11
 62
2
 70
8
 10
226.092742
 20
181.425745
 30
0.0
  0
VERTEX
  6
SL5
  8
11
 62
2
 70
8
 10
226.336097
 20
181.286143
 30
0.0
  0
VERTEX
  6
SL5
  8
11
 62
2
 70
8
 10
226.580985
 20
181.170824
 30
0.0
  0
VERTEX
  6
SL5
  8
11
 62
2
 70
8
 10
226.823312
 20
181.07969
 30
0.0
  0
VERTEX
  6
SL5
  8
11
 62
2
 70
8
 10
227.059531
 20
181.011897
 30
0.0
  0
VERTEX
  6
SL5
  8
11
 62
2
 70
16
 10
227.059531
 20
181.011897
 30
0.0
  0
VERTEX
  6
SL5
  8
11
 62
2
 10
227.059531
 20
175.111751
 30
0.0
 42
-0.414214
  0
VERTEX
  6
SL5
  8
11
 62
2
 10
225.059501
 20
173.111751
 30
0.0
  0
VERTEX
  6
SL5
  8
11
 62
2
 10
224.569587
 20
173.111751
 30
0.0
  0
VERTEX
  6
SL5
  8
11
 62
2
 10
223.059577
 20
173.111751
 30
0.0
  0
VERTEX
  6
SL5
  8
11
 62
2
 10
214.30445
 20
173.111751
 30
0.0
  0
SEQEND
  0
CIRCLE
  6
SL5
  8
11
 62
2
 10
107.559619
 20
175.111873
 30
0.0
 40
2.5
  0
CIRCLE
  6
SL5
  8
11
 62
2
 10
107.559619
 20
175.111873
 30
0.0
 40
3.5
  0
POLYLINE
  6
SL5
  8
11
 62
2
 66
1
 70
0
  0
VERTEX
  6
SL5
  8
11
 62
2
 10
181.059554
 20
191.91183
 30
0.0
 42
0.414214
  0
VERTEX
  6
SL5
  8
11
 62
2
 10
183.059554
 20
189.91183
 30
0.0
  0
VERTEX
  6
SL5
  8
11
 62
2
 10
186.059569
 20
189.91183
 30
0.0
  0
VERTEX
  6
SL5
  8
11
 62
2
 10
214.059546
 20
189.896205
 30
0.0
 42
-0.414214
  0
VERTEX
  6
SL5
  8
11
 62
2
 10
216.059546
 20
187.896205
 30
0.0
  0
VERTEX
  6
SL5
  8
11
 62
2
 10
216.059546
 20
178.111888
 30
0.0
  0
SEQEND
  0
CIRCLE
  6
SL5
  8
11
 62
2
 10
107.559619
 20
234.111934
 30
0.0
 40
2.5
  0
POLYLINE
  6
SL2
  8
11
 62
1
 66
1
 70
0
  0
VERTEX
  6
SL2
  8
11
 62
1
 10
134.059577
 20
204.611903
 30
0.0
  0
VERTEX
  6
SL2
  8
11
 62
1
 10
134.059577
 20
244.045192
 30
0.0
  0
SEQEND
  0
CIRCLE
  6
SL5
  8
11
 62
2
 10
107.559619
 20
234.111934
 30
0.0
 40
3.5
  0
POLYLINE
  6
SL5
  8
11
 62
2
 66
1
 70
0
  0
VERTEX
  6
SL5
  8
11
 62
2
 10
221.559562
 20
231.111903
 30
0.0
  0
VERTEX
  6
SL5
  8
11
 62
2
 10
221.559592
 20
221.311946
 30
0.0
 42
-0.414214
  0
VERTEX
  6
SL5
  8
11
 62
2
 10
219.559592
 20
219.311946
 30
0.0
  0
VERTEX
  6
SL5
  8
11
 62
2
 10
186.059569
 20
219.311946
 30
0.0
  0
VERTEX
  6
SL5
  8
11
 62
2
 10
183.059524
 20
219.311915
 30
0.0
 42
0.414214
  0
VERTEX
  6
SL5
  8
11
 62
2
 10
181.059539
 20
217.311915
 30
0.0
  0
VERTEX
  6
SL5
  8
11
 62
2
 10
181.059539
 20
217.311915
 30
0.0
  0
SEQEND
  0
POLYLINE
  6
SL5
  8
11
 62
2
 66
1
 70
0
  0
VERTEX
  6
SL5
  8
11
 62
2
 10
168.559569
 20
204.611926
 30
0.0
  0
VERTEX
  6
SL5
  8
11
 62
2
 10
168.559569
 20
235.610904
 30
0.0
 42
-0.414214
  0
VERTEX
  6
SL5
  8
11
 62
2
 10
170.559569
 20
237.610904
 30
0.0
  0
VERTEX
  6
SL5
  8
11
 62
2
 10
170.559569
 20
237.610904
 30
0.0
  0
SEQEND
  0
POLYLINE
  6
SL5
  8
11
 62
2
 66
1
 70
0
  0
VERTEX
  6
SL5
  8
11
 62
2
 10
335.559585
 20
222.500483
 30
0.0
  0
VERTEX
  6
SL5
  8
11
 62
2
 10
335.559585
 20
204.611934
 30
0.0
  0
SEQEND
  0
POLYLINE
  6
SL5
  8
11
 62
2
 66
1
 70
0
  0
VERTEX
  6
SL5
  8
11
 62
2
 10
227.059531
 20
228.611934
 30
0.0
  0
VERTEX
  6
SL5
  8
11
 62
2
 10
298.195571
 20
228.611934
 30
0.0
  0
VERTEX
  6
SL5
  8
11
 62
2
 10
308.059524
 20
228.611934
 30
0.0
 42
0.414214
  0
VERTEX
  6
SL5
  8
11
 62
2
 10
310.059554
 20
230.611934
 30
0.0
  0
VERTEX
  6
SL5
  8
11
 62
2
 10
310.059554
 20
231.611934
 30
0.0
  0
VERTEX
  6
SL5
  8
11
 62
2
 10
310.059539
 20
235.611842
 30
0.0
 42
-0.414214
  0
VERTEX
  6
SL5
  8
11
 62
2
 10
312.059524
 20
237.611857
 30
0.0
  0
VERTEX
  6
SL5
  8
11
 62
2
 10
319.059524
 20
237.611857
 30
0.0
  0
VERTEX
  6
SL5
  8
11
 62
2
 10
336.059508
 20
237.611873
 30
0.0
  0
SEQEND
  0
POLYLINE
  6
SL5
  8
11
 62
2
 66
1
 70
0
  0
VERTEX
  6
SL5
  8
11
 62
2
 10
335.559585
 20
222.500483
 30
0.0
  0
VERTEX
  6
SL5
  8
11
 62
2
 10
327.203124
 20
222.500422
 30
0.0
  0
SEQEND
  0
ENDBLK
  8
0
  0
BLOCK
  8
0
  2
MEDCLUMP_S2T_39_
 70
64
 10
0.0
 20
0.0
 30
0.0
  0
INSERT
  8
0
  2
MEDCLUMP_SET_40_
 10
0.0
 20
0.0
 30
0.0
  0
INSERT
  8
0
  2
MEDCLUMP_SET_97_
 10
0.0
 20
0.0
 30
0.0
  0
ENDBLK
  8
0
  0
BLOCK
  8
0
  2
MEDCLUMP_SET_37_
 70
64
 10
0.0
 20
0.0
 30
0.0
  0
POLYLINE
  6
SL5
  8
11
 62
2
 66
1
 70
0
  0
VERTEX
  6
SL5
  8
11
 62
2
 10
222.246901
 20
223.051326
 30
0.0
  0
VERTEX
  6
SL5
  8
11
 62
2
 10
222.246901
 20
223.051326
 30
0.0
  0
SEQEND
  0
ENDBLK
  8
0
  0
BLOCK
  8
0
  2
MEDCLUMP_S2T_36_
 70
64
 10
0.0
 20
0.0
 30
0.0
  0
INSERT
  8
0
  2
MEDCLUMP_SET_37_
 10
0.0
 20
0.0
 30
0.0
  0
ENDBLK
  8
0
  0
BLOCK
  8
0
  2
MEDCLUMP_SET_24_
 70
64
 10
0.0
 20
0.0
 30
0.0
  0
POLYLINE
  6
SL5
  8
11
 62
2
 66
1
 70
0
  0
VERTEX
  6
SL5
  8
11
 62
2
 10
351.369109
 20
178.45386
 30
0.0
 42
-0.7338
  0
VERTEX
  6
SL5
  8
11
 62
2
 10
355.499785
 20
176.069011
 30
0.0
  0
VERTEX
  6
SL5
  8
11
 62
2
 10
351.369109
 20
178.45386
 30
0.0
  0
SEQEND
  0
POLYLINE
  6
SL5
  8
11
 62
2
 66
1
 70
0
  0
VERTEX
  6
SL5
  8
11
 62
2
 10
350.619109
 20
177.154803
 30
0.0
 42
0.733795
  0
VERTEX
  6
SL5
  8
11
 62
2
 10
354.749785
 20
174.769961
 30
0.0
  0
VERTEX
  6
SL5
  8
11
 62
2
 10
350.619109
 20
177.154803
 30
0.0
  0
SEQEND
  0
POLYLINE
  6
SL5
  8
11
 62
2
 66
1
 70
0
  0
VERTEX
  6
SL5
  8
11
 62
2
 10
350.619094
 20
177.154811
 30
0.0
 42
-0.153536
  0
VERTEX
  6
SL5
  8
11
 62
2
 10
351.369109
 20
178.45386
 30
0.0
  0
SEQEND
  0
POLYLINE
  6
SL5
  8
11
 62
2
 66
1
 70
0
  0
VERTEX
  6
SL5
  8
11
 62
2
 10
355.49977
 20
176.069018
 30
0.0
 42
-0.153538
  0
VERTEX
  6
SL5
  8
11
 62
2
 10
354.749785
 20
174.769961
 30
0.0
  0
SEQEND
  0
ENDBLK
  8
0
  0
BLOCK
  8
0
  2
MEDCLUMP_SET_19_
 70
64
 10
0.0
 20
0.0
 30
0.0
  0
POLYLINE
  6
SL5
  8
11
 62
2
 66
1
 70
0
  0
VERTEX
  6
SL5
  8
11
 62
2
 10
351.369109
 20
234.453853
 30
0.0
 42
-0.7338
  0
VERTEX
  6
SL5
  8
11
 62
2
 10
355.499785
 20
232.069003
 30
0.0
  0
VERTEX
  6
SL5
  8
11
 62
2
 10
351.369109
 20
234.453853
 30
0.0
  0
SEQEND
  0
POLYLINE
  6
SL5
  8
11
 62
2
 66
1
 70
0
  0
VERTEX
  6
SL5
  8
11
 62
2
 10
350.619109
 20
233.154796
 30
0.0
 42
0.733795
  0
VERTEX
  6
SL5
  8
11
 62
2
 10
354.749785
 20
230.769954
 30
0.0
  0
VERTEX
  6
SL5
  8
11
 62
2
 10
350.619109
 20
233.154796
 30
0.0
  0
SEQEND
  0
POLYLINE
  6
SL5
  8
11
 62
2
 66
1
 70
0
  0
VERTEX
  6
SL5
  8
11
 62
2
 10
350.619094
 20
233.154803
 30
0.0
 42
-0.153536
  0
VERTEX
  6
SL5
  8
11
 62
2
 10
351.369109
 20
234.453853
 30
0.0
  0
SEQEND
  0
POLYLINE
  6
SL5
  8
11
 62
2
 66
1
 70
0
  0
VERTEX
  6
SL5
  8
11
 62
2
 10
355.49977
 20
232.069011
 30
0.0
 42
-0.153538
  0
VERTEX
  6
SL5
  8
11
 62
2
 10
354.749785
 20
230.769954
 30
0.0
  0
SEQEND
  0
ENDBLK
  8
0
  0
BLOCK
  8
0
  2
MEDCLUMP_SET_15_
 70
64
 10
0.0
 20
0.0
 30
0.0
  0
POLYLINE
  6
SL5
  8
11
 62
2
 66
1
 70
0
  0
VERTEX
  6
SL5
  8
11
 62
2
 10
354.016997
 20
185.676372
 30
0.0
  0
VERTEX
  6
SL5
  8
11
 62
2
 10
361.045012
 20
192.704371
 30
0.0
  0
SEQEND
  0
POLYLINE
  6
SL5
  8
11
 62
2
 66
1
 70
0
  0
VERTEX
  6
SL5
  8
11
 62
2
 10
362.085418
 20
191.623469
 30
0.0
  0
VERTEX
  6
SL5
  8
11
 62
2
 10
355.073974
 20
184.612029
 30
0.0
  0
SEQEND
  0
POLYLINE
  6
SL5
  8
11
 62
2
 66
1
 70
0
  0
VERTEX
  6
SL5
  8
11
 62
2
 10
356.193786
 20
183.484405
 30
0.0
  0
VERTEX
  6
SL5
  8
11
 62
2
 10
352.872832
 20
186.828547
 30
0.0
 42
-0.042783
  0
VERTEX
  6
SL5
  8
11
 62
2
 10
352.637084
 20
187.738002
 30
0.0
  0
VERTEX
  6
SL5
  8
11
 62
2
 10
353.823699
 20
192.166484
 30
0.0
 42
-0.042782
  0
VERTEX
  6
SL5
  8
11
 62
2
 10
354.482573
 20
192.836192
 30
0.0
  0
VERTEX
  6
SL5
  8
11
 62
2
 10
359.030669
 20
194.071834
 30
0.0
 42
-0.042173
  0
VERTEX
  6
SL5
  8
11
 62
2
 10
359.925261
 20
193.832133
 30
0.0
  0
VERTEX
  6
SL5
  8
11
 62
2
 10
363.246581
 20
190.487056
 30
0.0
 42
-0.042792
  0
VERTEX
  6
SL5
  8
11
 62
2
 10
363.482238
 20
189.577373
 30
0.0
  0
VERTEX
  6
SL5
  8
11
 62
2
 10
362.296142
 20
185.15095
 30
0.0
 42
-0.042792
  0
VERTEX
  6
SL5
  8
11
 62
2
 10
361.637267
 20
184.480926
 30
0.0
  0
VERTEX
  6
SL5
  8
11
 62
2
 10
357.088347
 20
183.244704
 30
0.0
 42
-0.042171
  0
VERTEX
  6
SL5
  8
11
 62
2
 10
356.193786
 20
183.484405
 30
0.0
  0
SEQEND
  0
ENDBLK
  8
0
  0
BLOCK
  8
0
  2
MEDCLUMP_S3T_14_
 70
64
 10
0.0
 20
0.0
 30
0.0
  0
INSERT
  8
0
  2
MEDCLUMP_SET_15_
 10
0.0
 20
0.0
 30
0.0
  0
INSERT
  8
0
  2
MEDCLUMP_SET_19_
 10
0.0
 20
0.0
 30
0.0
  0
INSERT
  8
0
  2
MEDCLUMP_SET_24_
 10
0.0
 20
0.0
 30
0.0
  0
POLYLINE
  6
SL5
  8
11
 62
2
 66
1
 70
0
  0
VERTEX
  6
SL5
  8
11
 62
2
 10
341.059462
 20
183.611915
 30
0.0
  0
VERTEX
  6
SL5
  8
11
 62
2
 10
341.059462
 20
171.611915
 30
0.0
  0
SEQEND
  0
POLYLINE
  6
SL5
  8
11
 62
2
 66
1
 70
0
  0
VERTEX
  6
SL5
  8
11
 62
2
 10
341.059462
 20
225.611903
 30
0.0
  0
VERTEX
  6
SL5
  8
11
 62
2
 10
341.059462
 20
237.611911
 30
0.0
  0
SEQEND
  0
CIRCLE
  6
SL5
  8
11
 62
2
 10
334.059462
 20
177.611915
 30
0.0
 40
2.0
  0
CIRCLE
  6
SL5
  8
11
 62
2
 10
334.059462
 20
231.611896
 30
0.0
 40
2.0
  0
POLYLINE
  6
SL5
  8
11
 62
2
 66
1
 70
0
  0
VERTEX
  6
SL5
  8
11
 62
2
 10
331.059462
 20
171.611915
 30
0.0
 42
-0.414214
  0
VERTEX
  6
SL5
  8
11
 62
2
 10
329.059462
 20
173.611915
 30
0.0
  0
VERTEX
  6
SL5
  8
11
 62
2
 10
329.059462
 20
181.611915
 30
0.0
 42
-0.414214
  0
VERTEX
  6
SL5
  8
11
 62
2
 10
331.059462
 20
183.611915
 30
0.0
  0
VERTEX
  6
SL5
  8
11
 62
2
 10
341.059462
 20
183.611915
 30
0.0
  0
VERTEX
  6
SL5
  8
11
 62
2
 10
341.059462
 20
225.611903
 30
0.0
  0
VERTEX
  6
SL5
  8
11
 62
2
 10
331.059462
 20
225.611903
 30
0.0
 42
-0.414214
  0
VERTEX
  6
SL5
  8
11
 62
2
 10
329.059462
 20
227.611903
 30
0.0
  0
VERTEX
  6
SL5
  8
11
 62
2
 10
329.059462
 20
235.611903
 30
0.0
 42
-0.414214
  0
VERTEX
  6
SL5
  8
11
 62
2
 10
331.059447
 20
237.611903
 30
0.0
  0
VERTEX
  6
SL5
  8
11
 62
2
 10
356.559478
 20
237.611911
 30
0.0
 42
-0.414214
  0
VERTEX
  6
SL5
  8
11
 62
2
 10
358.559478
 20
235.611911
 30
0.0
  0
VERTEX
  6
SL5
  8
11
 62
2
 10
358.559478
 20
222.611911
 30
0.0
  0
VERTEX
  6
SL5
  8
11
 62
2
 10
360.559478
 20
220.611903
 30
0.0
  0
VERTEX
  6
SL5
  8
11
 62
2
 10
360.559478
 20
193.193377
 30
0.0
  0
SEQEND
  0
POLYLINE
  6
SL5
  8
11
 62
2
 66
1
 70
0
  0
VERTEX
  6
SL5
  8
11
 62
2
 10
353.554717
 20
191.861911
 30
0.0
  0
VERTEX
  6
SL5
  8
11
 62
2
 10
352.059447
 20
191.861911
 30
0.0
 42
1.0
  0
VERTEX
  6
SL5
  8
11
 62
2
 10
352.059447
 20
185.361911
 30
0.0
  0
VERTEX
  6
SL5
  8
11
 62
2
 10
354.116759
 20
185.361911
 30
0.0
  0
SEQEND
  0
POLYLINE
  6
SL5
  8
11
 62
2
 66
1
 70
0
  0
VERTEX
  6
SL5
  8
11
 62
2
 10
358.559478
 20
183.698752
 30
0.0
  0
VERTEX
  6
SL5
  8
11
 62
2
 10
358.559478
 20
173.611915
 30
0.0
 42
-0.414214
  0
VERTEX
  6
SL5
  8
11
 62
2
 10
356.559478
 20
171.611915
 30
0.0
  0
VERTEX
  6
SL5
  8
11
 62
2
 10
331.059462
 20
171.611915
 30
0.0
  0
SEQEND
  0
POLYLINE
  6
SL5
  8
11
 62
2
 66
1
 70
0
  0
VERTEX
  6
SL5
  8
11
 62
2
 10
338.059462
 20
183.611915
 30
0.0
  0
VERTEX
  6
SL5
  8
11
 62
2
 10
338.059462
 20
225.611903
 30
0.0
  0
SEQEND
  0
POLYLINE
  6
SL5
  8
11
 62
2
 66
1
 70
0
  0
VERTEX
  6
SL5
  8
11
 62
2
 10
341.059462
 20
188.611926
 30
0.0
  0
VERTEX
  6
SL5
  8
11
 62
2
 10
344.559447
 20
188.611911
 30
0.0
 42
0.414214
  0
VERTEX
  6
SL5
  8
11
 62
2
 10
347.559462
 20
191.611911
 30
0.0
  0
VERTEX
  6
SL5
  8
11
 62
2
 10
347.559462
 20
217.611926
 30
0.0
 42
0.414214
  0
VERTEX
  6
SL5
  8
11
 62
2
 10
344.559462
 20
220.611926
 30
0.0
  0
VERTEX
  6
SL5
  8
11
 62
2
 10
341.059462
 20
220.611926
 30
0.0
  0
SEQEND
  0
INSERT
  8
0
  2
MEDCLUMP_S2T_36_
 10
0.0
 20
0.0
 30
0.0
  0
INSERT
  8
0
  2
MEDCLUMP_S2T_39_
 10
0.0
 20
0.0
 30
0.0
  0
INSERT
  8
0
  2
MEDCLUMP_S2T_102_
 10
0.0
 20
0.0
 30
0.0
  0
INSERT
  8
0
  2
MEDCLUMP_S2T_146_
 10
0.0
 20
0.0
 30
0.0
  0
ENDBLK
  8
0
  0
BLOCK
  8
0
  2
MEDCLUMP_SET_7_
 70
64
 10
0.0
 20
0.0
 30
0.0
  0
POLYLINE
  6
SL2
  8
11
 62
1
 66
1
 70
0
  0
VERTEX
  6
SL2
  8
11
 62
1
 10
122.659591
 20
379.664691
 30
0.0
  0
VERTEX
  6
SL2
  8
11
 62
1
 10
123.393294
 20
393.664691
 30
0.0
  0
VERTEX
  6
SL2
  8
11
 62
1
 10
144.725875
 20
393.664691
 30
0.0
  0
VERTEX
  6
SL2
  8
11
 62
1
 10
145.459578
 20
379.664721
 30
0.0
  0
SEQEND
  0
POLYLINE
  6
SL2
  8
11
 62
1
 66
1
 70
0
  0
VERTEX
  6
SL2
  8
11
 62
1
 10
142.723128
 20
393.664691
 30
0.0
  0
VERTEX
  6
SL2
  8
11
 62
1
 10
143.456832
 20
379.664721
 30
0.0
  0
SEQEND
  0
POLYLINE
  6
SL2
  8
11
 62
1
 66
1
 70
0
  0
VERTEX
  6
SL2
  8
11
 62
1
 10
125.396041
 20
393.664691
 30
0.0
  0
VERTEX
  6
SL2
  8
11
 62
1
 10
124.662337
 20
379.664721
 30
0.0
  0
SEQEND
  0
POLYLINE
  6
SL2
  8
11
 62
1
 66
1
 70
0
  0
VERTEX
  6
SL2
  8
11
 62
1
 10
126.809585
 20
376.664752
 30
0.0
  0
VERTEX
  6
SL2
  8
11
 62
1
 10
128.074477
 20
367.664721
 30
0.0
  0
VERTEX
  6
SL2
  8
11
 62
1
 10
140.044723
 20
367.664721
 30
0.0
  0
VERTEX
  6
SL2
  8
11
 62
1
 10
141.309585
 20
376.664752
 30
0.0
  0
SEQEND
  0
POLYLINE
  6
SL2
  8
11
 62
1
 66
1
 70
0
  0
VERTEX
  6
SL2
  8
11
 62
1
 10
146.559585
 20
376.664721
 30
0.0
  0
VERTEX
  6
SL2
  8
11
 62
1
 10
121.559585
 20
376.664721
 30
0.0
  0
VERTEX
  6
SL2
  8
11
 62
1
 10
121.559585
 20
379.664721
 30
0.0
  0
VERTEX
  6
SL2
  8
11
 62
1
 10
146.559585
 20
379.664721
 30
0.0
  0
VERTEX
  6
SL2
  8
11
 62
1
 10
146.559585
 20
376.664721
 30
0.0
  0
SEQEND
  0
POLYLINE
  6
SL2
  8
11
 62
1
 66
1
 70
0
  0
VERTEX
  6
SL2
  8
11
 62
1
 10
134.059585
 20
364.150195
 30
0.0
  0
VERTEX
  6
SL2
  8
11
 62
1
 10
134.059585
 20
396.341357
 30
0.0
  0
SEQEND
  0
ENDBLK
  8
0
  0
BLOCK
  8
0
  2
MEDCLUMP_SET_5_
 70
64
 10
0.0
 20
0.0
 30
0.0
  0
POLYLINE
  6
SL2
  8
11
 62
1
 66
1
 70
0
  0
VERTEX
  6
SL2
  8
11
 62
1
 10
467.887679
 20
335.06148
 30
0.0
  0
VERTEX
  6
SL2
  8
11
 62
1
 10
467.887679
 20
341.394
 30
0.0
  0
SEQEND
  0
ENDBLK
  8
0
  0
ENDSEC
  0
SECTION
  2
ENTITIES
  0
TEXT
  7
T3
  8
6
 62
3
  1
Dia30
 40
5.0
 41
0.8125
 50
0.0
 72
5
 73
0
 10
569.872425
 20
9.46891
 30
0.0
 11
586.122425
 21
9.46891
 31
0.0
  0
TEXT
  7
T3
  8
6
 62
3
  1
DORMA BTS 75V Brückenbefestigung
 40
5.0
 41
0.692742
 50
0.0
 72
5
 73
0
 10
170.138921
 20
265.168406
 30
0.0
 11
277.513921
 21
265.168406
 31
0.0
  0
INSERT
  8
0
  2
MEDCLUMP_SET_5_
 10
0.0
 20
0.0
 30
0.0
  0
INSERT
  8
0
  2
MEDCLUMP_SET_7_
 10
0.0
 20
0.0
 30
0.0
  0
INSERT
  8
0
  2
MEDCLUMP_S3T_14_
 10
0.0
 20
0.0
 30
0.0
  0
INSERT
  8
0
  2
MEDCLUMP_S2T_155_
 10
0.0
 20
0.0
 30
0.0
  0
INSERT
  8
0
  2
MEDCLUMP_SET_168_
 10
0.0
 20
0.0
 30
0.0
  0
INSERT
  8
0
  2
MEDCLUMP_SET_171_
 10
0.0
 20
0.0
 30
0.0
  0
INSERT
  8
0
  2
MEDCLUMP_SET_174_
 10
0.0
 20
0.0
 30
0.0
  0
INSERT
  8
0
  2
MEDCLUMP_SET_179_
 10
0.0
 20
0.0
 30
0.0
  0
INSERT
  8
0
  2
MEDCLUMP_SET_198_
 10
0.0
 20
0.0
 30
0.0
  0
INSERT
  8
0
  2
MEDCLUMP_SET_208_
 10
0.0
 20
0.0
 30
0.0
  0
POLYLINE
  6
L1
  8
1
 62
1
 66
1
 70
0
  0
VERTEX
  6
L1
  8
1
 62
1
 10
267.413642
 20
66.912064
 30
0.0
  0
VERTEX
  6
L1
  8
1
 62
1
 10
271.023749
 20
67.94722
 30
0.0
  0
SEQEND
  0
TEXT
  7
T3
  8
6
 62
3
  1
M 1:1
 40
5.0
 41
0.8125
 50
0.0
 72
5
 73
0
 10
12.773949
 20
404.443024
 30
0.0
 11
29.023949
 21
404.443024
 31
0.0
  0
POLYLINE
  6
L0
  8
0
 62
7
 66
1
 70
0
  0
VERTEX
  6
L0
  8
0
 62
7
 10
5.0
 20
5.0
 30
0.0
  0
VERTEX
  6
L0
  8
0
 62
7
 10
589.0
 20
5.0
 30
0.0
  0
VERTEX
  6
L0
  8
0
 62
7
 10
589.0
 20
415.0
 30
0.0
  0
VERTEX
  6
L0
  8
0
 62
7
 10
5.0
 20
415.0
 30
0.0
  0
VERTEX
  6
L0
  8
0
 62
7
 10
5.0
 20
5.0
 30
0.0
  0
SEQEND
  0
ENDSEC
  0
EOF
