  0
SECTION
  2
HEADER
  9
$ACADVER
  1
AC1009
999
I-DEAS 8 Not Encoded
  9
$EXTMIN
 10
0.0
 20
0.0
  9
$EXTMAX
 10
5.94E+002
 20
4.2E+002
  9
$TEXTSIZE
 40
1.25E-001
  9
$LTSCALE
 40
1.0
  9
$CLAYER
  8
104
  9
$CECOLOR
 62
40
  9
$DIMASZ
 40
1.25E-001
  9
$DIMEXO
 40
6.25E-002
  9
$DIMDLI
 40
2.5E-001
  9
$DIMEXE
 40
1.25E-001
  9
$DIMTP
 40
5.0E-003
  9
$DIMTM
 40
-5.0E-003
  9
$DIMTXT
 40
3.0
  9
$DIMLIM
 70
0
  9
$DIMTIH
 70
1
  9
$DIMTOH
 70
1
  9
$DIMSE1
 70
0
  9
$DIMSE2
 70
0
  9
$DIMTAD
 70
0
  9
$DIMASO
 70
1
  9
$DIMALT
 70
0
  9
$DIMALTD
 70
0
  9
$DIMTOFL
 70
1
  9
$DIMTIX
 70
0
  9
$DIMSAH
 70
0
  9
$DIMTFAC
 40
1.0
  9
$DIMGAP
 40
6.25E-002
  9
$LUNITS
 70
2
  9
$LUPREC
 70
3
  9
$FILLETRAD
 40
2.0
  9
$AUNITS
 70
0
  9
$AUPREC
 70
1
  9
$CHAMFERA
 40
1.0E+001
  9
$CHAMFERB
 40
1.0E+001
  9
$ANGBASE
 50
0.0
  9
$ANGDIR
 70
0
  9
$PDMODE
 70
2
  9
$PDSIZE
 40
-1.0E-002
  9
$SPLINETYPE
 70
6
  0
ENDSEC
  0
SECTION
  2
TABLES
  0
TABLE
  2
LTYPE
 70
7
  0
LTYPE
  2
HIDDENNEW00
  3
_ 
 70
64
 72
65
 73
3
 40
4.5
 49
1.5
 49
-1.5
 49
1.5
  0
LTYPE
  2
HIDDENNEW01
  3
_ 
 70
64
 72
65
 73
3
 40
4.5
 49
1.5
 49
-1.5
 49
1.5
  0
LTYPE
  2
HIDDEN
  3
_ 
 70
64
 72
65
 73
3
 40
4.5
 49
1.5
 49
-1.5
 49
1.5
  0
LTYPE
  2
CENTERLINE
  3
_ 
 70
64
 72
65
 73
5
 40
3.0E+001
 49
1.2E+001
 49
-1.5
 49
3.0
 49
-1.5
 49
1.2E+001
  0
LTYPE
  2
PHANTOM
  3
_ 
 70
64
 72
65
 73
7
 40
2.95E+001
 49
9.5
 49
-1.5
 49
3.0
 49
-1.5
 49
3.0
 49
-1.5
 49
9.5
  0
LTYPE
  2
SHORT_DASH
  3
_ 
 70
64
 72
65
 73
3
 40
3.0
 49
7.5E-001
 49
-1.5
 49
7.5E-001
  0
LTYPE
  2
LONG_DASH
  3
_ 
 70
64
 72
65
 73
3
 40
9.0
 49
2.25
 49
-4.5
 49
2.25
  0
ENDTAB
  0
TABLE
  2
LAYER
 70
258
  0
LAYER
  2
MED-1
 70
0
 62
3
  6
HIDDENNEW00
  0
LAYER
  2
2
 70
0
 62
7
  6
CONTINUOUS
  0
LAYER
  2
3
 70
0
 62
7
  6
CONTINUOUS
  0
LAYER
  2
4
 70
0
 62
7
  6
CONTINUOUS
  0
LAYER
  2
5
 70
0
 62
7
  6
CONTINUOUS
  0
LAYER
  2
MED-6
 70
0
 62
6
  6
HIDDENNEW00
  0
LAYER
  2
7
 70
0
 62
7
  6
CONTINUOUS
  0
LAYER
  2
8
 70
0
 62
7
  6
CONTINUOUS
  0
LAYER
  2
9
 70
0
 62
7
  6
CONTINUOUS
  0
LAYER
  2
10
 70
0
 62
7
  6
CONTINUOUS
  0
LAYER
  2
MED-11
 70
0
 62
70
  6
HIDDENNEW00
  0
LAYER
  2
12
 70
0
 62
7
  6
CONTINUOUS
  0
LAYER
  2
13
 70
0
 62
7
  6
CONTINUOUS
  0
LAYER
  2
14
 70
0
 62
7
  6
CONTINUOUS
  0
LAYER
  2
15
 70
0
 62
7
  6
CONTINUOUS
  0
LAYER
  2
16
 70
0
 62
7
  6
CONTINUOUS
  0
LAYER
  2
17
 70
0
 62
7
  6
CONTINUOUS
  0
LAYER
  2
18
 70
0
 62
7
  6
CONTINUOUS
  0
LAYER
  2
19
 70
0
 62
7
  6
CONTINUOUS
  0
LAYER
  2
20
 70
0
 62
7
  6
CONTINUOUS
  0
LAYER
  2
21
 70
0
 62
7
  6
CONTINUOUS
  0
LAYER
  2
22
 70
0
 62
7
  6
CONTINUOUS
  0
LAYER
  2
23
 70
0
 62
7
  6
CONTINUOUS
  0
LAYER
  2
24
 70
0
 62
7
  6
CONTINUOUS
  0
LAYER
  2
25
 70
0
 62
7
  6
CONTINUOUS
  0
LAYER
  2
26
 70
0
 62
7
  6
CONTINUOUS
  0
LAYER
  2
27
 70
0
 62
7
  6
CONTINUOUS
  0
LAYER
  2
28
 70
0
 62
7
  6
CONTINUOUS
  0
LAYER
  2
29
 70
0
 62
7
  6
CONTINUOUS
  0
LAYER
  2
30
 70
0
 62
7
  6
CONTINUOUS
  0
LAYER
  2
31
 70
0
 62
7
  6
CONTINUOUS
  0
LAYER
  2
32
 70
0
 62
7
  6
CONTINUOUS
  0
LAYER
  2
33
 70
0
 62
7
  6
CONTINUOUS
  0
LAYER
  2
34
 70
0
 62
7
  6
CONTINUOUS
  0
LAYER
  2
35
 70
0
 62
7
  6
CONTINUOUS
  0
LAYER
  2
36
 70
0
 62
7
  6
CONTINUOUS
  0
LAYER
  2
37
 70
0
 62
7
  6
CONTINUOUS
  0
LAYER
  2
38
 70
0
 62
7
  6
CONTINUOUS
  0
LAYER
  2
39
 70
0
 62
7
  6
CONTINUOUS
  0
LAYER
  2
40
 70
0
 62
7
  6
CONTINUOUS
  0
LAYER
  2
41
 70
0
 62
7
  6
CONTINUOUS
  0
LAYER
  2
42
 70
0
 62
7
  6
CONTINUOUS
  0
LAYER
  2
43
 70
0
 62
7
  6
CONTINUOUS
  0
LAYER
  2
44
 70
0
 62
7
  6
CONTINUOUS
  0
LAYER
  2
45
 70
0
 62
7
  6
CONTINUOUS
  0
LAYER
  2
46
 70
0
 62
7
  6
CONTINUOUS
  0
LAYER
  2
47
 70
0
 62
7
  6
CONTINUOUS
  0
LAYER
  2
48
 70
0
 62
7
  6
CONTINUOUS
  0
LAYER
  2
49
 70
0
 62
7
  6
CONTINUOUS
  0
LAYER
  2
50
 70
0
 62
7
  6
CONTINUOUS
  0
LAYER
  2
51
 70
0
 62
7
  6
CONTINUOUS
  0
LAYER
  2
52
 70
0
 62
7
  6
CONTINUOUS
  0
LAYER
  2
53
 70
0
 62
7
  6
CONTINUOUS
  0
LAYER
  2
54
 70
0
 62
7
  6
CONTINUOUS
  0
LAYER
  2
55
 70
0
 62
7
  6
CONTINUOUS
  0
LAYER
  2
56
 70
0
 62
7
  6
CONTINUOUS
  0
LAYER
  2
57
 70
0
 62
7
  6
CONTINUOUS
  0
LAYER
  2
58
 70
0
 62
7
  6
CONTINUOUS
  0
LAYER
  2
59
 70
0
 62
7
  6
CONTINUOUS
  0
LAYER
  2
60
 70
0
 62
7
  6
CONTINUOUS
  0
LAYER
  2
61
 70
0
 62
7
  6
CONTINUOUS
  0
LAYER
  2
62
 70
0
 62
7
  6
CONTINUOUS
  0
LAYER
  2
63
 70
0
 62
7
  6
CONTINUOUS
  0
LAYER
  2
64
 70
0
 62
7
  6
CONTINUOUS
  0
LAYER
  2
65
 70
0
 62
7
  6
CONTINUOUS
  0
LAYER
  2
66
 70
0
 62
7
  6
CONTINUOUS
  0
LAYER
  2
67
 70
0
 62
7
  6
CONTINUOUS
  0
LAYER
  2
68
 70
0
 62
7
  6
CONTINUOUS
  0
LAYER
  2
69
 70
0
 62
7
  6
CONTINUOUS
  0
LAYER
  2
70
 70
0
 62
7
  6
CONTINUOUS
  0
LAYER
  2
71
 70
0
 62
7
  6
CONTINUOUS
  0
LAYER
  2
72
 70
0
 62
7
  6
CONTINUOUS
  0
LAYER
  2
73
 70
0
 62
7
  6
CONTINUOUS
  0
LAYER
  2
74
 70
0
 62
7
  6
CONTINUOUS
  0
LAYER
  2
75
 70
0
 62
7
  6
CONTINUOUS
  0
LAYER
  2
76
 70
0
 62
7
  6
CONTINUOUS
  0
LAYER
  2
77
 70
0
 62
7
  6
CONTINUOUS
  0
LAYER
  2
78
 70
0
 62
7
  6
CONTINUOUS
  0
LAYER
  2
79
 70
0
 62
7
  6
CONTINUOUS
  0
LAYER
  2
80
 70
0
 62
7
  6
CONTINUOUS
  0
LAYER
  2
81
 70
0
 62
7
  6
CONTINUOUS
  0
LAYER
  2
82
 70
0
 62
7
  6
CONTINUOUS
  0
LAYER
  2
83
 70
0
 62
7
  6
CONTINUOUS
  0
LAYER
  2
84
 70
0
 62
7
  6
CONTINUOUS
  0
LAYER
  2
85
 70
0
 62
7
  6
CONTINUOUS
  0
LAYER
  2
86
 70
0
 62
7
  6
CONTINUOUS
  0
LAYER
  2
87
 70
0
 62
7
  6
CONTINUOUS
  0
LAYER
  2
88
 70
0
 62
7
  6
CONTINUOUS
  0
LAYER
  2
89
 70
0
 62
7
  6
CONTINUOUS
  0
LAYER
  2
90
 70
0
 62
7
  6
CONTINUOUS
  0
LAYER
  2
91
 70
0
 62
7
  6
CONTINUOUS
  0
LAYER
  2
92
 70
0
 62
7
  6
CONTINUOUS
  0
LAYER
  2
93
 70
0
 62
7
  6
CONTINUOUS
  0
LAYER
  2
94
 70
0
 62
7
  6
CONTINUOUS
  0
LAYER
  2
95
 70
0
 62
7
  6
CONTINUOUS
  0
LAYER
  2
96
 70
0
 62
7
  6
CONTINUOUS
  0
LAYER
  2
97
 70
0
 62
7
  6
CONTINUOUS
  0
LAYER
  2
98
 70
0
 62
7
  6
CONTINUOUS
  0
LAYER
  2
99
 70
0
 62
7
  6
CONTINUOUS
  0
LAYER
  2
MED-0
 70
0
 62
230
  6
HIDDENNEW00
  0
LAYER
  2
101
 70
0
 62
7
  6
CONTINUOUS
  0
LAYER
  2
102
 70
0
 62
7
  6
CONTINUOUS
  0
LAYER
  2
103
 70
0
 62
7
  6
CONTINUOUS
  0
LAYER
  2
104
 70
0
 62
7
  6
CONTINUOUS
  0
LAYER
  2
105
 70
0
 62
7
  6
CONTINUOUS
  0
LAYER
  2
106
 70
0
 62
7
  6
CONTINUOUS
  0
LAYER
  2
Drafting_Hidden_Entities
 70
1
 62
7
  6
CONTINUOUS
  0
ENDTAB
  0
TABLE
  2
STYLE
 70
1
  0
STYLE
  2
STANDARD
 70
64
 40
0.0
 41
1.0
 50
0.0
 71
0
 42
1.0
  3
monotxt.shx
  4

  0
ENDTAB
  0
TABLE
  2
VIEW
 70
0
  0
ENDTAB
  0
TABLE
  2
DIMSTYLE
 70
0
  0
ENDTAB
  0
ENDSEC
  0
SECTION
  2
BLOCKS
  0
ENDSEC
  0
SECTION
  2
ENTITIES
  0
TEXT
  8
103
  6
CONTINUOUS
 62
40
 10
5.8194989E+002
 20
1.4924868E+001
 40
7.0
  1
BTS80
 41
6.3E-001
 72
1
 11
5.7092489E+002
 21
1.1424868E+001
 73
2
  0
LINE
  8
99
  6
CONTINUOUS
 62
1
 10
2.7881119E+002
 20
1.0158174E+002
 11
2.7881119E+002
 21
1.0309001E+002
  0
LINE
  8
99
  6
CONTINUOUS
 62
1
 10
2.7881119E+002
 20
1.0309001E+002
 11
2.7587589E+002
 21
1.0256169E+002
  0
LINE
  8
99
  6
CONTINUOUS
 62
1
 10
2.7587589E+002
 20
1.0256169E+002
 11
2.7587589E+002
 21
1.0211006E+002
  0
LINE
  8
99
  6
CONTINUOUS
 62
1
 10
2.7587589E+002
 20
1.0211006E+002
 11
2.7881119E+002
 21
1.0158174E+002
  0
LINE
  8
99
  6
CONTINUOUS
 62
1
 10
2.815207E+002
 20
9.8384537E+001
 11
2.7384376E+002
 21
1.0019084E+002
  0
LINE
  8
99
  6
CONTINUOUS
 62
1
 10
2.7384376E+002
 20
1.0019084E+002
 11
2.7384376E+002
 21
1.0448088E+002
  0
LINE
  8
99
  6
CONTINUOUS
 62
1
 10
2.7384376E+002
 20
1.0448088E+002
 11
2.815207E+002
 21
1.0628722E+002
  0
LINE
  8
99
  6
CONTINUOUS
 62
1
 10
2.815207E+002
 20
1.0628722E+002
 11
2.815207E+002
 21
1.0357774E+002
  0
LINE
  8
99
  6
CONTINUOUS
 62
1
 10
2.815207E+002
 20
1.0357774E+002
 11
2.8016596E+002
 21
1.0333385E+002
  0
LINE
  8
99
  6
CONTINUOUS
 62
1
 10
2.8016596E+002
 20
1.0333385E+002
 11
2.8016596E+002
 21
1.0133785E+002
  0
LINE
  8
99
  6
CONTINUOUS
 62
1
 10
2.8016596E+002
 20
1.0133785E+002
 11
2.815207E+002
 21
1.0109401E+002
  0
LINE
  8
99
  6
CONTINUOUS
 62
1
 10
2.815207E+002
 20
1.0109401E+002
 11
2.815207E+002
 21
9.8384537E+001
  0
LINE
  8
99
  6
CONTINUOUS
 62
1
 10
2.815207E+002
 20
9.0707565E+001
 11
2.815207E+002
 21
8.8449661E+001
  0
LINE
  8
99
  6
CONTINUOUS
 62
1
 10
2.815207E+002
 20
8.8449661E+001
 11
2.7384376E+002
 21
8.8449661E+001
  0
LINE
  8
99
  6
CONTINUOUS
 62
1
 10
2.7384376E+002
 20
8.8449661E+001
 11
2.7384376E+002
 21
9.2062302E+001
  0
LINE
  8
99
  6
CONTINUOUS
 62
1
 10
2.7384376E+002
 20
9.2062302E+001
 11
2.783596E+002
 21
9.3055832E+001
  0
LINE
  8
99
  6
CONTINUOUS
 62
1
 10
2.783596E+002
 20
9.3055832E+001
 11
2.783596E+002
 21
9.3191269E+001
  0
LINE
  8
99
  6
CONTINUOUS
 62
1
 10
2.783596E+002
 20
9.3191269E+001
 11
2.783596E+002
 21
9.3326767E+001
  0
LINE
  8
99
  6
CONTINUOUS
 62
1
 10
2.783596E+002
 20
9.3326767E+001
 11
2.7384376E+002
 21
9.4320267E+001
  0
LINE
  8
99
  6
CONTINUOUS
 62
1
 10
2.7384376E+002
 20
9.4320267E+001
 11
2.7384376E+002
 21
9.7932907E+001
  0
LINE
  8
99
  6
CONTINUOUS
 62
1
 10
2.7384376E+002
 20
9.7932907E+001
 11
2.815207E+002
 21
9.7932907E+001
  0
LINE
  8
99
  6
CONTINUOUS
 62
1
 10
2.815207E+002
 20
9.7932907E+001
 11
2.815207E+002
 21
9.5675003E+001
  0
LINE
  8
99
  6
CONTINUOUS
 62
1
 10
2.815207E+002
 20
9.5675003E+001
 11
2.7587589E+002
 21
9.5675003E+001
  0
LINE
  8
99
  6
CONTINUOUS
 62
1
 10
2.7587589E+002
 20
9.5675003E+001
 11
2.7587589E+002
 21
9.5449234E+001
  0
LINE
  8
99
  6
CONTINUOUS
 62
1
 10
2.7587589E+002
 20
9.5449234E+001
 11
2.815207E+002
 21
9.4207321E+001
  0
LINE
  8
99
  6
CONTINUOUS
 62
1
 10
2.815207E+002
 20
9.4207321E+001
 11
2.815207E+002
 21
9.2175217E+001
  0
LINE
  8
99
  6
CONTINUOUS
 62
1
 10
2.815207E+002
 20
9.2175217E+001
 11
2.7587589E+002
 21
9.0933365E+001
  0
LINE
  8
99
  6
CONTINUOUS
 62
1
 10
2.7587589E+002
 20
9.0933365E+001
 11
2.7587589E+002
 21
9.0707565E+001
  0
LINE
  8
99
  6
CONTINUOUS
 62
1
 10
2.7587589E+002
 20
9.0707565E+001
 11
2.815207E+002
 21
9.0707565E+001
  0
ARC
  8
99
  6
CONTINUOUS
 62
1
 10
2.7618071E+002
 20
8.4069266E+001
 40
7.6769406E-001
 50
1.8179073E-003
 51
8.999813E+001
  0
LINE
  8
99
  6
CONTINUOUS
 62
1
 10
2.769484E+002
 20
8.406929E+001
 11
2.769484E+002
 21
8.3030685E+001
  0
LINE
  8
99
  6
CONTINUOUS
 62
1
 10
2.769484E+002
 20
8.3030685E+001
 11
2.7525495E+002
 21
8.3030685E+001
  0
LINE
  8
99
  6
CONTINUOUS
 62
1
 10
2.7525495E+002
 20
8.3030685E+001
 11
2.7525495E+002
 21
8.406929E+001
  0
ARC
  8
99
  6
CONTINUOUS
 62
1
 10
2.7602266E+002
 20
8.406931E+001
 40
7.677111E-001
 50
9.0000754E+001
 51
1.8000146E+002
  0
LINE
  8
99
  6
CONTINUOUS
 62
1
 10
2.7602265E+002
 20
8.4837021E+001
 11
2.7618073E+002
 21
8.483696E+001
  0
LINE
  8
99
  6
CONTINUOUS
 62
1
 10
2.815207E+002
 20
8.077272E+001
 11
2.7384376E+002
 21
8.077272E+001
  0
LINE
  8
99
  6
CONTINUOUS
 62
1
 10
2.7384376E+002
 20
8.077272E+001
 11
2.7384376E+002
 21
8.528859E+001
  0
ARC
  8
99
  6
CONTINUOUS
 62
1
 10
2.7610168E+002
 20
8.5288574E+001
 40
2.257919
 50
8.9999619E+001
 51
1.7999962E+002
  0
ARC
  8
99
  6
CONTINUOUS
 62
1
 10
2.7610385E+002
 20
8.5067118E+001
 40
2.4793769
 50
7.2242178E+001
 51
9.0049906E+001
  0
ARC
  8
99
  6
CONTINUOUS
 62
1
 10
2.7613933E+002
 20
8.5172978E+001
 40
2.3677394
 50
5.3915051E+001
 51
7.2278543E+001
  0
ARC
  8
99
  6
CONTINUOUS
 62
1
 10
2.7621835E+002
 20
8.5281097E+001
 40
2.2338248
 50
3.4829317E+001
 51
5.3919542E+001
  0
ARC
  8
99
  6
CONTINUOUS
 62
1
 10
2.7630064E+002
 20
8.5340012E+001
 40
2.1326234
 50
1.5103784E+001
 51
3.4792821E+001
  0
LINE
  8
99
  6
CONTINUOUS
 62
1
 10
2.783596E+002
 20
8.5895706E+001
 11
2.815207E+002
 21
8.7546493E+001
  0
LINE
  8
99
  6
CONTINUOUS
 62
1
 10
2.815207E+002
 20
8.7546493E+001
 11
2.815207E+002
 21
8.506279E+001
  0
LINE
  8
99
  6
CONTINUOUS
 62
1
 10
2.815207E+002
 20
8.506279E+001
 11
2.783596E+002
 21
8.3798355E+001
  0
LINE
  8
99
  6
CONTINUOUS
 62
1
 10
2.783596E+002
 20
8.3798355E+001
 11
2.783596E+002
 21
8.3030685E+001
  0
LINE
  8
99
  6
CONTINUOUS
 62
1
 10
2.783596E+002
 20
8.3030685E+001
 11
2.815207E+002
 21
8.3030685E+001
  0
LINE
  8
99
  6
CONTINUOUS
 62
1
 10
2.815207E+002
 20
8.3030685E+001
 11
2.815207E+002
 21
8.077272E+001
  0
ARC
  8
99
  6
CONTINUOUS
 62
1
 10
2.7917246E+002
 20
7.6561705E+001
 40
7.6768628E-001
 50
1.2370412E-003
 51
9.0002144E+001
  0
LINE
  8
99
  6
CONTINUOUS
 62
1
 10
2.7994015E+002
 20
7.6561722E+001
 11
2.7994015E+002
 21
7.6403671E+001
  0
ARC
  8
99
  6
CONTINUOUS
 62
1
 10
2.7917245E+002
 20
7.6403694E+001
 40
7.6769264E-001
 50
2.6999833E+002
 51
3.5999829E+002
  0
LINE
  8
99
  6
CONTINUOUS
 62
1
 10
2.7917243E+002
 20
7.5636002E+001
 11
2.7619199E+002
 21
7.5636002E+001
  0
ARC
  8
99
  6
CONTINUOUS
 62
1
 10
2.7619197E+002
 20
7.640369E+001
 40
7.6768876E-001
 50
1.8000142E+002
 51
2.7000203E+002
  0
LINE
  8
99
  6
CONTINUOUS
 62
1
 10
2.7542428E+002
 20
7.6403671E+001
 11
2.7542428E+002
 21
7.6561722E+001
  0
ARC
  8
99
  6
CONTINUOUS
 62
1
 10
2.7619196E+002
 20
7.6561679E+001
 40
7.676824E-001
 50
8.9997492E+001
 51
1.7999678E+002
  0
LINE
  8
99
  6
CONTINUOUS
 62
1
 10
2.7619199E+002
 20
7.7329361E+001
 11
2.7917243E+002
 21
7.7329392E+001
  0
ARC
  8
99
  6
CONTINUOUS
 62
1
 10
2.7881121E+002
 20
7.7160099E+001
 40
2.7094536
 50
3.599996E+002
 51
4.5000041E+002
  0
LINE
  8
99
  6
CONTINUOUS
 62
1
 10
2.8152067E+002
 20
7.716008E+001
 11
2.8152067E+002
 21
7.5805344E+001
  0
ARC
  8
99
  6
CONTINUOUS
 62
1
 10
2.7881114E+002
 20
7.5805308E+001
 40
2.7095281
 50
2.7000117E+002
 51
3.6000076E+002
  0
LINE
  8
99
  6
CONTINUOUS
 62
1
 10
2.7881119E+002
 20
7.3095779E+001
 11
2.7655329E+002
 21
7.3095779E+001
  0
ARC
  8
99
  6
CONTINUOUS
 62
1
 10
2.765533E+002
 20
7.5805312E+001
 40
2.7095324
 50
1.7999933E+002
 51
2.699997E+002
  0
LINE
  8
99
  6
CONTINUOUS
 62
1
 10
2.7384377E+002
 20
7.5805344E+001
 11
2.7384377E+002
 21
7.716008E+001
  0
ARC
  8
99
  6
CONTINUOUS
 62
1
 10
2.7655328E+002
 20
7.7160072E+001
 40
2.7095107
 50
8.9999846E+001
 51
1.7999984E+002
  0
LINE
  8
99
  6
CONTINUOUS
 62
1
 10
2.7655329E+002
 20
7.9869583E+001
 11
2.7881119E+002
 21
7.9869553E+001
  0
ARC
  8
99
  6
CONTINUOUS
 62
1
 10
2.7903697E+002
 20
6.9708912E+001
 40
2.4837302
 50
6.135199E-004
 51
9.0000111E+001
  0
LINE
  8
99
  6
CONTINUOUS
 62
1
 10
2.815207E+002
 20
6.9708939E+001
 11
2.815207E+002
 21
6.5644699E+001
  0
LINE
  8
99
  6
CONTINUOUS
 62
1
 10
2.815207E+002
 20
6.5644699E+001
 11
2.7384376E+002
 21
6.5644699E+001
  0
LINE
  8
99
  6
CONTINUOUS
 62
1
 10
2.7384376E+002
 20
6.5644699E+001
 11
2.7384376E+002
 21
6.9708939E+001
  0
ARC
  8
99
  6
CONTINUOUS
 62
1
 10
2.7632746E+002
 20
6.9708954E+001
 40
2.4837039
 50
9.0000021E+001
 51
1.8000035E+002
  0
LINE
  8
99
  6
CONTINUOUS
 62
1
 10
2.7632746E+002
 20
7.2192657E+001
 11
2.7903696E+002
 21
7.2192642E+001
  0
ARC
  8
99
  6
CONTINUOUS
 62
1
 10
2.7948855E+002
 20
6.9257343E+001
 40
4.5159604E-001
 50
3.5999961E+002
 51
4.4999835E+002
  0
LINE
  8
99
  6
CONTINUOUS
 62
1
 10
2.7994015E+002
 20
6.925734E+001
 11
2.7994015E+002
 21
6.8128372E+001
  0
LINE
  8
99
  6
CONTINUOUS
 62
1
 10
2.7994015E+002
 20
6.8128372E+001
 11
2.7542429E+002
 21
6.8128372E+001
  0
LINE
  8
99
  6
CONTINUOUS
 62
1
 10
2.7542429E+002
 20
6.8128372E+001
 11
2.7542429E+002
 21
6.925734E+001
  0
ARC
  8
99
  6
CONTINUOUS
 62
1
 10
2.758759E+002
 20
6.9257331E+001
 40
4.5160766E-001
 50
9.0001099E+001
 51
1.7999891E+002
  0
LINE
  8
99
  6
CONTINUOUS
 62
1
 10
2.7587589E+002
 20
6.9708939E+001
 11
2.7948856E+002
 21
6.9708939E+001
  0
ARC
  8
99
  6
CONTINUOUS
 62
1
 10
2.3006775E+002
 20
8.4870451E+001
 40
3.686401E+001
 50
3.2080506E+002
 51
3.5231285E+002
  0
LINE
  8
99
  6
CONTINUOUS
 62
1
 10
2.5863737E+002
 20
6.1573837E+001
 11
2.7246137E+002
 21
6.5516861E+001
  0
LINE
  8
99
  6
CONTINUOUS
 62
1
 10
2.7246137E+002
 20
6.5516861E+001
 11
2.7246137E+002
 21
6.8414017E+001
  0
LINE
  8
99
  6
CONTINUOUS
 62
1
 10
2.7246137E+002
 20
6.8414017E+001
 11
2.6568574E+002
 21
6.6471146E+001
  0
ARC
  8
99
  6
CONTINUOUS
 62
1
 10
2.3006774E+002
 20
8.4870431E+001
 40
4.0089589E+001
 50
3.3268036E+002
 51
3.504333E+002
  0
ARC
  8
99
  6
CONTINUOUS
 62
1
 10
2.3006782E+002
 20
8.4870982E+001
 40
4.0089602E+001
 50
3.5043251E+002
 51
3.5471276E+002
  0
LINE
  8
99
  6
CONTINUOUS
 62
1
 10
2.6998685E+002
 20
8.1176773E+001
 11
2.6358918E+002
 21
8.4870468E+001
  0
LINE
  8
99
  6
CONTINUOUS
 62
1
 10
2.6358918E+002
 20
8.4870468E+001
 11
2.6998685E+002
 21
8.8564163E+001
  0
ARC
  8
99
  6
CONTINUOUS
 62
1
 10
2.3006776E+002
 20
8.4870468E+001
 40
4.0089622E+001
 50
5.2864981
 51
2.7319681E+001
  0
LINE
  8
99
  6
CONTINUOUS
 62
1
 10
2.6568577E+002
 20
1.0326979E+002
 11
2.7246137E+002
 21
1.0132692E+002
  0
LINE
  8
99
  6
CONTINUOUS
 62
1
 10
2.7246137E+002
 20
1.0132692E+002
 11
2.7246137E+002
 21
1.0422408E+002
  0
LINE
  8
99
  6
CONTINUOUS
 62
1
 10
2.7246137E+002
 20
1.0422408E+002
 11
2.5863737E+002
 21
1.081671E+002
  0
ARC
  8
99
  6
CONTINUOUS
 62
1
 10
2.3006775E+002
 20
8.4870486E+001
 40
3.686401E+001
 50
7.6871482
 51
3.9194943E+001
  0
LINE
  8
99
  6
CONTINUOUS
 62
1
 10
2.6660047E+002
 20
8.9801559E+001
 11
2.5805958E+002
 21
8.4870468E+001
  0
LINE
  8
99
  6
CONTINUOUS
 62
1
 10
2.5805958E+002
 20
8.4870468E+001
 11
2.6660047E+002
 21
7.9939377E+001
  0
LINE
  8
MED-1
  6
HIDDEN
 62
40
 10
2.672233E+002
 20
6.6912064E+001
 11
2.7083338E+002
 21
6.794722E+001
  0
LINE
  8
104
  6
CONTINUOUS
 62
40
 10
5.0608301E+002
 20
9.7294235E+001
 11
5.0808301E+002
 21
9.7294235E+001
  0
LINE
  8
104
  6
CONTINUOUS
 62
40
 10
5.0608301E+002
 20
7.2370468E+001
 11
5.0808301E+002
 21
7.2370468E+001
  0
LINE
  8
106
  6
CENTERLINE
 62
1
 10
5.0421033E+002
 20
8.4870468E+001
 11
5.1054285E+002
 21
8.4870468E+001
  0
LINE
  8
104
  6
CONTINUOUS
 62
40
 10
5.0608301E+002
 20
3.77556E+001
 11
5.0608301E+002
 21
1.3198528E+002
  0
LINE
  8
104
  6
CONTINUOUS
 62
40
 10
5.0608301E+002
 20
1.3198528E+002
 11
5.0422602E+002
 21
1.3662767E+002
  0
LINE
  8
104
  6
CONTINUOUS
 62
40
 10
5.0422602E+002
 20
1.3662767E+002
 11
5.0608301E+002
 21
1.3737047E+002
  0
LINE
  8
104
  6
CONTINUOUS
 62
40
 10
5.0608301E+002
 20
1.3737047E+002
 11
5.0808301E+002
 21
1.3237047E+002
  0
LINE
  8
104
  6
CONTINUOUS
 62
40
 10
5.0808301E+002
 20
1.3237047E+002
 11
5.0808301E+002
 21
3.7370468E+001
  0
LINE
  8
104
  6
CONTINUOUS
 62
40
 10
5.0808301E+002
 20
3.7370468E+001
 11
5.0608301E+002
 21
3.2370468E+001
  0
LINE
  8
104
  6
CONTINUOUS
 62
40
 10
5.0608301E+002
 20
3.2370468E+001
 11
5.0422608E+002
 21
3.3113236E+001
  0
LINE
  8
104
  6
CONTINUOUS
 62
40
 10
5.0422608E+002
 20
3.3113236E+001
 11
5.0608301E+002
 21
3.77556E+001
  0
LINE
  8
106
  6
CENTERLINE
 62
1
 10
6.8332297E+001
 20
8.4870468E+001
 11
1.5977943E+002
 21
8.4870468E+001
  0
LINE
  8
104
  6
CONTINUOUS
 62
40
 10
7.6059577E+001
 20
7.2370468E+001
 11
1.1693677E+002
 21
7.2370468E+001
  0
ARC
  8
104
  6
CONTINUOUS
 62
40
 10
1.3405958E+002
 20
8.4870468E+001
 40
2.1200009E+001
 50
1.4386978E+002
 51
2.1613022E+002
  0
LINE
  8
104
  6
CONTINUOUS
 62
40
 10
1.1693677E+002
 20
9.7370468E+001
 11
7.6059577E+001
 21
9.7370468E+001
  0
LINE
  8
104
  6
CONTINUOUS
 62
40
 10
7.6059577E+001
 20
9.7370468E+001
 11
7.6059577E+001
 21
7.2370468E+001
  0
CIRCLE
  8
104
  6
CONTINUOUS
 62
40
 10
3.8405958E+002
 20
1.1187047E+002
 40
2.5
  0
CIRCLE
  8
104
  6
CONTINUOUS
 62
40
 10
1.7405958E+002
 20
1.1187047E+002
 40
2.5
  0
CIRCLE
  8
104
  6
CONTINUOUS
 62
40
 10
1.7405958E+002
 20
5.7870468E+001
 40
2.5
  0
CIRCLE
  8
104
  6
CONTINUOUS
 62
40
 10
3.8405958E+002
 20
5.7870468E+001
 40
2.5
  0
LINE
  8
99
  6
CONTINUOUS
 62
1
 10
1.7405958E+002
 20
1.2015562E+002
 11
1.7405958E+002
 21
1.0236656E+002
  0
LINE
  8
99
  6
CONTINUOUS
 62
1
 10
1.7405958E+002
 20
6.6788437E+001
 11
1.7405958E+002
 21
4.9386093E+001
  0
LINE
  8
99
  6
CONTINUOUS
 62
1
 10
1.6650098E+002
 20
5.7870468E+001
 11
1.8429005E+002
 21
5.7870468E+001
  0
LINE
  8
99
  6
CONTINUOUS
 62
1
 10
3.7532911E+002
 20
5.7870468E+001
 11
3.9389161E+002
 21
5.7870468E+001
  0
LINE
  8
99
  6
CONTINUOUS
 62
1
 10
3.8405958E+002
 20
5.0159531E+001
 11
3.8405958E+002
 21
6.6401718E+001
  0
LINE
  8
99
  6
CONTINUOUS
 62
1
 10
3.8405958E+002
 20
1.0236656E+002
 11
3.8405958E+002
 21
1.2015562E+002
  0
LINE
  8
99
  6
CONTINUOUS
 62
1
 10
3.9273145E+002
 20
1.1187047E+002
 11
3.7416895E+002
 21
1.1187047E+002
  0
LINE
  8
99
  6
CONTINUOUS
 62
1
 10
1.8467676E+002
 20
1.1187047E+002
 11
1.6456739E+002
 21
1.1187047E+002
  0
CIRCLE
  8
104
  6
CONTINUOUS
 62
40
 10
1.7405958E+002
 20
1.1187047E+002
 40
4.75
  0
CIRCLE
  8
104
  6
CONTINUOUS
 62
40
 10
3.8405958E+002
 20
5.7870468E+001
 40
4.75
  0
CIRCLE
  8
104
  6
CONTINUOUS
 62
40
 10
3.8405958E+002
 20
1.1187047E+002
 40
4.75
  0
CIRCLE
  8
104
  6
CONTINUOUS
 62
40
 10
1.7405958E+002
 20
5.7870468E+001
 40
4.75
  0
LINE
  8
99
  6
CONTINUOUS
 62
1
 10
7.6059577E+001
 20
1.3237047E+002
 11
1.5255958E+002
 21
1.3237047E+002
  0
LINE
  8
99
  6
CONTINUOUS
 62
1
 10
1.5505958E+002
 20
1.3237047E+002
 11
4.2905958E+002
 21
1.3237047E+002
  0
LINE
  8
99
  6
CONTINUOUS
 62
1
 10
4.2905958E+002
 20
1.3237047E+002
 11
4.2905958E+002
 21
3.7370468E+001
  0
LINE
  8
99
  6
CONTINUOUS
 62
1
 10
4.2905958E+002
 20
3.7370468E+001
 11
1.5505958E+002
 21
3.7370468E+001
  0
LINE
  8
99
  6
CONTINUOUS
 62
1
 10
1.5255958E+002
 20
3.7370468E+001
 11
7.6059577E+001
 21
3.7370468E+001
  0
LINE
  8
99
  6
CONTINUOUS
 62
1
 10
4.2905958E+002
 20
1.3237047E+002
 11
4.3405958E+002
 21
1.3737047E+002
  0
LINE
  8
99
  6
CONTINUOUS
 62
1
 10
4.3405958E+002
 20
3.2370468E+001
 11
4.2905958E+002
 21
3.7370468E+001
  0
LINE
  8
106
  6
CENTERLINE
 62
1
 10
1.3405958E+002
 20
1.1554814E+002
 11
1.3405958E+002
 21
5.413237E+001
  0
LINE
  8
104
  6
CONTINUOUS
 62
40
 10
7.6059577E+001
 20
4.9870468E+001
 11
7.6059577E+001
 21
3.2370468E+001
  0
LINE
  8
104
  6
CONTINUOUS
 62
40
 10
7.6059577E+001
 20
3.2370468E+001
 11
1.5255958E+002
 21
3.2370468E+001
  0
LINE
  8
104
  6
CONTINUOUS
 62
40
 10
1.5255958E+002
 20
3.2370468E+001
 11
1.5255958E+002
 21
4.9870468E+001
  0
LINE
  8
104
  6
CONTINUOUS
 62
40
 10
7.6059577E+001
 20
1.1987047E+002
 11
1.5505958E+002
 21
1.1987047E+002
  0
LINE
  8
104
  6
CONTINUOUS
 62
40
 10
1.5505958E+002
 20
1.1987047E+002
 11
1.5505958E+002
 21
1.3737047E+002
  0
LINE
  8
104
  6
CONTINUOUS
 62
40
 10
1.5505958E+002
 20
1.3737047E+002
 11
4.3405958E+002
 21
1.3737047E+002
  0
LINE
  8
104
  6
CONTINUOUS
 62
40
 10
4.3405958E+002
 20
1.3737047E+002
 11
4.3405958E+002
 21
3.2370468E+001
  0
LINE
  8
104
  6
CONTINUOUS
 62
40
 10
4.3405958E+002
 20
3.2370468E+001
 11
1.5505958E+002
 21
3.2370468E+001
  0
LINE
  8
104
  6
CONTINUOUS
 62
40
 10
1.5505958E+002
 20
3.2370468E+001
 11
1.5505958E+002
 21
4.9870468E+001
  0
LINE
  8
104
  6
CONTINUOUS
 62
40
 10
1.5505958E+002
 20
4.9870468E+001
 11
7.6059577E+001
 21
4.9870468E+001
  0
LINE
  8
104
  6
CONTINUOUS
 62
40
 10
7.6059577E+001
 20
4.9870468E+001
 11
7.6059577E+001
 21
7.2370468E+001
  0
LINE
  8
104
  6
CONTINUOUS
 62
40
 10
7.6059577E+001
 20
7.2370468E+001
 11
1.1693681E+002
 21
7.2370468E+001
  0
ARC
  8
104
  6
CONTINUOUS
 62
40
 10
1.3405958E+002
 20
8.4870468E+001
 40
2.1199984E+001
 50
2.1613027E+002
 51
5.0386973E+002
  0
LINE
  8
104
  6
CONTINUOUS
 62
40
 10
1.1693681E+002
 20
9.7370468E+001
 11
7.6059577E+001
 21
9.7370468E+001
  0
LINE
  8
104
  6
CONTINUOUS
 62
40
 10
7.6059577E+001
 20
9.7370468E+001
 11
7.6059577E+001
 21
1.1987047E+002
  0
LINE
  8
104
  6
CONTINUOUS
 62
40
 10
1.5255958E+002
 20
1.1987047E+002
 11
1.5255958E+002
 21
1.3737047E+002
  0
LINE
  8
104
  6
CONTINUOUS
 62
40
 10
1.5255958E+002
 20
1.3737047E+002
 11
7.6059577E+001
 21
1.3737047E+002
  0
LINE
  8
104
  6
CONTINUOUS
 62
40
 10
7.6059577E+001
 20
1.3737047E+002
 11
7.6059577E+001
 21
1.1987047E+002
  0
LINE
  8
MED-1
  6
CONTINUOUS
 62
40
 10
1.6930958E+002
 20
5.7870468E+001
 11
1.7880958E+002
 21
5.7870468E+001
  0
LINE
  8
99
  6
CONTINUOUS
 62
1
 10
1.2466234E+002
 20
3.8407864E+002
 11
1.2539604E+002
 21
3.9807861E+002
  0
LINE
  8
99
  6
CONTINUOUS
 62
1
 10
1.4345682E+002
 20
3.8407864E+002
 11
1.4272312E+002
 21
3.9807861E+002
  0
LINE
  8
104
  6
CONTINUOUS
 62
40
 10
1.1355959E+002
 20
3.7827862E+002
 11
1.1355959E+002
 21
3.7927862E+002
  0
ARC
  8
104
  6
CONTINUOUS
 62
40
 10
1.1555958E+002
 20
3.7927861E+002
 40
1.9999921
 50
8.9999772E+001
 51
1.799998E+002
  0
LINE
  8
104
  6
CONTINUOUS
 62
40
 10
1.1555959E+002
 20
3.8127861E+002
 11
1.5255958E+002
 21
3.8127861E+002
  0
ARC
  8
104
  6
CONTINUOUS
 62
40
 10
1.5255959E+002
 20
3.792786E+002
 40
2.0000057
 50
5.916513E-004
 51
9.0000268E+001
  0
LINE
  8
104
  6
CONTINUOUS
 62
40
 10
1.5455959E+002
 20
3.7927862E+002
 11
1.5455959E+002
 21
3.7827862E+002
  0
LINE
  8
104
  6
CONTINUOUS
 62
40
 10
1.217144E+002
 20
3.8127862E+002
 11
1.217144E+002
 21
3.8407861E+002
  0
LINE
  8
104
  6
CONTINUOUS
 62
40
 10
1.217144E+002
 20
3.8407861E+002
 11
1.2265959E+002
 21
3.8407861E+002
  0
LINE
  8
104
  6
CONTINUOUS
 62
40
 10
1.2265959E+002
 20
3.8407861E+002
 11
1.2339329E+002
 21
3.9807861E+002
  0
LINE
  8
104
  6
CONTINUOUS
 62
40
 10
1.2339329E+002
 20
3.9807861E+002
 11
1.4472587E+002
 21
3.9807861E+002
  0
LINE
  8
104
  6
CONTINUOUS
 62
40
 10
1.4472587E+002
 20
3.9807861E+002
 11
1.4545957E+002
 21
3.8407864E+002
  0
LINE
  8
104
  6
CONTINUOUS
 62
40
 10
1.4545957E+002
 20
3.8407864E+002
 11
1.4645727E+002
 21
3.8407864E+002
  0
LINE
  8
104
  6
CONTINUOUS
 62
40
 10
1.4645727E+002
 20
3.8407864E+002
 11
1.4645727E+002
 21
3.8127862E+002
  0
LINE
  8
104
  6
CONTINUOUS
 62
40
 10
1.2265959E+002
 20
3.8407864E+002
 11
1.4545957E+002
 21
3.8407864E+002
  0
LINE
  8
104
  6
CONTINUOUS
 62
40
 10
4.86105E+002
 20
3.7827862E+002
 11
4.86105E+002
 21
3.7927862E+002
  0
ARC
  8
104
  6
CONTINUOUS
 62
40
 10
4.88105E+002
 20
3.7927861E+002
 40
1.9999947
 50
8.9999848E+001
 51
1.7999972E+002
  0
LINE
  8
104
  6
CONTINUOUS
 62
40
 10
4.88105E+002
 20
3.8127861E+002
 11
5.2510497E+002
 21
3.8127861E+002
  0
ARC
  8
104
  6
CONTINUOUS
 62
40
 10
5.2510498E+002
 20
3.7927858E+002
 40
2.000025
 50
1.1467693E-003
 51
9.0000142E+001
  0
LINE
  8
104
  6
CONTINUOUS
 62
40
 10
5.27105E+002
 20
3.7927862E+002
 11
5.27105E+002
 21
3.7827862E+002
  0
LINE
  8
104
  6
CONTINUOUS
 62
40
 10
4.94255E+002
 20
3.8127862E+002
 11
4.94255E+002
 21
3.8407864E+002
  0
LINE
  8
104
  6
CONTINUOUS
 62
40
 10
4.94255E+002
 20
3.8407864E+002
 11
5.0077999E+002
 21
3.8407864E+002
  0
LINE
  8
104
  6
CONTINUOUS
 62
40
 10
5.0077999E+002
 20
3.8407864E+002
 11
5.0151369E+002
 21
3.9807861E+002
  0
LINE
  8
104
  6
CONTINUOUS
 62
40
 10
5.0151369E+002
 20
3.9807861E+002
 11
5.1184634E+002
 21
3.9807861E+002
  0
LINE
  8
104
  6
CONTINUOUS
 62
40
 10
5.1184634E+002
 20
3.9807861E+002
 11
5.1257998E+002
 21
3.8407864E+002
  0
LINE
  8
104
  6
CONTINUOUS
 62
40
 10
5.1257998E+002
 20
3.8407864E+002
 11
5.1895495E+002
 21
3.8407864E+002
  0
LINE
  8
104
  6
CONTINUOUS
 62
40
 10
5.1895495E+002
 20
3.8407864E+002
 11
5.1895495E+002
 21
3.8127862E+002
  0
LINE
  8
104
  6
CONTINUOUS
 62
40
 10
5.0077999E+002
 20
3.8407864E+002
 11
5.1257998E+002
 21
3.8407864E+002
  0
LINE
  8
104
  6
CONTINUOUS
 62
40
 10
4.6760503E+002
 20
3.7827862E+002
 11
5.4560497E+002
 21
3.7827862E+002
  0
LINE
  8
104
  6
CONTINUOUS
 62
40
 10
5.4560497E+002
 20
3.7827862E+002
 11
5.4560497E+002
 21
3.1877862E+002
  0
LINE
  8
104
  6
CONTINUOUS
 62
40
 10
5.4560497E+002
 20
3.1877862E+002
 11
4.6760503E+002
 21
3.1877862E+002
  0
LINE
  8
104
  6
CONTINUOUS
 62
40
 10
4.6760503E+002
 20
3.1877862E+002
 11
4.6760503E+002
 21
3.7827862E+002
  0
LINE
  8
106
  6
CENTERLINE
 62
1
 10
1.3405958E+002
 20
3.0982406E+002
 11
1.3405958E+002
 21
4.0582406E+002
  0
LINE
  8
106
  6
CENTERLINE
 62
1
 10
5.06605E+002
 20
3.1200589E+002
 11
5.06605E+002
 21
4.0527862E+002
  0
LINE
  8
104
  6
CONTINUOUS
 62
40
 10
7.9059585E+001
 20
3.7827862E+002
 11
4.2005959E+002
 21
3.7827862E+002
  0
LINE
  8
104
  6
CONTINUOUS
 62
40
 10
4.2005959E+002
 20
3.7827862E+002
 11
4.2005959E+002
 21
3.1877862E+002
  0
LINE
  8
104
  6
CONTINUOUS
 62
40
 10
4.2005959E+002
 20
3.1877862E+002
 11
7.9059585E+001
 21
3.1877862E+002
  0
LINE
  8
104
  6
CONTINUOUS
 62
40
 10
7.9059585E+001
 20
3.1877862E+002
 11
7.9059585E+001
 21
3.7827862E+002
  0
TEXT
  8
103
  6
CONTINUOUS
 62
40
 10
2.8773949E+001
 20
4.0944302E+002
 40
5.0
  1
M 1:1
 41
6.3E-001
 72
1
 11
2.0898949E+001
 21
4.0694302E+002
 73
2
  0
LINE
  8
104
  6
CONTINUOUS
 62
40
 10
4.0656957E+002
 20
2.3153395E+002
 11
4.0656957E+002
 21
2.4153395E+002
  0
LINE
  8
104
  6
CONTINUOUS
 62
40
 10
4.0856957E+002
 20
2.3153395E+002
 11
4.0856957E+002
 21
2.4153395E+002
  0
LINE
  8
104
  6
CONTINUOUS
 62
40
 10
4.0468285E+002
 20
2.3153395E+002
 11
4.1045635E+002
 21
2.3153395E+002
  0
LINE
  8
104
  6
CONTINUOUS
 62
40
 10
4.1045635E+002
 20
2.3153395E+002
 11
4.1334307E+002
 21
2.3653395E+002
  0
LINE
  8
104
  6
CONTINUOUS
 62
40
 10
4.1334307E+002
 20
2.3653395E+002
 11
4.1045635E+002
 21
2.4153395E+002
  0
LINE
  8
104
  6
CONTINUOUS
 62
40
 10
4.1045635E+002
 20
2.4153395E+002
 11
4.0468285E+002
 21
2.4153395E+002
  0
LINE
  8
104
  6
CONTINUOUS
 62
40
 10
4.0468285E+002
 20
2.4153395E+002
 11
4.0179607E+002
 21
2.3653395E+002
  0
LINE
  8
104
  6
CONTINUOUS
 62
40
 10
4.0179607E+002
 20
2.3653395E+002
 11
4.0468285E+002
 21
2.3153395E+002
  0
LINE
  8
104
  6
CONTINUOUS
 62
40
 10
8.9030562E+001
 20
2.7303395E+002
 11
8.9030562E+001
 21
2.8303395E+002
  0
LINE
  8
104
  6
CONTINUOUS
 62
40
 10
9.1030562E+001
 20
2.7303395E+002
 11
9.1030562E+001
 21
2.8303395E+002
  0
LINE
  8
104
  6
CONTINUOUS
 62
40
 10
8.7143813E+001
 20
2.7303395E+002
 11
9.2917312E+001
 21
2.7303395E+002
  0
LINE
  8
104
  6
CONTINUOUS
 62
40
 10
9.2917312E+001
 20
2.7303395E+002
 11
9.5804061E+001
 21
2.7803395E+002
  0
LINE
  8
104
  6
CONTINUOUS
 62
40
 10
9.5804061E+001
 20
2.7803395E+002
 11
9.2917312E+001
 21
2.8303395E+002
  0
LINE
  8
104
  6
CONTINUOUS
 62
40
 10
9.2917312E+001
 20
2.8303395E+002
 11
8.7143813E+001
 21
2.8303395E+002
  0
LINE
  8
104
  6
CONTINUOUS
 62
40
 10
8.7143813E+001
 20
2.8303395E+002
 11
8.4257064E+001
 21
2.7803395E+002
  0
LINE
  8
104
  6
CONTINUOUS
 62
40
 10
8.4257064E+001
 20
2.7803395E+002
 11
8.7143813E+001
 21
2.7303395E+002
  0
LINE
  8
104
  6
CONTINUOUS
 62
40
 10
8.9030562E+001
 20
2.2203395E+002
 11
8.9030562E+001
 21
2.3203395E+002
  0
LINE
  8
104
  6
CONTINUOUS
 62
40
 10
9.1030562E+001
 20
2.2203395E+002
 11
9.1030562E+001
 21
2.3203395E+002
  0
LINE
  8
104
  6
CONTINUOUS
 62
40
 10
8.7143813E+001
 20
2.2203395E+002
 11
9.2917312E+001
 21
2.2203395E+002
  0
LINE
  8
104
  6
CONTINUOUS
 62
40
 10
9.2917312E+001
 20
2.2203395E+002
 11
9.5804061E+001
 21
2.2703395E+002
  0
LINE
  8
104
  6
CONTINUOUS
 62
40
 10
9.5804061E+001
 20
2.2703395E+002
 11
9.2917312E+001
 21
2.3203395E+002
  0
LINE
  8
104
  6
CONTINUOUS
 62
40
 10
9.2917312E+001
 20
2.3203395E+002
 11
8.7143813E+001
 21
2.3203395E+002
  0
LINE
  8
104
  6
CONTINUOUS
 62
40
 10
8.7143813E+001
 20
2.3203395E+002
 11
8.4257064E+001
 21
2.2703395E+002
  0
LINE
  8
104
  6
CONTINUOUS
 62
40
 10
8.4257064E+001
 20
2.2703395E+002
 11
8.7143813E+001
 21
2.2203395E+002
  0
LINE
  8
104
  6
CONTINUOUS
 62
40
 10
4.0488836E+002
 20
2.7777696E+002
 11
4.1181658E+002
 21
2.8470515E+002
  0
LINE
  8
104
  6
CONTINUOUS
 62
40
 10
4.063026E+002
 20
2.7636275E+002
 11
4.1323077E+002
 21
2.8329094E+002
  0
LINE
  8
104
  6
CONTINUOUS
 62
40
 10
4.0488836E+002
 20
2.4977696E+002
 11
4.1181658E+002
 21
2.5670515E+002
  0
LINE
  8
104
  6
CONTINUOUS
 62
40
 10
4.063026E+002
 20
2.4836275E+002
 11
4.1323077E+002
 21
2.5529094E+002
  0
LINE
  8
104
  6
CONTINUOUS
 62
40
 10
4.0488836E+002
 20
2.2160707E+002
 11
4.1181658E+002
 21
2.2853526E+002
  0
LINE
  8
104
  6
CONTINUOUS
 62
40
 10
4.063026E+002
 20
2.2019286E+002
 11
4.1323077E+002
 21
2.2712105E+002
  0
CIRCLE
  8
104
  6
CONTINUOUS
 62
40
 10
4.0905956E+002
 20
2.2436406E+002
 40
5.0
  0
CIRCLE
  8
104
  6
CONTINUOUS
 62
40
 10
4.0905956E+002
 20
2.5253395E+002
 40
5.0
  0
CIRCLE
  8
104
  6
CONTINUOUS
 62
40
 10
4.0905956E+002
 20
2.8053395E+002
 40
5.0
  0
ARC
  8
104
  6
CONTINUOUS
 62
40
 10
4.0905956E+002
 20
2.6153395E+002
 40
4.5000102
 50
3.0355751E+002
 51
4.1644249E+002
  0
LINE
  8
104
  6
CONTINUOUS
 62
40
 10
4.1154705E+002
 20
2.6528395E+002
 11
4.0657214E+002
 21
2.6528395E+002
  0
ARC
  8
104
  6
CONTINUOUS
 62
40
 10
4.0905956E+002
 20
2.6153395E+002
 40
4.499977
 50
1.2355687E+002
 51
2.3644313E+002
  0
LINE
  8
104
  6
CONTINUOUS
 62
40
 10
4.0657214E+002
 20
2.5778395E+002
 11
4.1154705E+002
 21
2.5778395E+002
  0
LINE
  8
104
  6
CONTINUOUS
 62
40
 10
3.9405956E+002
 20
2.1928395E+002
 11
4.1455956E+002
 21
2.1928395E+002
  0
LINE
  8
104
  6
CONTINUOUS
 62
40
 10
4.1455956E+002
 20
2.1928395E+002
 11
4.1455956E+002
 21
2.3316862E+002
  0
LINE
  8
104
  6
CONTINUOUS
 62
40
 10
4.1455956E+002
 20
2.3316862E+002
 11
4.1140011E+002
 21
2.3316862E+002
  0
LINE
  8
104
  6
CONTINUOUS
 62
40
 10
4.1180486E+002
 20
2.3978395E+002
 11
4.1655956E+002
 21
2.3978395E+002
  0
LINE
  8
104
  6
CONTINUOUS
 62
40
 10
4.1655956E+002
 20
2.3978395E+002
 11
4.1655956E+002
 21
2.7078395E+002
  0
LINE
  8
104
  6
CONTINUOUS
 62
40
 10
4.1655956E+002
 20
2.7078395E+002
 11
4.1455956E+002
 21
2.7078395E+002
  0
LINE
  8
104
  6
CONTINUOUS
 62
40
 10
4.1455956E+002
 20
2.7078395E+002
 11
4.1455956E+002
 21
2.8578395E+002
  0
LINE
  8
104
  6
CONTINUOUS
 62
40
 10
4.1455956E+002
 20
2.8578395E+002
 11
3.9405956E+002
 21
2.8578395E+002
  0
LINE
  8
104
  6
CONTINUOUS
 62
40
 10
4.0025957E+002
 20
2.4353395E+002
 11
4.0305956E+002
 21
2.4353395E+002
  0
LINE
  8
104
  6
CONTINUOUS
 62
40
 10
4.0025957E+002
 20
2.6153395E+002
 11
4.0305956E+002
 21
2.6153395E+002
  0
LINE
  8
104
  6
CONTINUOUS
 62
40
 10
3.9405956E+002
 20
2.3903395E+002
 11
3.9811886E+002
 21
2.3903395E+002
  0
LINE
  8
104
  6
CONTINUOUS
 62
40
 10
3.9811886E+002
 20
2.3903395E+002
 11
3.9811886E+002
 21
2.6603395E+002
  0
LINE
  8
104
  6
CONTINUOUS
 62
40
 10
3.9811886E+002
 20
2.6603395E+002
 11
3.9405956E+002
 21
2.6603395E+002
  0
LINE
  8
104
  6
CONTINUOUS
 62
40
 10
4.0025957E+002
 20
2.4028395E+002
 11
4.0305956E+002
 21
2.4028395E+002
  0
LINE
  8
104
  6
CONTINUOUS
 62
40
 10
4.0305956E+002
 20
2.4028395E+002
 11
4.0305956E+002
 21
2.6478395E+002
  0
LINE
  8
104
  6
CONTINUOUS
 62
40
 10
4.0305956E+002
 20
2.6478395E+002
 11
4.0025957E+002
 21
2.6478395E+002
  0
LINE
  8
104
  6
CONTINUOUS
 62
40
 10
4.0025957E+002
 20
2.6478395E+002
 11
4.0025957E+002
 21
2.4028395E+002
  0
LINE
  8
104
  6
CONTINUOUS
 62
40
 10
4.0025957E+002
 20
2.4203395E+002
 11
3.9811886E+002
 21
2.4203395E+002
  0
LINE
  8
104
  6
CONTINUOUS
 62
40
 10
4.0025957E+002
 20
2.6303395E+002
 11
3.9811886E+002
 21
2.6303395E+002
  0
CIRCLE
  8
104
  6
CONTINUOUS
 62
40
 10
1.3405958E+002
 20
2.5253395E+002
 40
2.05E+001
  0
LINE
  8
106
  6
CENTERLINE
 62
1
 10
1.3405958E+002
 20
2.9557776E+002
 11
1.3405958E+002
 21
2.1021979E+002
  0
LINE
  8
104
  6
CONTINUOUS
 62
40
 10
1.2426162E+002
 20
2.5753395E+002
 11
1.4385754E+002
 21
2.5753395E+002
  0
ARC
  8
104
  6
CONTINUOUS
 62
40
 10
1.3405958E+002
 20
2.5253395E+002
 40
1.0999999E+001
 50
3.3296431E+002
 51
3.8703569E+002
  0
LINE
  8
104
  6
CONTINUOUS
 62
40
 10
1.4385754E+002
 20
2.4753395E+002
 11
1.2426162E+002
 21
2.4753395E+002
  0
ARC
  8
104
  6
CONTINUOUS
 62
40
 10
1.3405958E+002
 20
2.5253395E+002
 40
1.0999999E+001
 50
1.5296431E+002
 51
2.0703569E+002
  0
CIRCLE
  8
104
  6
CONTINUOUS
 62
40
 10
1.3405958E+002
 20
2.5253395E+002
 40
4.0
  0
LINE
  8
104
  6
CONTINUOUS
 62
40
 10
2.9805956E+002
 20
2.1961787E+002
 11
2.9805956E+002
 21
2.2207562E+002
  0
LINE
  8
104
  6
CONTINUOUS
 62
40
 10
3.0005956E+002
 20
2.1961787E+002
 11
3.0005956E+002
 21
2.2207562E+002
  0
LINE
  8
104
  6
CONTINUOUS
 62
40
 10
2.9805956E+002
 20
2.2899229E+002
 11
2.9805956E+002
 21
2.3145003E+002
  0
LINE
  8
104
  6
CONTINUOUS
 62
40
 10
3.0005956E+002
 20
2.2899229E+002
 11
3.0005956E+002
 21
2.3145003E+002
  0
LINE
  8
104
  6
CONTINUOUS
 62
40
 10
2.9805956E+002
 20
2.7361787E+002
 11
2.9805956E+002
 21
2.7607561E+002
  0
LINE
  8
104
  6
CONTINUOUS
 62
40
 10
3.0005956E+002
 20
2.7361787E+002
 11
3.0005956E+002
 21
2.7607561E+002
  0
LINE
  8
104
  6
CONTINUOUS
 62
40
 10
2.9805956E+002
 20
2.8299229E+002
 11
2.9805956E+002
 21
2.8545003E+002
  0
LINE
  8
104
  6
CONTINUOUS
 62
40
 10
3.0005956E+002
 20
2.8299229E+002
 11
3.0005956E+002
 21
2.8545003E+002
  0
CIRCLE
  8
104
  6
CONTINUOUS
 62
40
 10
2.9905956E+002
 20
2.2553395E+002
 40
6.0
  0
CIRCLE
  8
104
  6
CONTINUOUS
 62
40
 10
2.9905956E+002
 20
2.2553395E+002
 40
3.600036
  0
CIRCLE
  8
104
  6
CONTINUOUS
 62
40
 10
2.9905956E+002
 20
2.7953395E+002
 40
6.0
  0
CIRCLE
  8
104
  6
CONTINUOUS
 62
40
 10
2.9905956E+002
 20
2.7953395E+002
 40
3.600036
  0
LINE
  8
104
  6
CONTINUOUS
 62
40
 10
8.4459586E+001
 20
2.6253395E+002
 11
1.0104064E+002
 21
2.6253395E+002
  0
LINE
  8
104
  6
CONTINUOUS
 62
40
 10
8.4459586E+001
 20
2.4253395E+002
 11
1.0104064E+002
 21
2.4253395E+002
  0
LINE
  8
104
  6
CONTINUOUS
 62
40
 10
1.0205958E+002
 20
2.180341E+002
 11
1.0205958E+002
 21
2.3964015E+002
  0
LINE
  8
104
  6
CONTINUOUS
 62
40
 10
1.0205958E+002
 20
2.8703331E+002
 11
1.0205958E+002
 21
2.6542775E+002
  0
LINE
  8
104
  6
CONTINUOUS
 62
40
 10
1.3426986E+002
 20
2.8703331E+002
 11
8.9882071E+001
 21
2.8703331E+002
  0
ARC
  8
104
  6
CONTINUOUS
 62
40
 10
9.4059578E+001
 20
2.8272652E+002
 40
6.0000009
 50
1.3412698E+002
 51
1.7706295E+002
  0
ARC
  8
104
  6
CONTINUOUS
 62
40
 10
9.0017359E+001
 20
2.7794019E+002
 40
1.039754E+001
 50
2.5057591E+002
 51
4.2099124E+002
  0
ARC
  8
104
  6
CONTINUOUS
 62
40
 10
9.0026983E+001
 20
2.2701948E+002
 40
1.0502853E+001
 50
2.9863085E+002
 51
4.6927724E+002
  0
LINE
  8
104
  6
CONTINUOUS
 62
40
 10
9.3783339E+001
 20
2.8153395E+002
 11
9.5059577E+001
 21
2.8153395E+002
  0
ARC
  8
104
  6
CONTINUOUS
 62
40
 10
9.5059577E+001
 20
2.7803395E+002
 40
3.5
 50
2.7E+002
 51
4.5E+002
  0
LINE
  8
104
  6
CONTINUOUS
 62
40
 10
9.5059577E+001
 20
2.7453395E+002
 11
9.3783339E+001
 21
2.7453395E+002
  0
LINE
  8
104
  6
CONTINUOUS
 62
40
 10
8.6559577E+001
 20
2.7404588E+002
 11
8.6559577E+001
 21
2.6617125E+002
  0
LINE
  8
104
  6
CONTINUOUS
 62
40
 10
8.6559577E+001
 20
2.6617125E+002
 11
8.4459586E+001
 21
2.6253395E+002
  0
LINE
  8
104
  6
CONTINUOUS
 62
40
 10
8.4459586E+001
 20
2.6253395E+002
 11
8.4459586E+001
 21
2.4253395E+002
  0
LINE
  8
104
  6
CONTINUOUS
 62
40
 10
8.4459586E+001
 20
2.4253395E+002
 11
8.6559577E+001
 21
2.3889665E+002
  0
LINE
  8
104
  6
CONTINUOUS
 62
40
 10
8.6559577E+001
 20
2.3889665E+002
 11
8.6559577E+001
 21
2.3102202E+002
  0
LINE
  8
104
  6
CONTINUOUS
 62
40
 10
9.3792357E+001
 20
2.3051833E+002
 11
9.5059577E+001
 21
2.3051833E+002
  0
ARC
  8
104
  6
CONTINUOUS
 62
40
 10
9.5059577E+001
 20
2.2702614E+002
 40
3.4921875
 50
2.7E+002
 51
4.5E+002
  0
LINE
  8
104
  6
CONTINUOUS
 62
40
 10
9.5059577E+001
 20
2.2353395E+002
 11
9.3783339E+001
 21
2.2353395E+002
  0
LINE
  8
104
  6
CONTINUOUS
 62
40
 10
8.8087333E+001
 20
2.2202055E+002
 11
8.8087333E+001
 21
2.2203395E+002
  0
ARC
  8
104
  6
CONTINUOUS
 62
40
 10
9.463046E+001
 20
2.2264589E+002
 40
6.5716806
 50
1.8534296E+002
 51
1.9558201E+002
  0
ARC
  8
104
  6
CONTINUOUS
 62
40
 10
9.4291701E+001
 20
2.2255043E+002
 40
6.2197303
 50
1.9557324E+002
 51
2.0619508E+002
  0
ARC
  8
104
  6
CONTINUOUS
 62
40
 10
9.3970485E+001
 20
2.2239214E+002
 40
5.8616314
 50
2.0619274E+002
 51
2.172429E+002
  0
ARC
  8
104
  6
CONTINUOUS
 62
40
 10
9.3719655E+001
 20
2.222022E+002
 40
5.5469986
 50
2.1724902E+002
 51
2.2871307E+002
  0
LINE
  8
104
  6
CONTINUOUS
 62
40
 10
9.0059577E+001
 20
2.180341E+002
 11
1.3416219E+002
 21
2.180341E+002
  0
LINE
  8
104
  6
CONTINUOUS
 62
40
 10
3.0905956E+002
 20
2.180341E+002
 11
3.0905956E+002
 21
2.1853395E+002
  0
ARC
  8
104
  6
CONTINUOUS
 62
40
 10
3.1505955E+002
 20
2.1853395E+002
 40
5.9999895
 50
8.99999E+001
 51
1.8000002E+002
  0
LINE
  8
104
  6
CONTINUOUS
 62
40
 10
3.1505956E+002
 20
2.2453394E+002
 11
3.6455956E+002
 21
2.2453394E+002
  0
ARC
  8
104
  6
CONTINUOUS
 62
40
 10
3.645596E+002
 20
2.1853391E+002
 40
6.0000376
 50
4.354219E-004
 51
9.0000367E+001
  0
LINE
  8
104
  6
CONTINUOUS
 62
40
 10
3.7055964E+002
 20
2.1853395E+002
 11
3.7055964E+002
 21
2.180341E+002
  0
LINE
  8
104
  6
CONTINUOUS
 62
40
 10
3.0905956E+002
 20
2.8703331E+002
 11
3.0905956E+002
 21
2.8653395E+002
  0
ARC
  8
104
  6
CONTINUOUS
 62
40
 10
3.1505955E+002
 20
2.8653394E+002
 40
5.9999894
 50
1.799999E+002
 51
2.700001E+002
  0
LINE
  8
104
  6
CONTINUOUS
 62
40
 10
3.1505956E+002
 20
2.8053395E+002
 11
3.6455962E+002
 21
2.8053395E+002
  0
ARC
  8
104
  6
CONTINUOUS
 62
40
 10
3.6455963E+002
 20
2.8653396E+002
 40
6.000007
 50
2.6999992E+002
 51
3.5999993E+002
  0
LINE
  8
104
  6
CONTINUOUS
 62
40
 10
3.7055964E+002
 20
2.8653395E+002
 11
3.7055964E+002
 21
2.8703331E+002
  0
LINE
  8
104
  6
CONTINUOUS
 62
40
 10
1.9605958E+002
 20
2.8703331E+002
 11
1.9605958E+002
 21
2.8653395E+002
  0
ARC
  8
104
  6
CONTINUOUS
 62
40
 10
2.0205958E+002
 20
2.8653396E+002
 40
6.0000048
 50
1.8000005E+002
 51
2.6999995E+002
  0
LINE
  8
104
  6
CONTINUOUS
 62
40
 10
2.0205958E+002
 20
2.8053395E+002
 11
2.8305956E+002
 21
2.8053395E+002
  0
ARC
  8
104
  6
CONTINUOUS
 62
40
 10
2.8305957E+002
 20
2.8653396E+002
 40
6.000009
 50
2.6999994E+002
 51
3.5999991E+002
  0
LINE
  8
104
  6
CONTINUOUS
 62
40
 10
2.8905958E+002
 20
2.8653395E+002
 11
2.8905958E+002
 21
2.8703331E+002
  0
LINE
  8
104
  6
CONTINUOUS
 62
40
 10
1.9605958E+002
 20
2.180341E+002
 11
1.9605958E+002
 21
2.1853395E+002
  0
ARC
  8
104
  6
CONTINUOUS
 62
40
 10
2.0205958E+002
 20
2.1853394E+002
 40
6.0000048
 50
9.0000046E+001
 51
1.7999988E+002
  0
LINE
  8
104
  6
CONTINUOUS
 62
40
 10
2.0205958E+002
 20
2.2453394E+002
 11
2.8305956E+002
 21
2.2453394E+002
  0
ARC
  8
104
  6
CONTINUOUS
 62
40
 10
2.8305957E+002
 20
2.1853393E+002
 40
6.0000091
 50
1.631727E-004
 51
9.0000056E+001
  0
LINE
  8
104
  6
CONTINUOUS
 62
40
 10
2.8905958E+002
 20
2.1853395E+002
 11
2.8905958E+002
 21
2.180341E+002
  0
LINE
  8
104
  6
CONTINUOUS
 62
40
 10
1.3405958E+002
 20
2.8703331E+002
 11
1.9605958E+002
 21
2.8703331E+002
  0
LINE
  8
104
  6
CONTINUOUS
 62
40
 10
1.9605958E+002
 20
2.8703331E+002
 11
1.9605958E+002
 21
2.7253395E+002
  0
ARC
  8
104
  6
CONTINUOUS
 62
40
 10
2.0605959E+002
 20
2.7253395E+002
 40
1.0000009E+001
 50
1.8000001E+002
 51
2.6999995E+002
  0
LINE
  8
104
  6
CONTINUOUS
 62
40
 10
2.0605958E+002
 20
2.6253394E+002
 11
2.7905956E+002
 21
2.6253394E+002
  0
ARC
  8
104
  6
CONTINUOUS
 62
40
 10
2.7905956E+002
 20
2.7253396E+002
 40
1.0000013E+001
 50
2.6999999E+002
 51
3.5999997E+002
  0
LINE
  8
104
  6
CONTINUOUS
 62
40
 10
2.8905958E+002
 20
2.7253395E+002
 11
2.8905958E+002
 21
2.8703331E+002
  0
LINE
  8
104
  6
CONTINUOUS
 62
40
 10
2.8905958E+002
 20
2.8703331E+002
 11
3.0905956E+002
 21
2.8703331E+002
  0
LINE
  8
104
  6
CONTINUOUS
 62
40
 10
3.0905956E+002
 20
2.8703331E+002
 11
3.0905956E+002
 21
2.7253395E+002
  0
ARC
  8
104
  6
CONTINUOUS
 62
40
 10
3.1905956E+002
 20
2.7253394E+002
 40
9.9999936
 50
1.7999992E+002
 51
2.7000004E+002
  0
LINE
  8
104
  6
CONTINUOUS
 62
40
 10
3.1905956E+002
 20
2.6253394E+002
 11
3.6055956E+002
 21
2.6253394E+002
  0
ARC
  8
104
  6
CONTINUOUS
 62
40
 10
3.605596E+002
 20
2.7253398E+002
 40
1.0000042E+001
 50
2.699998E+002
 51
3.5999981E+002
  0
LINE
  8
104
  6
CONTINUOUS
 62
40
 10
3.7055964E+002
 20
2.7253395E+002
 11
3.7055964E+002
 21
2.8703331E+002
  0
LINE
  8
104
  6
CONTINUOUS
 62
40
 10
3.7055964E+002
 20
2.8703331E+002
 11
3.9405956E+002
 21
2.8703331E+002
  0
LINE
  8
104
  6
CONTINUOUS
 62
40
 10
3.9405956E+002
 20
2.8703331E+002
 11
3.9405956E+002
 21
2.180341E+002
  0
LINE
  8
104
  6
CONTINUOUS
 62
40
 10
3.9405956E+002
 20
2.180341E+002
 11
3.7055956E+002
 21
2.180341E+002
  0
LINE
  8
104
  6
CONTINUOUS
 62
40
 10
3.7055956E+002
 20
2.180341E+002
 11
3.7055956E+002
 21
2.3253395E+002
  0
ARC
  8
104
  6
CONTINUOUS
 62
40
 10
3.6055953E+002
 20
2.3253391E+002
 40
1.0000034E+001
 50
2.408474E-004
 51
8.9999805E+001
  0
LINE
  8
104
  6
CONTINUOUS
 62
40
 10
3.6055956E+002
 20
2.4253394E+002
 11
3.1905956E+002
 21
2.4253394E+002
  0
ARC
  8
104
  6
CONTINUOUS
 62
40
 10
3.1905956E+002
 20
2.3253396E+002
 40
9.9999859
 50
9.0000005E+001
 51
1.8000003E+002
  0
LINE
  8
104
  6
CONTINUOUS
 62
40
 10
3.0905958E+002
 20
2.3253395E+002
 11
3.0905958E+002
 21
2.180341E+002
  0
LINE
  8
104
  6
CONTINUOUS
 62
40
 10
3.0905958E+002
 20
2.180341E+002
 11
2.8905956E+002
 21
2.180341E+002
  0
LINE
  8
104
  6
CONTINUOUS
 62
40
 10
2.8905956E+002
 20
2.180341E+002
 11
2.8905956E+002
 21
2.3253395E+002
  0
ARC
  8
104
  6
CONTINUOUS
 62
40
 10
2.7905956E+002
 20
2.3253394E+002
 40
1.0000006E+001
 50
7.74961E-005
 51
8.9999968E+001
  0
LINE
  8
104
  6
CONTINUOUS
 62
40
 10
2.7905956E+002
 20
2.4253394E+002
 11
2.0605958E+002
 21
2.4253394E+002
  0
ARC
  8
104
  6
CONTINUOUS
 62
40
 10
2.0605956E+002
 20
2.3253394E+002
 40
1.0000001E+001
 50
8.9999921E+001
 51
1.7999995E+002
  0
LINE
  8
104
  6
CONTINUOUS
 62
40
 10
1.9605956E+002
 20
2.3253395E+002
 11
1.9605956E+002
 21
2.180341E+002
  0
LINE
  8
104
  6
CONTINUOUS
 62
40
 10
1.9605956E+002
 20
2.180341E+002
 11
1.3416219E+002
 21
2.180341E+002
  0
LINE
  8
104
  6
CONTINUOUS
 62
40
 10
3.7055956E+002
 20
2.180341E+002
 11
3.0905956E+002
 21
2.180341E+002
  0
LINE
  8
104
  6
CONTINUOUS
 62
40
 10
3.0905956E+002
 20
2.8703331E+002
 11
3.7055956E+002
 21
2.8703331E+002
  0
CIRCLE
  8
104
  6
CONTINUOUS
 62
40
 10
1.0805958E+002
 20
2.2303395E+002
 40
3.75
  0
CIRCLE
  8
104
  6
CONTINUOUS
 62
40
 10
1.0805958E+002
 20
2.8203395E+002
 40
3.75
  0
CIRCLE
  8
104
  6
CONTINUOUS
 62
40
 10
1.7405958E+002
 20
2.2553395E+002
 40
4.75
  0
CIRCLE
  8
104
  6
CONTINUOUS
 62
40
 10
1.7405958E+002
 20
2.7953395E+002
 40
2.5
  0
CIRCLE
  8
104
  6
CONTINUOUS
 62
40
 10
1.7405958E+002
 20
2.7953395E+002
 40
4.75
  0
CIRCLE
  8
104
  6
CONTINUOUS
 62
40
 10
3.8405956E+002
 20
2.7953395E+002
 40
2.5
  0
CIRCLE
  8
104
  6
CONTINUOUS
 62
40
 10
3.8405956E+002
 20
2.7953395E+002
 40
4.75
  0
CIRCLE
  8
104
  6
CONTINUOUS
 62
40
 10
3.8405956E+002
 20
2.2553395E+002
 40
2.5
  0
CIRCLE
  8
104
  6
CONTINUOUS
 62
40
 10
3.8405956E+002
 20
2.2553395E+002
 40
4.75
  0
CIRCLE
  8
104
  6
CONTINUOUS
 62
40
 10
9.0059577E+001
 20
2.5253395E+002
 40
2.5
  0
CIRCLE
  8
104
  6
CONTINUOUS
 62
40
 10
9.0059577E+001
 20
2.5253395E+002
 40
4.75
  0
CIRCLE
  8
104
  6
CONTINUOUS
 62
40
 10
1.7405958E+002
 20
2.2553395E+002
 40
2.5
  0
LINE
  8
104
  6
CONTINUOUS
 62
40
 10
1.7655958E+002
 20
2.2553395E+002
 11
1.7405958E+002
 21
2.2303395E+002
  0
CIRCLE
  8
104
  6
CONTINUOUS
 62
40
 10
1.3405958E+002
 20
2.7753395E+002
 40
2.5
  0
CIRCLE
  8
104
  6
CONTINUOUS
 62
40
 10
1.5905958E+002
 20
2.5253395E+002
 40
2.5
  0
CIRCLE
  8
104
  6
CONTINUOUS
 62
40
 10
1.3405958E+002
 20
2.2753395E+002
 40
2.5
  0
CIRCLE
  8
104
  6
CONTINUOUS
 62
40
 10
1.0905958E+002
 20
2.5253395E+002
 40
2.5
  0
CIRCLE
  8
104
  6
CONTINUOUS
 62
40
 10
1.3405958E+002
 20
2.5253395E+002
 40
3.45E+001
  0
CIRCLE
  8
104
  6
CONTINUOUS
 62
40
 10
1.3405958E+002
 20
2.5253395E+002
 40
1.2649994E+001
  0
LINE
  8
106
  6
CENTERLINE
 62
1
 10
7.2252936E+001
 20
2.5253395E+002
 11
4.2646837E+002
 21
2.5253395E+002
  0
LINE
  8
104
  6
CONTINUOUS
 62
40
 10
8.0559577E+001
 20
2.1503395E+002
 11
4.1855956E+002
 21
2.1503395E+002
  0
LINE
  8
104
  6
CONTINUOUS
 62
40
 10
4.1855956E+002
 20
2.1503395E+002
 11
4.1855956E+002
 21
2.9003395E+002
  0
LINE
  8
104
  6
CONTINUOUS
 62
40
 10
4.1855956E+002
 20
2.9003395E+002
 11
8.0559577E+001
 21
2.9003395E+002
  0
LINE
  8
104
  6
CONTINUOUS
 62
40
 10
8.0559577E+001
 20
2.9003395E+002
 11
8.0559577E+001
 21
2.1503395E+002
  0
LINE
  8
104
  6
CONTINUOUS
 62
40
 10
7.9059577E+001
 20
2.9153395E+002
 11
7.9059577E+001
 21
2.1353395E+002
  0
LINE
  8
104
  6
CONTINUOUS
 62
40
 10
7.9059577E+001
 20
2.1353395E+002
 11
4.2005956E+002
 21
2.1353395E+002
  0
LINE
  8
104
  6
CONTINUOUS
 62
40
 10
4.2005956E+002
 20
2.1353395E+002
 11
4.2005956E+002
 21
2.9153395E+002
  0
LINE
  8
104
  6
CONTINUOUS
 62
40
 10
4.2005956E+002
 20
2.9153395E+002
 11
7.9059577E+001
 21
2.9153395E+002
  0
LINE
  8
98
  6
CONTINUOUS
 62
1
 10
5.0
 20
5.0
 11
5.89E+002
 21
5.0
  0
LINE
  8
98
  6
CONTINUOUS
 62
1
 10
5.89E+002
 20
5.0
 11
5.89E+002
 21
4.15E+002
  0
LINE
  8
98
  6
CONTINUOUS
 62
1
 10
5.89E+002
 20
4.15E+002
 11
5.0
 21
4.15E+002
  0
LINE
  8
98
  6
CONTINUOUS
 62
1
 10
5.0
 20
4.15E+002
 11
5.0
 21
5.0
  0
ENDSEC
  0
EOF
