  0
SECTION
  2
HEADER
  9
$ACADVER
  1
AC1009
999
I-DEAS 8 Not Encoded
  9
$EXTMIN
 10
0.0
 20
0.0
  9
$EXTMAX
 10
4.2E+002
 20
2.97E+002
  9
$TEXTSIZE
 40
1.25E-001
  9
$LTSCALE
 40
1.0
  9
$CLAYER
  8
104
  9
$CECOLOR
 62
40
  9
$DIMASZ
 40
1.25E-001
  9
$DIMEXO
 40
6.25E-002
  9
$DIMDLI
 40
2.5E-001
  9
$DIMEXE
 40
1.25E-001
  9
$DIMTP
 40
5.0E-003
  9
$DIMTM
 40
-5.0E-003
  9
$DIMTXT
 40
3.0
  9
$DIMLIM
 70
0
  9
$DIMTIH
 70
1
  9
$DIMTOH
 70
1
  9
$DIMSE1
 70
0
  9
$DIMSE2
 70
0
  9
$DIMTAD
 70
0
  9
$DIMASO
 70
1
  9
$DIMALT
 70
0
  9
$DIMALTD
 70
0
  9
$DIMTOFL
 70
1
  9
$DIMTIX
 70
0
  9
$DIMSAH
 70
0
  9
$DIMTFAC
 40
1.0
  9
$DIMGAP
 40
6.25E-002
  9
$LUNITS
 70
2
  9
$LUPREC
 70
3
  9
$FILLETRAD
 40
2.0
  9
$AUNITS
 70
0
  9
$AUPREC
 70
1
  9
$CHAMFERA
 40
1.0E+001
  9
$CHAMFERB
 40
1.0E+001
  9
$ANGBASE
 50
0.0
  9
$ANGDIR
 70
0
  9
$PDMODE
 70
2
  9
$PDSIZE
 40
-1.0E-002
  9
$SPLINETYPE
 70
6
  0
ENDSEC
  0
SECTION
  2
TABLES
  0
TABLE
  2
LTYPE
 70
7
  0
LTYPE
  2
HIDDENNEW00
  3
_ 
 70
64
 72
65
 73
3
 40
4.5
 49
1.5
 49
-1.5
 49
1.5
  0
LTYPE
  2
HIDDENNEW01
  3
_ 
 70
64
 72
65
 73
3
 40
4.5
 49
1.5
 49
-1.5
 49
1.5
  0
LTYPE
  2
HIDDEN
  3
_ 
 70
64
 72
65
 73
3
 40
4.5
 49
1.5
 49
-1.5
 49
1.5
  0
LTYPE
  2
CENTERLINE
  3
_ 
 70
64
 72
65
 73
5
 40
3.0E+001
 49
1.2E+001
 49
-1.5
 49
3.0
 49
-1.5
 49
1.2E+001
  0
LTYPE
  2
PHANTOM
  3
_ 
 70
64
 72
65
 73
7
 40
2.95E+001
 49
9.5
 49
-1.5
 49
3.0
 49
-1.5
 49
3.0
 49
-1.5
 49
9.5
  0
LTYPE
  2
SHORT_DASH
  3
_ 
 70
64
 72
65
 73
3
 40
3.0
 49
7.5E-001
 49
-1.5
 49
7.5E-001
  0
LTYPE
  2
LONG_DASH
  3
_ 
 70
64
 72
65
 73
3
 40
9.0
 49
2.25
 49
-4.5
 49
2.25
  0
ENDTAB
  0
TABLE
  2
LAYER
 70
258
  0
LAYER
  2
1
 70
0
 62
7
  6
CONTINUOUS
  0
LAYER
  2
2
 70
0
 62
7
  6
CONTINUOUS
  0
LAYER
  2
3
 70
0
 62
7
  6
CONTINUOUS
  0
LAYER
  2
4
 70
0
 62
7
  6
CONTINUOUS
  0
LAYER
  2
5
 70
0
 62
7
  6
CONTINUOUS
  0
LAYER
  2
MED-6
 70
0
 62
6
  6
HIDDENNEW00
  0
LAYER
  2
7
 70
0
 62
7
  6
CONTINUOUS
  0
LAYER
  2
8
 70
0
 62
7
  6
CONTINUOUS
  0
LAYER
  2
9
 70
0
 62
7
  6
CONTINUOUS
  0
LAYER
  2
10
 70
0
 62
7
  6
CONTINUOUS
  0
LAYER
  2
MED-11
 70
0
 62
70
  6
HIDDENNEW00
  0
LAYER
  2
12
 70
0
 62
7
  6
CONTINUOUS
  0
LAYER
  2
13
 70
0
 62
7
  6
CONTINUOUS
  0
LAYER
  2
14
 70
0
 62
7
  6
CONTINUOUS
  0
LAYER
  2
15
 70
0
 62
7
  6
CONTINUOUS
  0
LAYER
  2
16
 70
0
 62
7
  6
CONTINUOUS
  0
LAYER
  2
17
 70
0
 62
7
  6
CONTINUOUS
  0
LAYER
  2
18
 70
0
 62
7
  6
CONTINUOUS
  0
LAYER
  2
19
 70
0
 62
7
  6
CONTINUOUS
  0
LAYER
  2
20
 70
0
 62
7
  6
CONTINUOUS
  0
LAYER
  2
21
 70
0
 62
7
  6
CONTINUOUS
  0
LAYER
  2
22
 70
0
 62
7
  6
CONTINUOUS
  0
LAYER
  2
23
 70
0
 62
7
  6
CONTINUOUS
  0
LAYER
  2
24
 70
0
 62
7
  6
CONTINUOUS
  0
LAYER
  2
25
 70
0
 62
7
  6
CONTINUOUS
  0
LAYER
  2
26
 70
0
 62
7
  6
CONTINUOUS
  0
LAYER
  2
27
 70
0
 62
7
  6
CONTINUOUS
  0
LAYER
  2
28
 70
0
 62
7
  6
CONTINUOUS
  0
LAYER
  2
29
 70
0
 62
7
  6
CONTINUOUS
  0
LAYER
  2
30
 70
0
 62
7
  6
CONTINUOUS
  0
LAYER
  2
31
 70
0
 62
7
  6
CONTINUOUS
  0
LAYER
  2
32
 70
0
 62
7
  6
CONTINUOUS
  0
LAYER
  2
33
 70
0
 62
7
  6
CONTINUOUS
  0
LAYER
  2
34
 70
0
 62
7
  6
CONTINUOUS
  0
LAYER
  2
35
 70
0
 62
7
  6
CONTINUOUS
  0
LAYER
  2
36
 70
0
 62
7
  6
CONTINUOUS
  0
LAYER
  2
37
 70
0
 62
7
  6
CONTINUOUS
  0
LAYER
  2
38
 70
0
 62
7
  6
CONTINUOUS
  0
LAYER
  2
39
 70
0
 62
7
  6
CONTINUOUS
  0
LAYER
  2
40
 70
0
 62
7
  6
CONTINUOUS
  0
LAYER
  2
41
 70
0
 62
7
  6
CONTINUOUS
  0
LAYER
  2
42
 70
0
 62
7
  6
CONTINUOUS
  0
LAYER
  2
43
 70
0
 62
7
  6
CONTINUOUS
  0
LAYER
  2
44
 70
0
 62
7
  6
CONTINUOUS
  0
LAYER
  2
45
 70
0
 62
7
  6
CONTINUOUS
  0
LAYER
  2
46
 70
0
 62
7
  6
CONTINUOUS
  0
LAYER
  2
47
 70
0
 62
7
  6
CONTINUOUS
  0
LAYER
  2
48
 70
0
 62
7
  6
CONTINUOUS
  0
LAYER
  2
49
 70
0
 62
7
  6
CONTINUOUS
  0
LAYER
  2
50
 70
0
 62
7
  6
CONTINUOUS
  0
LAYER
  2
51
 70
0
 62
7
  6
CONTINUOUS
  0
LAYER
  2
52
 70
0
 62
7
  6
CONTINUOUS
  0
LAYER
  2
53
 70
0
 62
7
  6
CONTINUOUS
  0
LAYER
  2
54
 70
0
 62
7
  6
CONTINUOUS
  0
LAYER
  2
55
 70
0
 62
7
  6
CONTINUOUS
  0
LAYER
  2
56
 70
0
 62
7
  6
CONTINUOUS
  0
LAYER
  2
57
 70
0
 62
7
  6
CONTINUOUS
  0
LAYER
  2
58
 70
0
 62
7
  6
CONTINUOUS
  0
LAYER
  2
59
 70
0
 62
7
  6
CONTINUOUS
  0
LAYER
  2
60
 70
0
 62
7
  6
CONTINUOUS
  0
LAYER
  2
61
 70
0
 62
7
  6
CONTINUOUS
  0
LAYER
  2
62
 70
0
 62
7
  6
CONTINUOUS
  0
LAYER
  2
63
 70
0
 62
7
  6
CONTINUOUS
  0
LAYER
  2
64
 70
0
 62
7
  6
CONTINUOUS
  0
LAYER
  2
65
 70
0
 62
7
  6
CONTINUOUS
  0
LAYER
  2
66
 70
0
 62
7
  6
CONTINUOUS
  0
LAYER
  2
67
 70
0
 62
7
  6
CONTINUOUS
  0
LAYER
  2
68
 70
0
 62
7
  6
CONTINUOUS
  0
LAYER
  2
69
 70
0
 62
7
  6
CONTINUOUS
  0
LAYER
  2
70
 70
0
 62
7
  6
CONTINUOUS
  0
LAYER
  2
71
 70
0
 62
7
  6
CONTINUOUS
  0
LAYER
  2
72
 70
0
 62
7
  6
CONTINUOUS
  0
LAYER
  2
73
 70
0
 62
7
  6
CONTINUOUS
  0
LAYER
  2
74
 70
0
 62
7
  6
CONTINUOUS
  0
LAYER
  2
75
 70
0
 62
7
  6
CONTINUOUS
  0
LAYER
  2
76
 70
0
 62
7
  6
CONTINUOUS
  0
LAYER
  2
77
 70
0
 62
7
  6
CONTINUOUS
  0
LAYER
  2
78
 70
0
 62
7
  6
CONTINUOUS
  0
LAYER
  2
79
 70
0
 62
7
  6
CONTINUOUS
  0
LAYER
  2
80
 70
0
 62
7
  6
CONTINUOUS
  0
LAYER
  2
81
 70
0
 62
7
  6
CONTINUOUS
  0
LAYER
  2
82
 70
0
 62
7
  6
CONTINUOUS
  0
LAYER
  2
83
 70
0
 62
7
  6
CONTINUOUS
  0
LAYER
  2
84
 70
0
 62
7
  6
CONTINUOUS
  0
LAYER
  2
85
 70
0
 62
7
  6
CONTINUOUS
  0
LAYER
  2
86
 70
0
 62
7
  6
CONTINUOUS
  0
LAYER
  2
87
 70
0
 62
7
  6
CONTINUOUS
  0
LAYER
  2
88
 70
0
 62
7
  6
CONTINUOUS
  0
LAYER
  2
89
 70
0
 62
7
  6
CONTINUOUS
  0
LAYER
  2
90
 70
0
 62
7
  6
CONTINUOUS
  0
LAYER
  2
91
 70
0
 62
7
  6
CONTINUOUS
  0
LAYER
  2
92
 70
0
 62
7
  6
CONTINUOUS
  0
LAYER
  2
93
 70
0
 62
7
  6
CONTINUOUS
  0
LAYER
  2
94
 70
0
 62
7
  6
CONTINUOUS
  0
LAYER
  2
95
 70
0
 62
7
  6
CONTINUOUS
  0
LAYER
  2
96
 70
0
 62
7
  6
CONTINUOUS
  0
LAYER
  2
97
 70
0
 62
7
  6
CONTINUOUS
  0
LAYER
  2
98
 70
0
 62
7
  6
CONTINUOUS
  0
LAYER
  2
99
 70
0
 62
7
  6
CONTINUOUS
  0
LAYER
  2
MED-0
 70
0
 62
230
  6
HIDDENNEW00
  0
LAYER
  2
101
 70
0
 62
7
  6
CONTINUOUS
  0
LAYER
  2
102
 70
0
 62
7
  6
CONTINUOUS
  0
LAYER
  2
103
 70
0
 62
7
  6
CONTINUOUS
  0
LAYER
  2
104
 70
0
 62
7
  6
CONTINUOUS
  0
LAYER
  2
105
 70
0
 62
7
  6
CONTINUOUS
  0
LAYER
  2
106
 70
0
 62
7
  6
CONTINUOUS
  0
LAYER
  2
Drafting_Hidden_Entities
 70
1
 62
7
  6
CONTINUOUS
  0
ENDTAB
  0
TABLE
  2
STYLE
 70
1
  0
STYLE
  2
STANDARD
 70
64
 40
0.0
 41
1.0
 50
0.0
 71
0
 42
1.0
  3
monotxt.shx
  4

  0
ENDTAB
  0
TABLE
  2
VIEW
 70
0
  0
ENDTAB
  0
TABLE
  2
DIMSTYLE
 70
0
  0
ENDTAB
  0
ENDSEC
  0
SECTION
  2
BLOCKS
  0
BLOCK
  2
5
 10
0.0
 20
0.0
 70
0
  0
TEXT
  8
103
  6
CONTINUOUS
 62
150
 10
3.5701354E+001
 20
-3.8906165E+001
 40
3.5
  1
G93EMF-DR
 41
6.5000002E-001
 72
1
 11
2.5463854E+001
 21
-4.0656165E+001
 73
2
  0
TEXT
  8
103
  6
CONTINUOUS
 62
150
 10
9.1485029E+001
 20
1.4346137E+001
 40
3.5
  1
G93EMF-DL
 41
6.5000002E-001
 72
1
 11
8.1247529E+001
 21
1.2596137E+001
 73
2
  0
TEXT
  8
103
  6
CONTINUOUS
 62
150
 10
2.3613787E+002
 20
1.5728254E+001
 40
3.5
  1
G93EMR-DL
 41
6.5000002E-001
 72
1
 11
2.2590037E+002
 21
1.3978254E+001
 73
2
  0
TEXT
  8
103
  6
CONTINUOUS
 62
150
 10
1.8766378E+002
 20
-3.8348917E+001
 40
3.5
  1
G93EMR-DR
 41
6.5000002E-001
 72
1
 11
1.7742628E+002
 21
-4.0098917E+001
 73
2
  0
TEXT
  8
103
  6
CONTINUOUS
 62
150
 10
-8.5044945E+001
 20
-3.7485439E+001
 40
3.5
  1
G93N(RF)-DR
 41
6.5454547E-001
 72
1
 11
-9.7644945E+001
 21
-3.9235439E+001
 73
2
  0
TEXT
  8
103
  6
CONTINUOUS
 62
150
 10
-3.00307E+001
 20
1.3804679E+001
 40
3.5
  1
G93N(RF)-DL
 41
6.5454547E-001
 72
1
 11
-4.2630701E+001
 21
1.2054679E+001
 73
2
  0
CIRCLE
  8
99
  6
CONTINUOUS
 62
1
 10
9.1958418E+001
 20
-2.7268742E+001
 40
5.99999E-001
  0
LINE
  8
106
  6
CENTERLINE
 62
1
 10
9.3158418E+001
 20
-2.7268742E+001
 11
9.0882814E+001
 21
-2.7268742E+001
  0
LINE
  8
106
  6
CENTERLINE
 62
1
 10
9.1958418E+001
 20
-2.6295819E+001
 11
9.1958418E+001
 21
-2.8367581E+001
  0
CIRCLE
  8
99
  6
CONTINUOUS
 62
1
 10
6.358415
 20
-2.7271458E+001
 40
5.99998E-001
  0
LINE
  8
104
  6
CONTINUOUS
 62
40
 10
5.158418
 20
-2.3271466E+001
 11
2.658418
 21
-2.3271466E+001
  0
LINE
  8
104
  6
CONTINUOUS
 62
40
 10
2.658418
 20
-2.3271466E+001
 11
2.658418
 21
-2.9271458E+001
  0
LINE
  8
104
  6
CONTINUOUS
 62
40
 10
2.658418
 20
-2.9271458E+001
 11
5.158418
 21
-2.9271458E+001
  0
LINE
  8
104
  6
CONTINUOUS
 62
40
 10
5.158418
 20
-2.9271458E+001
 11
9.3158418E+001
 21
-2.9271458E+001
  0
LINE
  8
104
  6
CONTINUOUS
 62
40
 10
9.3158418E+001
 20
-2.9271458E+001
 11
9.3158411E+001
 21
-2.3271466E+001
  0
LINE
  8
104
  6
CONTINUOUS
 62
40
 10
9.3158411E+001
 20
-2.3271466E+001
 11
5.158418
 21
-2.3271466E+001
  0
LINE
  8
104
  6
CONTINUOUS
 62
40
 10
5.158418
 20
-2.3271466E+001
 11
5.158418
 21
-2.9271458E+001
  0
LINE
  8
104
  6
CONTINUOUS
 62
40
 10
9.5658418E+001
 20
-2.9271458E+001
 11
9.3158418E+001
 21
-2.9271458E+001
  0
LINE
  8
104
  6
CONTINUOUS
 62
40
 10
9.3158418E+001
 20
-2.9271458E+001
 11
9.3158411E+001
 21
-2.3271466E+001
  0
LINE
  8
104
  6
CONTINUOUS
 62
40
 10
9.3158411E+001
 20
-2.3271466E+001
 11
9.5658418E+001
 21
-2.3271466E+001
  0
LINE
  8
104
  6
CONTINUOUS
 62
40
 10
9.5658418E+001
 20
-2.3271466E+001
 11
9.5658418E+001
 21
-2.9271458E+001
  0
LINE
  8
99
  6
CONTINUOUS
 62
1
 10
7.966051
 20
-2.7271458E+001
 11
4.712328
 21
-2.7271458E+001
  0
LINE
  8
99
  6
CONTINUOUS
 62
1
 10
6.358415
 20
-2.5786717E+001
 11
6.358415
 21
-2.8682537E+001
  0
LINE
  8
104
  6
CONTINUOUS
 62
40
 10
8.795841E+001
 20
-2.9971455E+001
 11
8.795841E+001
 21
-2.9871456E+001
  0
ARC
  8
104
  6
CONTINUOUS
 62
40
 10
8.7858406E+001
 20
-2.9871462E+001
 40
1.0000363E-001
 50
2.995171E-003
 51
9.0001359E+001
  0
LINE
  8
104
  6
CONTINUOUS
 62
40
 10
8.7858404E+001
 20
-2.9771458E+001
 11
8.6058408E+001
 21
-2.9771458E+001
  0
ARC
  8
104
  6
CONTINUOUS
 62
40
 10
8.6058405E+001
 20
-2.9871453E+001
 40
9.9995222E-002
 50
8.9998408E+001
 51
1.8000182E+002
  0
LINE
  8
104
  6
CONTINUOUS
 62
40
 10
8.595841E+001
 20
-2.9871456E+001
 11
8.595841E+001
 21
-2.9971455E+001
  0
LINE
  8
104
  6
CONTINUOUS
 62
40
 10
8.9158407E+001
 20
-3.2621456E+001
 11
8.9158407E+001
 21
-3.0971455E+001
  0
LINE
  8
104
  6
CONTINUOUS
 62
40
 10
8.9158407E+001
 20
-3.0971455E+001
 11
8.4758405E+001
 21
-3.0971455E+001
  0
LINE
  8
104
  6
CONTINUOUS
 62
40
 10
8.4758405E+001
 20
-3.0971455E+001
 11
8.4758405E+001
 21
-3.2621456E+001
  0
LINE
  8
104
  6
CONTINUOUS
 62
40
 10
8.8113409E+001
 20
-3.3871456E+001
 11
8.8178404E+001
 21
-3.3871456E+001
  0
LINE
  8
104
  6
CONTINUOUS
 62
40
 10
8.7608404E+001
 20
-3.0971455E+001
 11
8.6308408E+001
 21
-3.0971455E+001
  0
LINE
  8
104
  6
CONTINUOUS
 62
40
 10
1.0258417E+001
 20
-2.9271458E+001
 11
1.0258417E+001
 21
-2.9771458E+001
  0
LINE
  8
104
  6
CONTINUOUS
 62
40
 10
1.0258417E+001
 20
-2.9771458E+001
 11
1.3658418E+001
 21
-2.9771458E+001
  0
LINE
  8
104
  6
CONTINUOUS
 62
40
 10
1.3658418E+001
 20
-2.9771458E+001
 11
1.3658418E+001
 21
-2.9271458E+001
  0
LINE
  8
104
  6
CONTINUOUS
 62
40
 10
1.2958414E+001
 20
-2.9771458E+001
 11
1.2958414E+001
 21
-2.9971455E+001
  0
LINE
  8
104
  6
CONTINUOUS
 62
40
 10
1.0958414E+001
 20
-2.9771458E+001
 11
1.0958414E+001
 21
-2.9971455E+001
  0
LINE
  8
104
  6
CONTINUOUS
 62
40
 10
1.3255419E+001
 20
-3.0971455E+001
 11
1.3255419E+001
 21
-3.1071461E+001
  0
ARC
  8
104
  6
CONTINUOUS
 62
40
 10
1.3155415E+001
 20
-3.1071456E+001
 40
1.0000358E-001
 50
2.7000262E+002
 51
3.5999709E+002
  0
LINE
  8
104
  6
CONTINUOUS
 62
40
 10
1.315542E+001
 20
-3.117146E+001
 11
1.0761423E+001
 21
-3.117146E+001
  0
ARC
  8
104
  6
CONTINUOUS
 62
40
 10
1.076142E+001
 20
-3.1071463E+001
 40
9.999649E-002
 50
1.7999885E+002
 51
2.7000144E+002
  0
LINE
  8
104
  6
CONTINUOUS
 62
40
 10
1.0661424E+001
 20
-3.1071461E+001
 11
1.0661424E+001
 21
-3.0971455E+001
  0
LINE
  8
104
  6
CONTINUOUS
 62
40
 10
1.0661424E+001
 20
-3.0971455E+001
 11
1.3255419E+001
 21
-3.0971455E+001
  0
LINE
  8
99
  6
CONTINUOUS
 62
1
 10
1.1958421E+001
 20
-3.1379979E+001
 11
1.1958421E+001
 21
-2.8631405E+001
  0
LINE
  8
104
  6
CONTINUOUS
 62
40
 10
8.8138403E+001
 20
-3.0971455E+001
 11
8.577841E+001
 21
-3.0971455E+001
  0
LINE
  8
104
  6
CONTINUOUS
 62
40
 10
1.0585207E+001
 20
-2.9971455E+001
 11
1.0963426E+001
 21
-2.9971455E+001
  0
LINE
  8
104
  6
CONTINUOUS
 62
40
 10
1.2953417E+001
 20
-2.9971455E+001
 11
1.3331629E+001
 21
-2.9971455E+001
  0
LINE
  8
104
  6
CONTINUOUS
 62
40
 10
1.0758417E+001
 20
-3.0971455E+001
 11
1.0963426E+001
 21
-3.0971455E+001
  0
LINE
  8
104
  6
CONTINUOUS
 62
40
 10
1.2953417E+001
 20
-3.0971455E+001
 11
1.3158418E+001
 21
-3.0971455E+001
  0
LINE
  8
104
  6
CONTINUOUS
 62
40
 10
9.758417
 20
-3.0971455E+001
 11
9.758417
 21
-2.9971455E+001
  0
LINE
  8
104
  6
CONTINUOUS
 62
40
 10
9.758417
 20
-2.9971455E+001
 11
1.3331629E+001
 21
-2.9971455E+001
  0
LINE
  8
104
  6
CONTINUOUS
 62
40
 10
1.3331629E+001
 20
-2.9971455E+001
 11
8.577841E+001
 21
-2.9971455E+001
  0
LINE
  8
104
  6
CONTINUOUS
 62
40
 10
8.577841E+001
 20
-2.9971455E+001
 11
8.9158407E+001
 21
-2.9971455E+001
  0
LINE
  8
104
  6
CONTINUOUS
 62
40
 10
8.9158407E+001
 20
-2.9971455E+001
 11
8.9158407E+001
 21
-3.0971455E+001
  0
LINE
  8
104
  6
CONTINUOUS
 62
40
 10
8.9158407E+001
 20
-3.0971455E+001
 11
9.758417
 21
-3.0971455E+001
  0
LINE
  8
106
  6
CENTERLINE
 62
1
 10
8.695841E+001
 20
-2.9412236E+001
 11
8.695841E+001
 21
-3.4079884E+001
  0
CIRCLE
  8
105
  6
HIDDEN
 62
1
 10
9.3558408E+001
 20
-3.4871449E+001
 40
1.0
  0
CIRCLE
  8
105
  6
HIDDEN
 62
1
 10
7.1958414E+001
 20
-3.6471455E+001
 40
1.0
  0
LINE
  8
106
  6
CENTERLINE
 62
1
 10
7.1958414E+001
 20
-3.5038121E+001
 11
7.1958414E+001
 21
-3.7925221E+001
  0
LINE
  8
106
  6
CENTERLINE
 62
1
 10
7.0559908E+001
 20
-3.6471455E+001
 11
7.3406912E+001
 21
-3.6471455E+001
  0
LINE
  8
106
  6
CENTERLINE
 62
1
 10
8.3158411E+001
 20
-3.5038121E+001
 11
8.3158411E+001
 21
-3.7925221E+001
  0
LINE
  8
106
  6
CENTERLINE
 62
1
 10
8.1759905E+001
 20
-3.6471455E+001
 11
8.4606909E+001
 21
-3.6471455E+001
  0
CIRCLE
  8
105
  6
HIDDEN
 62
1
 10
8.3158411E+001
 20
-3.6471455E+001
 40
1.0
  0
CIRCLE
  8
105
  6
HIDDEN
 62
1
 10
6.1558416E+001
 20
-4.3471455E+001
 40
1.0
  0
LINE
  8
99
  6
CONTINUOUS
 62
1
 10
9.3558408E+001
 20
-4.497202E+001
 11
9.3558408E+001
 21
-3.331667E+001
  0
LINE
  8
106
  6
CENTERLINE
 62
1
 10
9.4770216E+001
 20
-3.4871449E+001
 11
9.2037565E+001
 21
-3.4871449E+001
  0
LINE
  8
106
  6
CENTERLINE
 62
1
 10
6.0346609E+001
 20
-4.3471455E+001
 11
6.307926E+001
 21
-4.3471455E+001
  0
LINE
  8
106
  6
CENTERLINE
 62
1
 10
6.1558416E+001
 20
-4.497202E+001
 11
6.1558416E+001
 21
-3.3373509E+001
  0
LINE
  8
106
  6
CENTERLINE
 62
1
 10
6.0346609E+001
 20
-4.027145E+001
 11
6.307926E+001
 21
-4.027145E+001
  0
LINE
  8
106
  6
CENTERLINE
 62
1
 10
6.0346609E+001
 20
-3.8071453E+001
 11
6.307926E+001
 21
-3.8071453E+001
  0
LINE
  8
106
  6
CENTERLINE
 62
1
 10
6.0346609E+001
 20
-3.4871449E+001
 11
6.307926E+001
 21
-3.4871449E+001
  0
LINE
  8
106
  6
CENTERLINE
 62
1
 10
9.4770216E+001
 20
-4.3471455E+001
 11
9.2037565E+001
 21
-4.3471455E+001
  0
LINE
  8
106
  6
CENTERLINE
 62
1
 10
9.4770216E+001
 20
-4.027145E+001
 11
9.2037565E+001
 21
-4.027145E+001
  0
LINE
  8
106
  6
CENTERLINE
 62
1
 10
9.4770216E+001
 20
-3.8071453E+001
 11
9.2037565E+001
 21
-3.8071453E+001
  0
CIRCLE
  8
105
  6
HIDDEN
 62
1
 10
6.1558416E+001
 20
-4.027145E+001
 40
1.0
  0
CIRCLE
  8
105
  6
HIDDEN
 62
1
 10
6.1558416E+001
 20
-3.8071453E+001
 40
1.0
  0
CIRCLE
  8
105
  6
HIDDEN
 62
1
 10
6.1558416E+001
 20
-3.4871449E+001
 40
1.0
  0
CIRCLE
  8
105
  6
HIDDEN
 62
1
 10
9.3558408E+001
 20
-4.3471455E+001
 40
1.0
  0
CIRCLE
  8
105
  6
HIDDEN
 62
1
 10
9.3558408E+001
 20
-4.027145E+001
 40
1.0
  0
CIRCLE
  8
105
  6
HIDDEN
 62
1
 10
9.3558408E+001
 20
-3.8071453E+001
 40
1.0
  0
LINE
  8
104
  6
CONTINUOUS
 62
40
 10
1.0295841E+002
 20
-4.4621449E+001
 11
1.0305841E+002
 21
-4.4621449E+001
  0
LINE
  8
104
  6
CONTINUOUS
 62
40
 10
1.0305841E+002
 20
-4.4621449E+001
 11
1.0465841E+002
 21
-4.4621449E+001
  0
ARC
  8
104
  6
CONTINUOUS
 62
40
 10
1.046584E+002
 20
-4.4221444E+001
 40
4.0000522E-001
 50
2.7000089E+002
 51
3.5999838E+002
  0
LINE
  8
104
  6
CONTINUOUS
 62
40
 10
1.0505841E+002
 20
-4.4221455E+001
 11
1.0505841E+002
 21
-3.302145E+001
  0
ARC
  8
104
  6
CONTINUOUS
 62
40
 10
1.0465841E+002
 20
-3.3021447E+001
 40
3.9999774E-001
 50
3.5999946E+002
 51
4.5000018E+002
  0
LINE
  8
104
  6
CONTINUOUS
 62
40
 10
1.0465841E+002
 20
-3.2621449E+001
 11
1.0305841E+002
 21
-3.2621449E+001
  0
LINE
  8
104
  6
CONTINUOUS
 62
40
 10
1.0305841E+002
 20
-3.2621449E+001
 11
1.0295841E+002
 21
-3.2621449E+001
  0
LINE
  8
104
  6
CONTINUOUS
 62
40
 10
1.0295841E+002
 20
-3.2621449E+001
 11
5.2158415E+001
 21
-3.2621449E+001
  0
LINE
  8
104
  6
CONTINUOUS
 62
40
 10
5.2158415E+001
 20
-3.2621449E+001
 11
5.2058416E+001
 21
-3.2621449E+001
  0
LINE
  8
104
  6
CONTINUOUS
 62
40
 10
5.2058416E+001
 20
-3.2621449E+001
 11
5.0458418E+001
 21
-3.2621449E+001
  0
ARC
  8
104
  6
CONTINUOUS
 62
40
 10
5.0461585E+001
 20
-3.3024605E+001
 40
4.0316907E-001
 50
9.0450088E+001
 51
1.7999724E+002
  0
LINE
  8
104
  6
CONTINUOUS
 62
40
 10
5.0058416E+001
 20
-3.3024586E+001
 11
5.0058416E+001
 21
-4.4221455E+001
  0
ARC
  8
104
  6
CONTINUOUS
 62
40
 10
5.0458412E+001
 20
-4.4221453E+001
 40
3.9999564E-001
 50
1.8000025E+002
 51
2.7000091E+002
  0
LINE
  8
104
  6
CONTINUOUS
 62
40
 10
5.0458418E+001
 20
-4.4621449E+001
 11
5.2058416E+001
 21
-4.4621449E+001
  0
LINE
  8
104
  6
CONTINUOUS
 62
40
 10
5.2058416E+001
 20
-4.4621449E+001
 11
5.2158415E+001
 21
-4.4621449E+001
  0
LINE
  8
104
  6
CONTINUOUS
 62
40
 10
5.2158415E+001
 20
-4.4621449E+001
 11
1.0295841E+002
 21
-4.4621449E+001
  0
LINE
  8
104
  6
CONTINUOUS
 62
40
 10
5.2058416E+001
 20
-3.2621449E+001
 11
5.2058416E+001
 21
-4.452145E+001
  0
LINE
  8
104
  6
CONTINUOUS
 62
40
 10
5.2058416E+001
 20
-4.452145E+001
 11
5.2058416E+001
 21
-4.4621449E+001
  0
LINE
  8
104
  6
CONTINUOUS
 62
40
 10
1.0305841E+002
 20
-4.4621449E+001
 11
1.0305841E+002
 21
-3.2621449E+001
  0
LINE
  8
106
  6
CENTERLINE
 62
1
 10
9.3558408E+001
 20
-4.497202E+001
 11
9.3558408E+001
 21
-3.8766941E+001
  0
LINE
  8
106
  6
CENTERLINE
 62
1
 10
9.3558408E+001
 20
-3.8766941E+001
 11
9.3558408E+001
 21
-3.402879E+001
  0
LINE
  8
106
  6
CENTERLINE
 62
1
 10
6.1558416E+001
 20
-4.497202E+001
 11
6.1558416E+001
 21
-3.8575032E+001
  0
LINE
  8
106
  6
CENTERLINE
 62
1
 10
6.1558416E+001
 20
-3.8575032E+001
 11
6.1558416E+001
 21
-3.3920452E+001
  0
CIRCLE
  8
99
  6
CONTINUOUS
 62
1
 10
1.4752965E+001
 20
2.5598845E+001
 40
5.99998E-001
  0
LINE
  8
106
  6
CENTERLINE
 62
1
 10
1.3552964E+001
 20
2.5598845E+001
 11
1.5828568E+001
 21
2.5598845E+001
  0
LINE
  8
106
  6
CENTERLINE
 62
1
 10
1.4752965E+001
 20
2.6571769E+001
 11
1.4752965E+001
 21
2.4500007E+001
  0
CIRCLE
  8
99
  6
CONTINUOUS
 62
1
 10
1.0035297E+002
 20
2.5596129E+001
 40
5.99999E-001
  0
LINE
  8
104
  6
CONTINUOUS
 62
40
 10
1.0155296E+002
 20
2.9596122E+001
 11
1.0405296E+002
 21
2.9596122E+001
  0
LINE
  8
104
  6
CONTINUOUS
 62
40
 10
1.0405296E+002
 20
2.9596122E+001
 11
1.0405296E+002
 21
2.3596129E+001
  0
LINE
  8
104
  6
CONTINUOUS
 62
40
 10
1.0405296E+002
 20
2.3596129E+001
 11
1.0155296E+002
 21
2.3596129E+001
  0
LINE
  8
104
  6
CONTINUOUS
 62
40
 10
1.0155296E+002
 20
2.3596129E+001
 11
1.3552964E+001
 21
2.3596129E+001
  0
LINE
  8
104
  6
CONTINUOUS
 62
40
 10
1.3552964E+001
 20
2.3596129E+001
 11
1.3552972E+001
 21
2.9596122E+001
  0
LINE
  8
104
  6
CONTINUOUS
 62
40
 10
1.3552972E+001
 20
2.9596122E+001
 11
1.0155296E+002
 21
2.9596122E+001
  0
LINE
  8
104
  6
CONTINUOUS
 62
40
 10
1.0155296E+002
 20
2.9596122E+001
 11
1.0155296E+002
 21
2.3596129E+001
  0
LINE
  8
104
  6
CONTINUOUS
 62
40
 10
1.1052964E+001
 20
2.3596129E+001
 11
1.3552964E+001
 21
2.3596129E+001
  0
LINE
  8
104
  6
CONTINUOUS
 62
40
 10
1.3552964E+001
 20
2.3596129E+001
 11
1.3552972E+001
 21
2.9596122E+001
  0
LINE
  8
104
  6
CONTINUOUS
 62
40
 10
1.3552972E+001
 20
2.9596122E+001
 11
1.1052964E+001
 21
2.9596122E+001
  0
LINE
  8
104
  6
CONTINUOUS
 62
40
 10
1.1052964E+001
 20
2.9596122E+001
 11
1.1052964E+001
 21
2.3596129E+001
  0
LINE
  8
99
  6
CONTINUOUS
 62
1
 10
9.8745332E+001
 20
2.5596129E+001
 11
1.0199906E+002
 21
2.5596129E+001
  0
LINE
  8
99
  6
CONTINUOUS
 62
1
 10
1.0035297E+002
 20
2.7080871E+001
 11
1.0035297E+002
 21
2.418505E+001
  0
LINE
  8
104
  6
CONTINUOUS
 62
40
 10
1.8752972E+001
 20
2.2896132E+001
 11
1.8752972E+001
 21
2.2996131E+001
  0
ARC
  8
104
  6
CONTINUOUS
 62
40
 10
1.8852976E+001
 20
2.2996125E+001
 40
1.0000382E-001
 50
8.9998178E+001
 51
1.7999667E+002
  0
LINE
  8
104
  6
CONTINUOUS
 62
40
 10
1.8852979E+001
 20
2.3096129E+001
 11
2.0652974E+001
 21
2.3096129E+001
  0
ARC
  8
104
  6
CONTINUOUS
 62
40
 10
2.0652977E+001
 20
2.2996134E+001
 40
9.9995422E-002
 50
3.5999852E+002
 51
4.5000148E+002
  0
LINE
  8
104
  6
CONTINUOUS
 62
40
 10
2.0752972E+001
 20
2.2996131E+001
 11
2.0752972E+001
 21
2.2896132E+001
  0
LINE
  8
104
  6
CONTINUOUS
 62
40
 10
1.7552975E+001
 20
2.0246131E+001
 11
1.7552975E+001
 21
2.1896132E+001
  0
LINE
  8
104
  6
CONTINUOUS
 62
40
 10
1.7552975E+001
 20
2.1896132E+001
 11
2.1952977E+001
 21
2.1896132E+001
  0
LINE
  8
104
  6
CONTINUOUS
 62
40
 10
2.1952977E+001
 20
2.1896132E+001
 11
2.1952977E+001
 21
2.0246131E+001
  0
LINE
  8
104
  6
CONTINUOUS
 62
40
 10
1.8597974E+001
 20
1.8996131E+001
 11
1.8532979E+001
 21
1.8996131E+001
  0
LINE
  8
104
  6
CONTINUOUS
 62
40
 10
1.9102979E+001
 20
2.1896132E+001
 11
2.0402974E+001
 21
2.1896132E+001
  0
LINE
  8
104
  6
CONTINUOUS
 62
40
 10
9.6452966E+001
 20
2.3596129E+001
 11
9.6452966E+001
 21
2.3096129E+001
  0
LINE
  8
104
  6
CONTINUOUS
 62
40
 10
9.6452966E+001
 20
2.3096129E+001
 11
9.3052964E+001
 21
2.3096129E+001
  0
LINE
  8
104
  6
CONTINUOUS
 62
40
 10
9.3052964E+001
 20
2.3096129E+001
 11
9.3052964E+001
 21
2.3596129E+001
  0
LINE
  8
104
  6
CONTINUOUS
 62
40
 10
9.3752969E+001
 20
2.3096129E+001
 11
9.3752969E+001
 21
2.2896132E+001
  0
LINE
  8
104
  6
CONTINUOUS
 62
40
 10
9.5752969E+001
 20
2.3096129E+001
 11
9.5752969E+001
 21
2.2896132E+001
  0
LINE
  8
104
  6
CONTINUOUS
 62
40
 10
9.3455964E+001
 20
2.1896132E+001
 11
9.3455964E+001
 21
2.1796126E+001
  0
ARC
  8
104
  6
CONTINUOUS
 62
40
 10
9.3555967E+001
 20
2.1796131E+001
 40
1.0000318E-001
 50
1.8000297E+002
 51
2.6999703E+002
  0
LINE
  8
104
  6
CONTINUOUS
 62
40
 10
9.3555962E+001
 20
2.1696128E+001
 11
9.594996E+001
 21
2.1696128E+001
  0
ARC
  8
104
  6
CONTINUOUS
 62
40
 10
9.5949962E+001
 20
2.1796124E+001
 40
9.9995886E-002
 50
2.6999879E+002
 51
3.6000121E+002
  0
LINE
  8
104
  6
CONTINUOUS
 62
40
 10
9.6049958E+001
 20
2.1796126E+001
 11
9.6049958E+001
 21
2.1896132E+001
  0
LINE
  8
104
  6
CONTINUOUS
 62
40
 10
9.6049958E+001
 20
2.1896132E+001
 11
9.3455964E+001
 21
2.1896132E+001
  0
LINE
  8
99
  6
CONTINUOUS
 62
1
 10
9.4752961E+001
 20
2.1487609E+001
 11
9.4752961E+001
 21
2.4236182E+001
  0
LINE
  8
104
  6
CONTINUOUS
 62
40
 10
1.857298E+001
 20
2.1896132E+001
 11
2.0932973E+001
 21
2.1896132E+001
  0
LINE
  8
104
  6
CONTINUOUS
 62
40
 10
9.6126176E+001
 20
2.2896132E+001
 11
9.5747956E+001
 21
2.2896132E+001
  0
LINE
  8
104
  6
CONTINUOUS
 62
40
 10
9.3757966E+001
 20
2.2896132E+001
 11
9.3379754E+001
 21
2.2896132E+001
  0
LINE
  8
104
  6
CONTINUOUS
 62
40
 10
9.5952966E+001
 20
2.1896132E+001
 11
9.5747956E+001
 21
2.1896132E+001
  0
LINE
  8
104
  6
CONTINUOUS
 62
40
 10
9.3757966E+001
 20
2.1896132E+001
 11
9.3552964E+001
 21
2.1896132E+001
  0
LINE
  8
104
  6
CONTINUOUS
 62
40
 10
9.6952966E+001
 20
2.1896132E+001
 11
9.6952966E+001
 21
2.2896132E+001
  0
LINE
  8
104
  6
CONTINUOUS
 62
40
 10
9.6952966E+001
 20
2.2896132E+001
 11
9.3379754E+001
 21
2.2896132E+001
  0
LINE
  8
104
  6
CONTINUOUS
 62
40
 10
9.3379754E+001
 20
2.2896132E+001
 11
2.0932973E+001
 21
2.2896132E+001
  0
LINE
  8
104
  6
CONTINUOUS
 62
40
 10
2.0932973E+001
 20
2.2896132E+001
 11
1.7552975E+001
 21
2.2896132E+001
  0
LINE
  8
104
  6
CONTINUOUS
 62
40
 10
1.7552975E+001
 20
2.2896132E+001
 11
1.7552975E+001
 21
2.1896132E+001
  0
LINE
  8
104
  6
CONTINUOUS
 62
40
 10
1.7552975E+001
 20
2.1896132E+001
 11
9.6952966E+001
 21
2.1896132E+001
  0
LINE
  8
106
  6
CENTERLINE
 62
1
 10
1.9752972E+001
 20
2.3455352E+001
 11
1.9752972E+001
 21
1.8787703E+001
  0
CIRCLE
  8
105
  6
HIDDEN
 62
1
 10
1.3152974E+001
 20
1.7996138E+001
 40
1.0
  0
CIRCLE
  8
105
  6
HIDDEN
 62
1
 10
3.4752969E+001
 20
1.6396132E+001
 40
1.0
  0
LINE
  8
106
  6
CENTERLINE
 62
1
 10
3.4752969E+001
 20
1.7829467E+001
 11
3.4752969E+001
 21
1.4942367E+001
  0
LINE
  8
106
  6
CENTERLINE
 62
1
 10
3.6151475E+001
 20
1.6396132E+001
 11
3.3304471E+001
 21
1.6396132E+001
  0
LINE
  8
106
  6
CENTERLINE
 62
1
 10
2.3552972E+001
 20
1.7829467E+001
 11
2.3552972E+001
 21
1.4942367E+001
  0
LINE
  8
106
  6
CENTERLINE
 62
1
 10
2.4951478E+001
 20
1.6396132E+001
 11
2.2104474E+001
 21
1.6396132E+001
  0
CIRCLE
  8
105
  6
HIDDEN
 62
1
 10
2.3552972E+001
 20
1.6396132E+001
 40
1.0
  0
CIRCLE
  8
105
  6
HIDDEN
 62
1
 10
4.5152966E+001
 20
9.396132
 40
1.0
  0
LINE
  8
99
  6
CONTINUOUS
 62
1
 10
1.3152974E+001
 20
7.895568
 11
1.3152974E+001
 21
1.9550918E+001
  0
LINE
  8
106
  6
CENTERLINE
 62
1
 10
1.1941167E+001
 20
1.7996138E+001
 11
1.4673817E+001
 21
1.7996138E+001
  0
LINE
  8
106
  6
CENTERLINE
 62
1
 10
4.6364774E+001
 20
9.396132
 11
4.3632123E+001
 21
9.396132
  0
LINE
  8
106
  6
CENTERLINE
 62
1
 10
4.5152966E+001
 20
7.895568
 11
4.5152966E+001
 21
1.9494079E+001
  0
LINE
  8
106
  6
CENTERLINE
 62
1
 10
4.6364774E+001
 20
1.2596137E+001
 11
4.3632123E+001
 21
1.2596137E+001
  0
LINE
  8
106
  6
CENTERLINE
 62
1
 10
4.6364774E+001
 20
1.4796134E+001
 11
4.3632123E+001
 21
1.4796134E+001
  0
LINE
  8
106
  6
CENTERLINE
 62
1
 10
4.6364774E+001
 20
1.7996138E+001
 11
4.3632123E+001
 21
1.7996138E+001
  0
LINE
  8
106
  6
CENTERLINE
 62
1
 10
1.1941167E+001
 20
9.396132
 11
1.4673817E+001
 21
9.396132
  0
LINE
  8
106
  6
CENTERLINE
 62
1
 10
1.1941167E+001
 20
1.2596137E+001
 11
1.4673817E+001
 21
1.2596137E+001
  0
LINE
  8
106
  6
CENTERLINE
 62
1
 10
1.1941167E+001
 20
1.4796134E+001
 11
1.4673817E+001
 21
1.4796134E+001
  0
CIRCLE
  8
105
  6
HIDDEN
 62
1
 10
4.5152966E+001
 20
1.2596137E+001
 40
1.0
  0
CIRCLE
  8
105
  6
HIDDEN
 62
1
 10
4.5152966E+001
 20
1.4796134E+001
 40
1.0
  0
CIRCLE
  8
105
  6
HIDDEN
 62
1
 10
4.5152966E+001
 20
1.7996138E+001
 40
1.0
  0
CIRCLE
  8
105
  6
HIDDEN
 62
1
 10
1.3152974E+001
 20
9.396132
 40
1.0
  0
CIRCLE
  8
105
  6
HIDDEN
 62
1
 10
1.3152974E+001
 20
1.2596137E+001
 40
1.0
  0
CIRCLE
  8
105
  6
HIDDEN
 62
1
 10
1.3152974E+001
 20
1.4796134E+001
 40
1.0
  0
LINE
  8
104
  6
CONTINUOUS
 62
40
 10
3.752972
 20
8.246138
 11
3.652974
 21
8.246138
  0
LINE
  8
104
  6
CONTINUOUS
 62
40
 10
3.652974
 20
8.246138
 11
2.052974
 21
8.246138
  0
ARC
  8
104
  6
CONTINUOUS
 62
40
 10
2.0529791
 20
8.6461431
 40
4.0000512E-001
 50
1.8000159E+002
 51
2.6999927E+002
  0
LINE
  8
104
  6
CONTINUOUS
 62
40
 10
1.652974
 20
8.646132
 11
1.652974
 21
1.9846137E+001
  0
ARC
  8
104
  6
CONTINUOUS
 62
40
 10
2.0529718
 20
1.984614E+001
 40
3.9999784E-001
 50
8.9999691E+001
 51
1.8000045E+002
  0
LINE
  8
104
  6
CONTINUOUS
 62
40
 10
2.052974
 20
2.0246138E+001
 11
3.652974
 21
2.0246138E+001
  0
LINE
  8
104
  6
CONTINUOUS
 62
40
 10
3.652974
 20
2.0246138E+001
 11
3.752972
 21
2.0246138E+001
  0
LINE
  8
104
  6
CONTINUOUS
 62
40
 10
3.752972
 20
2.0246138E+001
 11
5.4552968E+001
 21
2.0246138E+001
  0
LINE
  8
104
  6
CONTINUOUS
 62
40
 10
5.4552968E+001
 20
2.0246138E+001
 11
5.4652966E+001
 21
2.0246138E+001
  0
LINE
  8
104
  6
CONTINUOUS
 62
40
 10
5.4652966E+001
 20
2.0246138E+001
 11
5.6252965E+001
 21
2.0246138E+001
  0
ARC
  8
104
  6
CONTINUOUS
 62
40
 10
5.6249798E+001
 20
1.9842982E+001
 40
4.0316797E-001
 50
2.6328994E-003
 51
8.9549926E+001
  0
LINE
  8
104
  6
CONTINUOUS
 62
40
 10
5.6652966E+001
 20
1.9843001E+001
 11
5.6652966E+001
 21
8.646132
  0
ARC
  8
104
  6
CONTINUOUS
 62
40
 10
5.6252971E+001
 20
8.6461332
 40
3.999952E-001
 50
2.6999917E+002
 51
3.5999983E+002
  0
LINE
  8
104
  6
CONTINUOUS
 62
40
 10
5.6252965E+001
 20
8.246138
 11
5.4652966E+001
 21
8.246138
  0
LINE
  8
104
  6
CONTINUOUS
 62
40
 10
5.4652966E+001
 20
8.246138
 11
5.4552968E+001
 21
8.246138
  0
LINE
  8
104
  6
CONTINUOUS
 62
40
 10
5.4552968E+001
 20
8.246138
 11
3.752972
 21
8.246138
  0
LINE
  8
104
  6
CONTINUOUS
 62
40
 10
5.4652966E+001
 20
2.0246138E+001
 11
5.4652966E+001
 21
8.346137
  0
LINE
  8
104
  6
CONTINUOUS
 62
40
 10
5.4652966E+001
 20
8.346137
 11
5.4652966E+001
 21
8.246138
  0
LINE
  8
104
  6
CONTINUOUS
 62
40
 10
3.652974
 20
8.246138
 11
3.652974
 21
2.0246138E+001
  0
LINE
  8
106
  6
CENTERLINE
 62
1
 10
1.3152974E+001
 20
7.895568
 11
1.3152974E+001
 21
1.4100646E+001
  0
LINE
  8
106
  6
CENTERLINE
 62
1
 10
1.3152974E+001
 20
1.4100646E+001
 11
1.3152974E+001
 21
1.8838797E+001
  0
LINE
  8
106
  6
CENTERLINE
 62
1
 10
4.5152966E+001
 20
7.895568
 11
4.5152966E+001
 21
1.4292556E+001
  0
LINE
  8
106
  6
CENTERLINE
 62
1
 10
4.5152966E+001
 20
1.4292556E+001
 11
4.5152966E+001
 21
1.8947135E+001
  0
LINE
  8
106
  6
CENTERLINE
 62
1
 10
-1.0098124E+002
 20
2.3455359E+001
 11
-1.0098124E+002
 21
1.8787703E+001
  0
CIRCLE
  8
105
  6
HIDDEN
 62
1
 10
-1.0758124E+002
 20
1.7996138E+001
 40
1.0
  0
CIRCLE
  8
105
  6
HIDDEN
 62
1
 10
-8.5981239E+001
 20
1.639614E+001
 40
1.0
  0
LINE
  8
106
  6
CENTERLINE
 62
1
 10
-8.5981239E+001
 20
1.7829466E+001
 11
-8.5981239E+001
 21
1.4942366E+001
  0
LINE
  8
106
  6
CENTERLINE
 62
1
 10
-8.4582737E+001
 20
1.639614E+001
 11
-8.7429741E+001
 21
1.639614E+001
  0
LINE
  8
106
  6
CENTERLINE
 62
1
 10
-9.7181236E+001
 20
1.7829466E+001
 11
-9.7181236E+001
 21
1.4942366E+001
  0
LINE
  8
106
  6
CENTERLINE
 62
1
 10
-9.5782734E+001
 20
1.639614E+001
 11
-9.8629738E+001
 21
1.639614E+001
  0
CIRCLE
  8
105
  6
HIDDEN
 62
1
 10
-9.7181236E+001
 20
1.639614E+001
 40
1.0
  0
CIRCLE
  8
105
  6
HIDDEN
 62
1
 10
-7.5581241E+001
 20
9.39614
 40
1.0
  0
LINE
  8
99
  6
CONTINUOUS
 62
1
 10
-1.0758124E+002
 20
7.895575
 11
-1.0758124E+002
 21
1.9550917E+001
  0
LINE
  8
106
  6
CENTERLINE
 62
1
 10
-1.0879304E+002
 20
1.7996138E+001
 11
-1.0606039E+002
 21
1.7996138E+001
  0
LINE
  8
106
  6
CENTERLINE
 62
1
 10
-7.4369438E+001
 20
9.39614
 11
-7.7102085E+001
 21
9.39614
  0
LINE
  8
106
  6
CENTERLINE
 62
1
 10
-7.5581245E+001
 20
7.895575
 11
-7.5581245E+001
 21
1.9494086E+001
  0
LINE
  8
106
  6
CENTERLINE
 62
1
 10
-7.4369438E+001
 20
1.2596144E+001
 11
-7.7102085E+001
 21
1.2596144E+001
  0
LINE
  8
106
  6
CENTERLINE
 62
1
 10
-7.4369438E+001
 20
1.4796141E+001
 11
-7.7102085E+001
 21
1.4796141E+001
  0
LINE
  8
106
  6
CENTERLINE
 62
1
 10
-7.4369438E+001
 20
1.7996138E+001
 11
-7.7102085E+001
 21
1.7996138E+001
  0
LINE
  8
106
  6
CENTERLINE
 62
1
 10
-1.0879304E+002
 20
9.39614
 11
-1.0606039E+002
 21
9.39614
  0
LINE
  8
106
  6
CENTERLINE
 62
1
 10
-1.0879304E+002
 20
1.2596144E+001
 11
-1.0606039E+002
 21
1.2596144E+001
  0
LINE
  8
106
  6
CENTERLINE
 62
1
 10
-1.0879304E+002
 20
1.4796141E+001
 11
-1.0606039E+002
 21
1.4796141E+001
  0
CIRCLE
  8
105
  6
HIDDEN
 62
1
 10
-7.5581241E+001
 20
1.2596144E+001
 40
1.0
  0
CIRCLE
  8
105
  6
HIDDEN
 62
1
 10
-7.5581241E+001
 20
1.4796141E+001
 40
1.0
  0
CIRCLE
  8
105
  6
HIDDEN
 62
1
 10
-7.5581241E+001
 20
1.7996138E+001
 40
1.0
  0
CIRCLE
  8
105
  6
HIDDEN
 62
1
 10
-1.0758124E+002
 20
9.39614
 40
1.0
  0
CIRCLE
  8
105
  6
HIDDEN
 62
1
 10
-1.0758124E+002
 20
1.2596144E+001
 40
1.0
  0
CIRCLE
  8
105
  6
HIDDEN
 62
1
 10
-1.0758124E+002
 20
1.4796141E+001
 40
1.0
  0
LINE
  8
104
  6
CONTINUOUS
 62
40
 10
-1.1698124E+002
 20
8.246138
 11
-1.1708123E+002
 21
8.246138
  0
LINE
  8
104
  6
CONTINUOUS
 62
40
 10
-1.1708123E+002
 20
8.246138
 11
-1.1868123E+002
 21
8.246138
  0
ARC
  8
104
  6
CONTINUOUS
 62
40
 10
-1.1868123E+002
 20
8.6461392
 40
4.0000118E-001
 50
1.7999988E+002
 51
2.6999979E+002
  0
LINE
  8
104
  6
CONTINUOUS
 62
40
 10
-1.1908123E+002
 20
8.64614
 11
-1.1908123E+002
 21
1.9846144E+001
  0
ARC
  8
104
  6
CONTINUOUS
 62
40
 10
-1.1868123E+002
 20
1.9846139E+001
 40
3.9999917E-001
 50
8.9999924E+001
 51
1.7999926E+002
  0
LINE
  8
104
  6
CONTINUOUS
 62
40
 10
-1.1868123E+002
 20
2.0246138E+001
 11
-1.1708123E+002
 21
2.0246138E+001
  0
LINE
  8
104
  6
CONTINUOUS
 62
40
 10
-1.1708123E+002
 20
2.0246138E+001
 11
-1.1698124E+002
 21
2.0246138E+001
  0
LINE
  8
104
  6
CONTINUOUS
 62
40
 10
-1.1698124E+002
 20
2.0246138E+001
 11
-6.6181244E+001
 21
2.0246138E+001
  0
LINE
  8
104
  6
CONTINUOUS
 62
40
 10
-6.6181244E+001
 20
2.0246138E+001
 11
-6.6081245E+001
 21
2.0246138E+001
  0
LINE
  8
104
  6
CONTINUOUS
 62
40
 10
-6.6081245E+001
 20
2.0246138E+001
 11
-6.4481243E+001
 21
2.0246138E+001
  0
ARC
  8
104
  6
CONTINUOUS
 62
40
 10
-6.4484407E+001
 20
1.9842988E+001
 40
4.0316232E-001
 50
1.8331633E-003
 51
8.9550253E+001
  0
LINE
  8
104
  6
CONTINUOUS
 62
40
 10
-6.4081245E+001
 20
1.9843001E+001
 11
-6.4081245E+001
 21
8.64614
  0
ARC
  8
104
  6
CONTINUOUS
 62
40
 10
-6.4481236E+001
 20
8.6461294
 40
3.9999139E-001
 50
2.699991E+002
 51
3.6000152E+002
  0
LINE
  8
104
  6
CONTINUOUS
 62
40
 10
-6.4481243E+001
 20
8.246138
 11
-6.6081245E+001
 21
8.246138
  0
LINE
  8
104
  6
CONTINUOUS
 62
40
 10
-6.6081245E+001
 20
8.246138
 11
-6.6181244E+001
 21
8.246138
  0
LINE
  8
104
  6
CONTINUOUS
 62
40
 10
-6.6181244E+001
 20
8.246138
 11
-1.1698124E+002
 21
8.246138
  0
LINE
  8
104
  6
CONTINUOUS
 62
40
 10
-6.6081245E+001
 20
2.0246138E+001
 11
-6.6081245E+001
 21
8.346144
  0
LINE
  8
104
  6
CONTINUOUS
 62
40
 10
-6.6081245E+001
 20
8.346144
 11
-6.6081245E+001
 21
8.246138
  0
LINE
  8
104
  6
CONTINUOUS
 62
40
 10
-1.1708123E+002
 20
8.246138
 11
-1.1708123E+002
 21
2.0246138E+001
  0
LINE
  8
106
  6
CENTERLINE
 62
1
 10
-1.0758124E+002
 20
7.895575
 11
-1.0758124E+002
 21
1.4100653E+001
  0
LINE
  8
106
  6
CENTERLINE
 62
1
 10
-1.0758124E+002
 20
1.4100653E+001
 11
-1.0758124E+002
 21
1.8838805E+001
  0
LINE
  8
106
  6
CENTERLINE
 62
1
 10
-7.5581241E+001
 20
7.895575
 11
-7.5581241E+001
 21
1.4292555E+001
  0
LINE
  8
106
  6
CENTERLINE
 62
1
 10
-7.5581241E+001
 20
1.4292555E+001
 11
-7.5581241E+001
 21
1.8947142E+001
  0
LINE
  8
105
  6
HIDDEN
 62
1
 10
-1.0538124E+002
 20
2.6096137E+001
 11
-1.0538124E+002
 21
2.5096137E+001
  0
ARC
  8
105
  6
HIDDEN
 62
1
 10
-1.0598124E+002
 20
2.5096137E+001
 40
6.000004E-001
 50
1.8E+002
 51
3.6E+002
  0
LINE
  8
105
  6
HIDDEN
 62
1
 10
-1.0658124E+002
 20
2.5096137E+001
 11
-1.0658124E+002
 21
2.6096137E+001
  0
ARC
  8
105
  6
HIDDEN
 62
1
 10
-1.0598124E+002
 20
2.6096137E+001
 40
6.000004E-001
 50
0.0
 51
1.8E+002
  0
LINE
  8
104
  6
CONTINUOUS
 62
40
 10
-2.7681251E+001
 20
2.3596129E+001
 11
-2.7681251E+001
 21
2.3136137E+001
  0
LINE
  8
104
  6
CONTINUOUS
 62
40
 10
-2.7681251E+001
 20
2.3136137E+001
 11
-2.428125E+001
 21
2.3136137E+001
  0
LINE
  8
104
  6
CONTINUOUS
 62
40
 10
-2.428125E+001
 20
2.3136137E+001
 11
-2.428125E+001
 21
2.3596129E+001
  0
LINE
  8
104
  6
CONTINUOUS
 62
40
 10
-2.4776252E+001
 20
2.3155386E+001
 11
-2.4776252E+001
 21
2.3096137E+001
  0
LINE
  8
104
  6
CONTINUOUS
 62
40
 10
-2.4776252E+001
 20
2.3096137E+001
 11
-2.7186256E+001
 21
2.3096137E+001
  0
LINE
  8
104
  6
CONTINUOUS
 62
40
 10
-2.7186256E+001
 20
2.3096137E+001
 11
-2.7186256E+001
 21
2.3136137E+001
  0
LINE
  8
104
  6
CONTINUOUS
 62
40
 10
-2.6976249E+001
 20
2.3096137E+001
 11
-2.6976249E+001
 21
2.289614E+001
  0
LINE
  8
104
  6
CONTINUOUS
 62
40
 10
-2.4986259E+001
 20
2.3096137E+001
 11
-2.4986259E+001
 21
2.289614E+001
  0
LINE
  8
106
  6
CENTERLINE
 62
1
 10
-2.0378891E+001
 20
2.7010985E+001
 11
-2.0381645E+001
 21
2.4131171E+001
  0
LINE
  8
106
  6
CENTERLINE
 62
1
 10
-1.9331253E+001
 20
2.5596137E+001
 11
-2.1381248E+001
 21
2.5596137E+001
  0
LINE
  8
106
  6
CENTERLINE
 62
1
 10
-1.0598124E+002
 20
2.4163153E+001
 11
-1.0598124E+002
 21
2.6996489E+001
  0
LINE
  8
105
  6
HIDDEN
 62
1
 10
-1.978025E+001
 20
2.6096137E+001
 11
-1.978025E+001
 21
2.5096137E+001
  0
ARC
  8
105
  6
HIDDEN
 62
1
 10
-2.0380249E+001
 20
2.5096137E+001
 40
5.999985E-001
 50
1.8E+002
 51
3.6E+002
  0
LINE
  8
105
  6
HIDDEN
 62
1
 10
-2.0980247E+001
 20
2.5096137E+001
 11
-2.0980247E+001
 21
2.6096137E+001
  0
ARC
  8
105
  6
HIDDEN
 62
1
 10
-2.0380249E+001
 20
2.6096137E+001
 40
5.999985E-001
 50
0.0
 51
1.8E+002
  0
LINE
  8
106
  6
CENTERLINE
 62
1
 10
-1.0498124E+002
 20
2.5596137E+001
 11
-1.0703124E+002
 21
2.5596137E+001
  0
ARC
  8
104
  6
CONTINUOUS
 62
40
 10
-1.9230481E+001
 20
2.7396135E+001
 40
1.9999373E-001
 50
3.5999906E+002
 51
4.5000094E+002
  0
LINE
  8
104
  6
CONTINUOUS
 62
40
 10
-1.9030487E+001
 20
2.7396132E+001
 11
-1.9030487E+001
 21
2.3796133E+001
  0
ARC
  8
104
  6
CONTINUOUS
 62
40
 10
-1.9230485E+001
 20
2.3796127E+001
 40
1.9999752E-001
 50
2.7000015E+002
 51
3.6000186E+002
  0
LINE
  8
104
  6
CONTINUOUS
 62
40
 10
-1.9230484E+001
 20
2.3596129E+001
 11
-1.07132E+002
 21
2.3596129E+001
  0
ARC
  8
104
  6
CONTINUOUS
 62
40
 10
-1.07132E+002
 20
2.379613E+001
 40
2.0000089E-001
 50
1.7999911E+002
 51
2.7E+002
  0
LINE
  8
104
  6
CONTINUOUS
 62
40
 10
-1.07332E+002
 20
2.3796133E+001
 11
-1.07332E+002
 21
2.7596129E+001
  0
LINE
  8
104
  6
CONTINUOUS
 62
40
 10
-1.07332E+002
 20
2.7596129E+001
 11
-1.9230484E+001
 21
2.7596129E+001
  0
LINE
  8
104
  6
CONTINUOUS
 62
40
 10
-1.04932E+002
 20
2.7596129E+001
 11
-1.04932E+002
 21
2.3596137E+001
  0
LINE
  8
104
  6
CONTINUOUS
 62
40
 10
-2.1430496E+001
 20
2.7596129E+001
 11
-2.1430496E+001
 21
2.3596129E+001
  0
LINE
  8
104
  6
CONTINUOUS
 62
40
 10
-1.0198124E+002
 20
2.289614E+001
 11
-1.0198124E+002
 21
2.2996138E+001
  0
ARC
  8
104
  6
CONTINUOUS
 62
40
 10
-1.0188124E+002
 20
2.299614E+001
 40
9.9996548E-002
 50
8.9998881E+001
 51
1.8000141E+002
  0
LINE
  8
104
  6
CONTINUOUS
 62
40
 10
-1.0188124E+002
 20
2.3096137E+001
 11
-1.0008124E+002
 21
2.3096137E+001
  0
ARC
  8
104
  6
CONTINUOUS
 62
40
 10
-1.0008123E+002
 20
2.2996143E+001
 40
9.9993793E-002
 50
3.5999702E+002
 51
4.500027E+002
  0
LINE
  8
104
  6
CONTINUOUS
 62
40
 10
-9.9981239E+001
 20
2.2996138E+001
 11
-9.9981239E+001
 21
2.289614E+001
  0
LINE
  8
104
  6
CONTINUOUS
 62
40
 10
-1.0318124E+002
 20
2.0246138E+001
 11
-1.0318124E+002
 21
2.189614E+001
  0
LINE
  8
104
  6
CONTINUOUS
 62
40
 10
-1.0318124E+002
 20
2.189614E+001
 11
-9.8781238E+001
 21
2.189614E+001
  0
LINE
  8
104
  6
CONTINUOUS
 62
40
 10
-9.8781238E+001
 20
2.189614E+001
 11
-9.8781238E+001
 21
2.0246138E+001
  0
LINE
  8
104
  6
CONTINUOUS
 62
40
 10
-1.0213624E+002
 20
1.8996138E+001
 11
-1.0220124E+002
 21
1.8996138E+001
  0
LINE
  8
104
  6
CONTINUOUS
 62
40
 10
-1.0163124E+002
 20
2.189614E+001
 11
-1.0033124E+002
 21
2.189614E+001
  0
LINE
  8
104
  6
CONTINUOUS
 62
40
 10
-2.7278251E+001
 20
2.189614E+001
 11
-2.7278251E+001
 21
2.1796133E+001
  0
ARC
  8
104
  6
CONTINUOUS
 62
40
 10
-2.7178247E+001
 20
2.1796139E+001
 40
1.0000356E-001
 50
1.8000318E+002
 51
2.6999682E+002
  0
LINE
  8
104
  6
CONTINUOUS
 62
40
 10
-2.7178253E+001
 20
2.1696135E+001
 11
-2.4784256E+001
 21
2.1696135E+001
  0
ARC
  8
104
  6
CONTINUOUS
 62
40
 10
-2.4784256E+001
 20
2.1796134E+001
 40
9.999865E-002
 50
2.699998E+002
 51
3.5999963E+002
  0
LINE
  8
104
  6
CONTINUOUS
 62
40
 10
-2.4684257E+001
 20
2.1796133E+001
 11
-2.4684257E+001
 21
2.189614E+001
  0
LINE
  8
104
  6
CONTINUOUS
 62
40
 10
-2.4684257E+001
 20
2.189614E+001
 11
-2.7278251E+001
 21
2.189614E+001
  0
LINE
  8
106
  6
CENTERLINE
 62
1
 10
-2.5981254E+001
 20
2.1487616E+001
 11
-2.5981254E+001
 21
2.4236189E+001
  0
LINE
  8
104
  6
CONTINUOUS
 62
40
 10
-1.0216124E+002
 20
2.189614E+001
 11
-9.9801239E+001
 21
2.189614E+001
  0
LINE
  8
104
  6
CONTINUOUS
 62
40
 10
-2.460804E+001
 20
2.289614E+001
 11
-2.4986259E+001
 21
2.289614E+001
  0
LINE
  8
104
  6
CONTINUOUS
 62
40
 10
-2.6976249E+001
 20
2.289614E+001
 11
-2.7354469E+001
 21
2.289614E+001
  0
LINE
  8
104
  6
CONTINUOUS
 62
40
 10
-2.4781257E+001
 20
2.189614E+001
 11
-2.4986259E+001
 21
2.189614E+001
  0
LINE
  8
104
  6
CONTINUOUS
 62
40
 10
-2.6976249E+001
 20
2.189614E+001
 11
-2.7181259E+001
 21
2.189614E+001
  0
LINE
  8
104
  6
CONTINUOUS
 62
40
 10
-2.3781257E+001
 20
2.189614E+001
 11
-2.3781257E+001
 21
2.289614E+001
  0
LINE
  8
104
  6
CONTINUOUS
 62
40
 10
-2.3781257E+001
 20
2.289614E+001
 11
-2.7354469E+001
 21
2.289614E+001
  0
LINE
  8
104
  6
CONTINUOUS
 62
40
 10
-2.7354469E+001
 20
2.289614E+001
 11
-9.9801239E+001
 21
2.289614E+001
  0
LINE
  8
104
  6
CONTINUOUS
 62
40
 10
-9.9801239E+001
 20
2.289614E+001
 11
-1.0318124E+002
 21
2.289614E+001
  0
LINE
  8
104
  6
CONTINUOUS
 62
40
 10
-1.0318124E+002
 20
2.289614E+001
 11
-1.0318124E+002
 21
2.189614E+001
  0
LINE
  8
104
  6
CONTINUOUS
 62
40
 10
-1.0318124E+002
 20
2.189614E+001
 11
-2.3781257E+001
 21
2.189614E+001
  0
LINE
  8
106
  6
CENTERLINE
 62
1
 10
-3.7130485E+001
 20
-2.9412228E+001
 11
-3.7130485E+001
 21
-3.4079884E+001
  0
CIRCLE
  8
105
  6
HIDDEN
 62
1
 10
-3.0530486E+001
 20
-3.4871449E+001
 40
1.0
  0
CIRCLE
  8
105
  6
HIDDEN
 62
1
 10
-5.2130485E+001
 20
-3.6471447E+001
 40
1.0
  0
LINE
  8
106
  6
CENTERLINE
 62
1
 10
-5.2130485E+001
 20
-3.5038121E+001
 11
-5.2130485E+001
 21
-3.7925221E+001
  0
LINE
  8
106
  6
CENTERLINE
 62
1
 10
-5.3528987E+001
 20
-3.6471447E+001
 11
-5.0681983E+001
 21
-3.6471447E+001
  0
LINE
  8
106
  6
CENTERLINE
 62
1
 10
-4.0930488E+001
 20
-3.5038121E+001
 11
-4.0930488E+001
 21
-3.7925221E+001
  0
LINE
  8
106
  6
CENTERLINE
 62
1
 10
-4.232899E+001
 20
-3.6471447E+001
 11
-3.9481986E+001
 21
-3.6471447E+001
  0
CIRCLE
  8
105
  6
HIDDEN
 62
1
 10
-4.0930488E+001
 20
-3.6471447E+001
 40
1.0
  0
CIRCLE
  8
105
  6
HIDDEN
 62
1
 10
-6.2530482E+001
 20
-4.3471447E+001
 40
1.0
  0
LINE
  8
99
  6
CONTINUOUS
 62
1
 10
-3.0530486E+001
 20
-4.4972012E+001
 11
-3.0530486E+001
 21
-3.331667E+001
  0
LINE
  8
106
  6
CENTERLINE
 62
1
 10
-2.9318683E+001
 20
-3.4871449E+001
 11
-3.205133E+001
 21
-3.4871449E+001
  0
LINE
  8
106
  6
CENTERLINE
 62
1
 10
-6.3742286E+001
 20
-4.3471447E+001
 11
-6.1009639E+001
 21
-4.3471447E+001
  0
LINE
  8
106
  6
CENTERLINE
 62
1
 10
-6.2530479E+001
 20
-4.4972012E+001
 11
-6.2530479E+001
 21
-3.3373501E+001
  0
LINE
  8
106
  6
CENTERLINE
 62
1
 10
-6.3742286E+001
 20
-4.0271443E+001
 11
-6.1009639E+001
 21
-4.0271443E+001
  0
LINE
  8
106
  6
CENTERLINE
 62
1
 10
-6.3742286E+001
 20
-3.8071446E+001
 11
-6.1009639E+001
 21
-3.8071446E+001
  0
LINE
  8
106
  6
CENTERLINE
 62
1
 10
-6.3742286E+001
 20
-3.4871449E+001
 11
-6.1009639E+001
 21
-3.4871449E+001
  0
LINE
  8
106
  6
CENTERLINE
 62
1
 10
-2.9318683E+001
 20
-4.3471447E+001
 11
-3.205133E+001
 21
-4.3471447E+001
  0
LINE
  8
106
  6
CENTERLINE
 62
1
 10
-2.9318683E+001
 20
-4.0271443E+001
 11
-3.205133E+001
 21
-4.0271443E+001
  0
LINE
  8
106
  6
CENTERLINE
 62
1
 10
-2.9318683E+001
 20
-3.8071446E+001
 11
-3.205133E+001
 21
-3.8071446E+001
  0
CIRCLE
  8
105
  6
HIDDEN
 62
1
 10
-6.2530482E+001
 20
-4.0271443E+001
 40
1.0
  0
CIRCLE
  8
105
  6
HIDDEN
 62
1
 10
-6.2530482E+001
 20
-3.8071446E+001
 40
1.0
  0
CIRCLE
  8
105
  6
HIDDEN
 62
1
 10
-6.2530482E+001
 20
-3.4871449E+001
 40
1.0
  0
CIRCLE
  8
105
  6
HIDDEN
 62
1
 10
-3.0530486E+001
 20
-4.3471447E+001
 40
1.0
  0
CIRCLE
  8
105
  6
HIDDEN
 62
1
 10
-3.0530486E+001
 20
-4.0271443E+001
 40
1.0
  0
CIRCLE
  8
105
  6
HIDDEN
 62
1
 10
-3.0530486E+001
 20
-3.8071446E+001
 40
1.0
  0
LINE
  8
104
  6
CONTINUOUS
 62
40
 10
-2.1130489E+001
 20
-4.4621449E+001
 11
-2.103049E+001
 21
-4.4621449E+001
  0
LINE
  8
104
  6
CONTINUOUS
 62
40
 10
-2.103049E+001
 20
-4.4621449E+001
 11
-1.943049E+001
 21
-4.4621449E+001
  0
ARC
  8
104
  6
CONTINUOUS
 62
40
 10
-1.9430491E+001
 20
-4.4221448E+001
 40
4.0000108E-001
 50
2.7000016E+002
 51
3.6000006E+002
  0
LINE
  8
104
  6
CONTINUOUS
 62
40
 10
-1.903049E+001
 20
-4.4221447E+001
 11
-1.903049E+001
 21
-3.3021443E+001
  0
ARC
  8
104
  6
CONTINUOUS
 62
40
 10
-1.9430489E+001
 20
-3.3021448E+001
 40
3.9999926E-001
 50
7.678659E-004
 51
9.0000106E+001
  0
LINE
  8
104
  6
CONTINUOUS
 62
40
 10
-1.943049E+001
 20
-3.2621449E+001
 11
-2.103049E+001
 21
-3.2621449E+001
  0
LINE
  8
104
  6
CONTINUOUS
 62
40
 10
-2.103049E+001
 20
-3.2621449E+001
 11
-2.1130489E+001
 21
-3.2621449E+001
  0
LINE
  8
104
  6
CONTINUOUS
 62
40
 10
-2.1130489E+001
 20
-3.2621449E+001
 11
-7.193048E+001
 21
-3.2621449E+001
  0
LINE
  8
104
  6
CONTINUOUS
 62
40
 10
-7.193048E+001
 20
-3.2621449E+001
 11
-7.2030479E+001
 21
-3.2621449E+001
  0
LINE
  8
104
  6
CONTINUOUS
 62
40
 10
-7.2030479E+001
 20
-3.2621449E+001
 11
-7.3630481E+001
 21
-3.2621449E+001
  0
ARC
  8
104
  6
CONTINUOUS
 62
40
 10
-7.3627316E+001
 20
-3.3024599E+001
 40
4.0316252E-001
 50
9.0449776E+001
 51
1.7999817E+002
  0
LINE
  8
104
  6
CONTINUOUS
 62
40
 10
-7.4030479E+001
 20
-3.3024586E+001
 11
-7.4030479E+001
 21
-4.4221447E+001
  0
ARC
  8
104
  6
CONTINUOUS
 62
40
 10
-7.3630487E+001
 20
-4.4221458E+001
 40
3.9999113E-001
 50
1.7999852E+002
 51
2.7000094E+002
  0
LINE
  8
104
  6
CONTINUOUS
 62
40
 10
-7.3630481E+001
 20
-4.4621449E+001
 11
-7.2030479E+001
 21
-4.4621449E+001
  0
LINE
  8
104
  6
CONTINUOUS
 62
40
 10
-7.2030479E+001
 20
-4.4621449E+001
 11
-7.193048E+001
 21
-4.4621449E+001
  0
LINE
  8
104
  6
CONTINUOUS
 62
40
 10
-7.193048E+001
 20
-4.4621449E+001
 11
-2.1130489E+001
 21
-4.4621449E+001
  0
LINE
  8
104
  6
CONTINUOUS
 62
40
 10
-7.2030479E+001
 20
-3.2621449E+001
 11
-7.2030479E+001
 21
-4.4521443E+001
  0
LINE
  8
104
  6
CONTINUOUS
 62
40
 10
-7.2030479E+001
 20
-4.4521443E+001
 11
-7.2030479E+001
 21
-4.4621449E+001
  0
LINE
  8
104
  6
CONTINUOUS
 62
40
 10
-2.103049E+001
 20
-4.4621449E+001
 11
-2.103049E+001
 21
-3.2621449E+001
  0
LINE
  8
106
  6
CENTERLINE
 62
1
 10
-3.0530486E+001
 20
-4.4972012E+001
 11
-3.0530486E+001
 21
-3.8766934E+001
  0
LINE
  8
106
  6
CENTERLINE
 62
1
 10
-3.0530486E+001
 20
-3.8766934E+001
 11
-3.0530486E+001
 21
-3.4028782E+001
  0
LINE
  8
106
  6
CENTERLINE
 62
1
 10
-6.2530482E+001
 20
-4.4972012E+001
 11
-6.2530482E+001
 21
-3.8575032E+001
  0
LINE
  8
106
  6
CENTERLINE
 62
1
 10
-6.2530482E+001
 20
-3.8575032E+001
 11
-6.2530482E+001
 21
-3.3920445E+001
  0
LINE
  8
105
  6
HIDDEN
 62
1
 10
-3.2730483E+001
 20
-2.677145E+001
 11
-3.2730483E+001
 21
-2.777145E+001
  0
ARC
  8
105
  6
HIDDEN
 62
1
 10
-3.2130483E+001
 20
-2.777145E+001
 40
6.000004E-001
 50
1.8E+002
 51
3.6E+002
  0
LINE
  8
105
  6
HIDDEN
 62
1
 10
-3.1530482E+001
 20
-2.777145E+001
 11
-3.1530482E+001
 21
-2.677145E+001
  0
ARC
  8
105
  6
HIDDEN
 62
1
 10
-3.2130483E+001
 20
-2.677145E+001
 40
6.000004E-001
 50
0.0
 51
1.8E+002
  0
LINE
  8
104
  6
CONTINUOUS
 62
40
 10
-1.1043047E+002
 20
-2.9271458E+001
 11
-1.1043047E+002
 21
-2.973145E+001
  0
LINE
  8
104
  6
CONTINUOUS
 62
40
 10
-1.1043047E+002
 20
-2.973145E+001
 11
-1.1383047E+002
 21
-2.973145E+001
  0
LINE
  8
104
  6
CONTINUOUS
 62
40
 10
-1.1383047E+002
 20
-2.973145E+001
 11
-1.1383047E+002
 21
-2.9271458E+001
  0
LINE
  8
104
  6
CONTINUOUS
 62
40
 10
-1.1333547E+002
 20
-2.9712201E+001
 11
-1.1333547E+002
 21
-2.977145E+001
  0
LINE
  8
104
  6
CONTINUOUS
 62
40
 10
-1.1333547E+002
 20
-2.977145E+001
 11
-1.1092547E+002
 21
-2.977145E+001
  0
LINE
  8
104
  6
CONTINUOUS
 62
40
 10
-1.1092547E+002
 20
-2.977145E+001
 11
-1.1092547E+002
 21
-2.973145E+001
  0
LINE
  8
104
  6
CONTINUOUS
 62
40
 10
-1.1113547E+002
 20
-2.977145E+001
 11
-1.1113547E+002
 21
-2.9971447E+001
  0
LINE
  8
104
  6
CONTINUOUS
 62
40
 10
-1.1312546E+002
 20
-2.977145E+001
 11
-1.1312546E+002
 21
-2.9971447E+001
  0
LINE
  8
106
  6
CENTERLINE
 62
1
 10
-1.1773283E+002
 20
-2.5856602E+001
 11
-1.1773008E+002
 21
-2.8736416E+001
  0
LINE
  8
106
  6
CENTERLINE
 62
1
 10
-1.1878047E+002
 20
-2.727145E+001
 11
-1.1673048E+002
 21
-2.727145E+001
  0
LINE
  8
106
  6
CENTERLINE
 62
1
 10
-3.2130485E+001
 20
-2.8704434E+001
 11
-3.2130481E+001
 21
-2.5871098E+001
  0
LINE
  8
105
  6
HIDDEN
 62
1
 10
-1.1833147E+002
 20
-2.677145E+001
 11
-1.1833147E+002
 21
-2.777145E+001
  0
ARC
  8
105
  6
HIDDEN
 62
1
 10
-1.1773148E+002
 20
-2.777145E+001
 40
5.999985E-001
 50
1.8E+002
 51
3.6E+002
  0
LINE
  8
105
  6
HIDDEN
 62
1
 10
-1.1713148E+002
 20
-2.777145E+001
 11
-1.1713148E+002
 21
-2.677145E+001
  0
ARC
  8
105
  6
HIDDEN
 62
1
 10
-1.1773148E+002
 20
-2.677145E+001
 40
5.999985E-001
 50
0.0
 51
1.8E+002
  0
LINE
  8
106
  6
CENTERLINE
 62
1
 10
-3.3130485E+001
 20
-2.727145E+001
 11
-3.1080485E+001
 21
-2.727145E+001
  0
ARC
  8
104
  6
CONTINUOUS
 62
40
 10
-1.1888124E+002
 20
-2.5471452E+001
 40
1.9999357E-001
 50
8.9999046E+001
 51
1.8000095E+002
  0
LINE
  8
104
  6
CONTINUOUS
 62
40
 10
-1.1908124E+002
 20
-2.5471455E+001
 11
-1.1908124E+002
 21
-2.9071453E+001
  0
ARC
  8
104
  6
CONTINUOUS
 62
40
 10
-1.1888124E+002
 20
-2.907146E+001
 40
1.999976E-001
 50
1.7999799E+002
 51
2.699998E+002
  0
LINE
  8
104
  6
CONTINUOUS
 62
40
 10
-1.1888124E+002
 20
-2.9271458E+001
 11
-3.0979728E+001
 21
-2.9271458E+001
  0
ARC
  8
104
  6
CONTINUOUS
 62
40
 10
-3.0979728E+001
 20
-2.9071457E+001
 40
2.0000107E-001
 50
2.7000011E+002
 51
3.6000101E+002
  0
LINE
  8
104
  6
CONTINUOUS
 62
40
 10
-3.0779727E+001
 20
-2.9071453E+001
 11
-3.0779727E+001
 21
-2.5271458E+001
  0
LINE
  8
104
  6
CONTINUOUS
 62
40
 10
-3.0779727E+001
 20
-2.5271458E+001
 11
-1.1888124E+002
 21
-2.5271458E+001
  0
LINE
  8
104
  6
CONTINUOUS
 62
40
 10
-3.3179725E+001
 20
-2.5271458E+001
 11
-3.3179725E+001
 21
-2.927145E+001
  0
LINE
  8
104
  6
CONTINUOUS
 62
40
 10
-1.1668123E+002
 20
-2.5271458E+001
 11
-1.1668123E+002
 21
-2.9271458E+001
  0
LINE
  8
104
  6
CONTINUOUS
 62
40
 10
-3.6130485E+001
 20
-2.9971447E+001
 11
-3.6130485E+001
 21
-2.9871449E+001
  0
ARC
  8
104
  6
CONTINUOUS
 62
40
 10
-3.6230481E+001
 20
-2.9871447E+001
 40
9.9996488E-002
 50
3.599989E+002
 51
4.5000115E+002
  0
LINE
  8
104
  6
CONTINUOUS
 62
40
 10
-3.6230483E+001
 20
-2.977145E+001
 11
-3.8030486E+001
 21
-2.977145E+001
  0
ARC
  8
104
  6
CONTINUOUS
 62
40
 10
-3.8030491E+001
 20
-2.9871444E+001
 40
9.9993694E-002
 50
8.9997246E+001
 51
1.800027E+002
  0
LINE
  8
104
  6
CONTINUOUS
 62
40
 10
-3.8130485E+001
 20
-2.9871449E+001
 11
-3.8130485E+001
 21
-2.9971447E+001
  0
LINE
  8
104
  6
CONTINUOUS
 62
40
 10
-3.4930488E+001
 20
-3.2621449E+001
 11
-3.4930488E+001
 21
-3.0971447E+001
  0
LINE
  8
104
  6
CONTINUOUS
 62
40
 10
-3.4930488E+001
 20
-3.0971447E+001
 11
-3.9330485E+001
 21
-3.0971447E+001
  0
LINE
  8
104
  6
CONTINUOUS
 62
40
 10
-3.9330485E+001
 20
-3.0971447E+001
 11
-3.9330485E+001
 21
-3.2621449E+001
  0
LINE
  8
104
  6
CONTINUOUS
 62
40
 10
-3.5975486E+001
 20
-3.3871449E+001
 11
-3.5910483E+001
 21
-3.3871449E+001
  0
LINE
  8
104
  6
CONTINUOUS
 62
40
 10
-3.6480487E+001
 20
-3.0971447E+001
 11
-3.7780486E+001
 21
-3.0971447E+001
  0
LINE
  8
104
  6
CONTINUOUS
 62
40
 10
-1.1083347E+002
 20
-3.0971447E+001
 11
-1.1083347E+002
 21
-3.1071453E+001
  0
ARC
  8
104
  6
CONTINUOUS
 62
40
 10
-1.1093348E+002
 20
-3.1071448E+001
 40
1.0000391E-001
 50
2.7000315E+002
 51
3.599969E+002
  0
LINE
  8
104
  6
CONTINUOUS
 62
40
 10
-1.1093347E+002
 20
-3.1171452E+001
 11
-1.1332747E+002
 21
-3.1171452E+001
  0
ARC
  8
104
  6
CONTINUOUS
 62
40
 10
-1.1332747E+002
 20
-3.1071453E+001
 40
9.999876E-002
 50
1.8000015E+002
 51
2.6999985E+002
  0
LINE
  8
104
  6
CONTINUOUS
 62
40
 10
-1.1342747E+002
 20
-3.1071453E+001
 11
-1.1342747E+002
 21
-3.0971447E+001
  0
LINE
  8
104
  6
CONTINUOUS
 62
40
 10
-1.1342747E+002
 20
-3.0971447E+001
 11
-1.1083347E+002
 21
-3.0971447E+001
  0
LINE
  8
106
  6
CENTERLINE
 62
1
 10
-1.1213047E+002
 20
-3.1379971E+001
 11
-1.1213047E+002
 21
-2.8631398E+001
  0
LINE
  8
104
  6
CONTINUOUS
 62
40
 10
-3.5950484E+001
 20
-3.0971447E+001
 11
-3.8310485E+001
 21
-3.0971447E+001
  0
LINE
  8
104
  6
CONTINUOUS
 62
40
 10
-1.1350368E+002
 20
-2.9971447E+001
 11
-1.1312546E+002
 21
-2.9971447E+001
  0
LINE
  8
104
  6
CONTINUOUS
 62
40
 10
-1.1113547E+002
 20
-2.9971447E+001
 11
-1.1075725E+002
 21
-2.9971447E+001
  0
LINE
  8
104
  6
CONTINUOUS
 62
40
 10
-1.1333047E+002
 20
-3.0971447E+001
 11
-1.1312546E+002
 21
-3.0971447E+001
  0
LINE
  8
104
  6
CONTINUOUS
 62
40
 10
-1.1113547E+002
 20
-3.0971447E+001
 11
-1.1093046E+002
 21
-3.0971447E+001
  0
LINE
  8
104
  6
CONTINUOUS
 62
40
 10
-1.1433047E+002
 20
-3.0971447E+001
 11
-1.1433047E+002
 21
-2.9971447E+001
  0
LINE
  8
104
  6
CONTINUOUS
 62
40
 10
-1.1433047E+002
 20
-2.9971447E+001
 11
-1.1075725E+002
 21
-2.9971447E+001
  0
LINE
  8
104
  6
CONTINUOUS
 62
40
 10
-1.1075725E+002
 20
-2.9971447E+001
 11
-3.8310485E+001
 21
-2.9971447E+001
  0
LINE
  8
104
  6
CONTINUOUS
 62
40
 10
-3.8310485E+001
 20
-2.9971447E+001
 11
-3.4930488E+001
 21
-2.9971447E+001
  0
LINE
  8
104
  6
CONTINUOUS
 62
40
 10
-3.4930488E+001
 20
-2.9971447E+001
 11
-3.4930488E+001
 21
-3.0971447E+001
  0
LINE
  8
104
  6
CONTINUOUS
 62
40
 10
-3.4930488E+001
 20
-3.0971447E+001
 11
-1.1433047E+002
 21
-3.0971447E+001
  0
LINE
  8
104
  6
CONTINUOUS
 62
40
 10
2.5146229E+002
 20
-2.9971455E+001
 11
2.5146229E+002
 21
-2.9871453E+001
  0
ARC
  8
104
  6
CONTINUOUS
 62
40
 10
2.5136229E+002
 20
-2.9871458E+001
 40
1.0000391E-001
 50
3.097289E-003
 51
9.00012E+001
  0
LINE
  8
104
  6
CONTINUOUS
 62
40
 10
2.5136229E+002
 20
-2.9771454E+001
 11
2.4956229E+002
 21
-2.9771454E+001
  0
ARC
  8
104
  6
CONTINUOUS
 62
40
 10
2.4956229E+002
 20
-2.9871453E+001
 40
9.999866E-002
 50
9.0000378E+001
 51
1.7999991E+002
  0
LINE
  8
104
  6
CONTINUOUS
 62
40
 10
2.4946229E+002
 20
-2.9871453E+001
 11
2.4946229E+002
 21
-2.9971455E+001
  0
LINE
  8
104
  6
CONTINUOUS
 62
40
 10
2.5266229E+002
 20
-3.2621453E+001
 11
2.5266229E+002
 21
-3.0971455E+001
  0
LINE
  8
104
  6
CONTINUOUS
 62
40
 10
2.5266229E+002
 20
-3.0971455E+001
 11
2.4826229E+002
 21
-3.0971455E+001
  0
LINE
  8
104
  6
CONTINUOUS
 62
40
 10
2.4826229E+002
 20
-3.0971455E+001
 11
2.4826229E+002
 21
-3.2621453E+001
  0
LINE
  8
104
  6
CONTINUOUS
 62
40
 10
2.5161729E+002
 20
-3.3871453E+001
 11
2.5168229E+002
 21
-3.3871453E+001
  0
LINE
  8
104
  6
CONTINUOUS
 62
40
 10
2.5111229E+002
 20
-3.0971451E+001
 11
2.4981229E+002
 21
-3.0971451E+001
  0
LINE
  8
104
  6
CONTINUOUS
 62
40
 10
1.737623E+002
 20
-2.9271458E+001
 11
1.737623E+002
 21
-2.9771458E+001
  0
LINE
  8
104
  6
CONTINUOUS
 62
40
 10
1.737623E+002
 20
-2.9771458E+001
 11
1.771623E+002
 21
-2.9771458E+001
  0
LINE
  8
104
  6
CONTINUOUS
 62
40
 10
1.771623E+002
 20
-2.9771458E+001
 11
1.771623E+002
 21
-2.9271458E+001
  0
LINE
  8
104
  6
CONTINUOUS
 62
40
 10
1.764623E+002
 20
-2.9771458E+001
 11
1.764623E+002
 21
-2.9971455E+001
  0
LINE
  8
104
  6
CONTINUOUS
 62
40
 10
1.744623E+002
 20
-2.9771458E+001
 11
1.744623E+002
 21
-2.9971455E+001
  0
LINE
  8
104
  6
CONTINUOUS
 62
40
 10
1.767593E+002
 20
-3.0971455E+001
 11
1.767593E+002
 21
-3.1071461E+001
  0
ARC
  8
104
  6
CONTINUOUS
 62
40
 10
1.766593E+002
 20
-3.1071462E+001
 40
9.9997537E-002
 50
2.6999916E+002
 51
3.6000049E+002
  0
LINE
  8
104
  6
CONTINUOUS
 62
40
 10
1.766593E+002
 20
-3.1171459E+001
 11
1.7426531E+002
 21
-3.1171459E+001
  0
ARC
  8
104
  6
CONTINUOUS
 62
40
 10
1.742653E+002
 20
-3.1071464E+001
 40
9.9995514E-002
 50
1.7999835E+002
 51
2.70002E+002
  0
LINE
  8
104
  6
CONTINUOUS
 62
40
 10
1.7416531E+002
 20
-3.1071461E+001
 11
1.7416531E+002
 21
-3.0971455E+001
  0
LINE
  8
104
  6
CONTINUOUS
 62
40
 10
1.7416531E+002
 20
-3.0971455E+001
 11
1.767593E+002
 21
-3.0971455E+001
  0
LINE
  8
99
  6
CONTINUOUS
 62
1
 10
1.754623E+002
 20
-3.1379975E+001
 11
1.754623E+002
 21
-2.8631401E+001
  0
LINE
  8
104
  6
CONTINUOUS
 62
40
 10
2.5164228E+002
 20
-3.0971451E+001
 11
2.4928229E+002
 21
-3.0971451E+001
  0
LINE
  8
104
  6
CONTINUOUS
 62
40
 10
1.7408909E+002
 20
-2.9971451E+001
 11
1.7446731E+002
 21
-2.9971451E+001
  0
LINE
  8
104
  6
CONTINUOUS
 62
40
 10
1.764573E+002
 20
-2.9971451E+001
 11
1.7683551E+002
 21
-2.9971451E+001
  0
LINE
  8
104
  6
CONTINUOUS
 62
40
 10
1.742623E+002
 20
-3.0971455E+001
 11
1.7446731E+002
 21
-3.0971455E+001
  0
LINE
  8
104
  6
CONTINUOUS
 62
40
 10
1.764573E+002
 20
-3.0971455E+001
 11
1.766623E+002
 21
-3.0971455E+001
  0
LINE
  8
104
  6
CONTINUOUS
 62
40
 10
1.732623E+002
 20
-3.0971455E+001
 11
1.732623E+002
 21
-2.9971455E+001
  0
LINE
  8
104
  6
CONTINUOUS
 62
40
 10
1.732623E+002
 20
-2.9971455E+001
 11
1.7683551E+002
 21
-2.9971455E+001
  0
LINE
  8
104
  6
CONTINUOUS
 62
40
 10
1.7683551E+002
 20
-2.9971455E+001
 11
2.4928229E+002
 21
-2.9971455E+001
  0
LINE
  8
104
  6
CONTINUOUS
 62
40
 10
2.4928229E+002
 20
-2.9971455E+001
 11
2.5266229E+002
 21
-2.9971455E+001
  0
LINE
  8
104
  6
CONTINUOUS
 62
40
 10
2.5266229E+002
 20
-2.9971455E+001
 11
2.5266229E+002
 21
-3.0971455E+001
  0
LINE
  8
104
  6
CONTINUOUS
 62
40
 10
2.5266229E+002
 20
-3.0971455E+001
 11
1.732623E+002
 21
-3.0971455E+001
  0
LINE
  8
99
  6
CONTINUOUS
 62
1
 10
1.698623E+002
 20
-2.5813652E+001
 11
1.698623E+002
 21
-2.8507698E+001
  0
LINE
  8
99
  6
CONTINUOUS
 62
1
 10
1.6850733E+002
 20
-2.7271454E+001
 11
1.7120137E+002
 21
-2.7271454E+001
  0
LINE
  8
99
  6
CONTINUOUS
 62
1
 10
2.570623E+002
 20
-2.7271458E+001
 11
2.5386208E+002
 21
-2.7271454E+001
  0
CIRCLE
  8
104
  6
CONTINUOUS
 62
40
 10
1.481623E+002
 20
-2.6271462E+001
 40
5.99999E-001
  0
CIRCLE
  8
99
  6
CONTINUOUS
 62
1
 10
2.8226229E+002
 20
-2.7271454E+001
 40
1.0
  0
LINE
  8
99
  6
CONTINUOUS
 62
1
 10
2.8057626E+002
 20
-2.7271454E+001
 11
2.834623E+002
 21
-2.7271454E+001
  0
LINE
  8
99
  6
CONTINUOUS
 62
1
 10
2.8226229E+002
 20
-2.8687828E+001
 11
2.8226229E+002
 21
-2.5739247E+001
  0
LINE
  8
99
  6
CONTINUOUS
 62
1
 10
2.554623E+002
 20
-2.5725506E+001
 11
2.554623E+002
 21
-2.9271458E+001
  0
CIRCLE
  8
99
  6
CONTINUOUS
 62
1
 10
1.698623E+002
 20
-2.7271454E+001
 40
1.0
  0
CIRCLE
  8
99
  6
CONTINUOUS
 62
1
 10
2.554623E+002
 20
-2.7271454E+001
 40
1.0
  0
ARC
  8
104
  6
CONTINUOUS
 62
40
 10
2.830623E+002
 20
-2.3571459E+001
 40
3.9999995E-001
 50
3.22729E-004
 51
9.0000293E+001
  0
LINE
  8
104
  6
CONTINUOUS
 62
40
 10
2.830623E+002
 20
-2.3171459E+001
 11
1.299623E+002
 21
-2.3171459E+001
  0
ARC
  8
104
  6
CONTINUOUS
 62
40
 10
1.299623E+002
 20
-2.3571459E+001
 40
3.9999988E-001
 50
9.0000842E+001
 51
1.7999969E+002
  0
LINE
  8
104
  6
CONTINUOUS
 62
40
 10
1.295623E+002
 20
-2.3571457E+001
 11
1.295623E+002
 21
-2.887146E+001
  0
ARC
  8
104
  6
CONTINUOUS
 62
40
 10
1.299623E+002
 20
-2.8871463E+001
 40
3.9999472E-001
 50
1.7999957E+002
 51
2.700009E+002
  0
LINE
  8
104
  6
CONTINUOUS
 62
40
 10
1.299623E+002
 20
-2.9271458E+001
 11
2.830623E+002
 21
-2.9271458E+001
  0
ARC
  8
104
  6
CONTINUOUS
 62
40
 10
2.830623E+002
 20
-2.8871462E+001
 40
3.9999625E-001
 50
2.6999918E+002
 51
3.6000021E+002
  0
LINE
  8
104
  6
CONTINUOUS
 62
40
 10
2.834623E+002
 20
-2.887146E+001
 11
2.834623E+002
 21
-2.3571457E+001
  0
LINE
  8
104
  6
CONTINUOUS
 62
40
 10
1.316623E+002
 20
-2.3171459E+001
 11
1.316623E+002
 21
-2.9271462E+001
  0
LINE
  8
104
  6
CONTINUOUS
 62
40
 10
2.8136229E+002
 20
-2.3171456E+001
 11
2.8136228E+002
 21
-2.9271462E+001
  0
LINE
  8
106
  6
CENTERLINE
 62
1
 10
2.5046229E+002
 20
-2.941223E+001
 11
2.5046229E+002
 21
-3.4079884E+001
  0
CIRCLE
  8
105
  6
HIDDEN
 62
1
 10
2.5706229E+002
 20
-3.4871449E+001
 40
1.0
  0
CIRCLE
  8
105
  6
HIDDEN
 62
1
 10
2.354623E+002
 20
-3.6471449E+001
 40
1.0
  0
LINE
  8
106
  6
CENTERLINE
 62
1
 10
2.354623E+002
 20
-3.503812E+001
 11
2.354623E+002
 21
-3.7925221E+001
  0
LINE
  8
106
  6
CENTERLINE
 62
1
 10
2.3406379E+002
 20
-3.6471449E+001
 11
2.3691079E+002
 21
-3.6471449E+001
  0
LINE
  8
106
  6
CENTERLINE
 62
1
 10
2.4666229E+002
 20
-3.503812E+001
 11
2.4666229E+002
 21
-3.7925221E+001
  0
LINE
  8
106
  6
CENTERLINE
 62
1
 10
2.4526379E+002
 20
-3.6471449E+001
 11
2.4811079E+002
 21
-3.6471449E+001
  0
CIRCLE
  8
105
  6
HIDDEN
 62
1
 10
2.4666229E+002
 20
-3.6471449E+001
 40
1.0
  0
CIRCLE
  8
105
  6
HIDDEN
 62
1
 10
2.250623E+002
 20
-4.3471449E+001
 40
1.0
  0
LINE
  8
99
  6
CONTINUOUS
 62
1
 10
2.5706229E+002
 20
-4.4972018E+001
 11
2.5706229E+002
 21
-3.331667E+001
  0
LINE
  8
106
  6
CENTERLINE
 62
1
 10
2.582741E+002
 20
-3.4871449E+001
 11
2.5554145E+002
 21
-3.4871449E+001
  0
LINE
  8
106
  6
CENTERLINE
 62
1
 10
2.2385049E+002
 20
-4.3471449E+001
 11
2.2658314E+002
 21
-4.3471449E+001
  0
LINE
  8
106
  6
CENTERLINE
 62
1
 10
2.250623E+002
 20
-4.4972018E+001
 11
2.250623E+002
 21
-3.3373503E+001
  0
LINE
  8
106
  6
CENTERLINE
 62
1
 10
2.2385049E+002
 20
-4.027145E+001
 11
2.2658314E+002
 21
-4.027145E+001
  0
LINE
  8
106
  6
CENTERLINE
 62
1
 10
2.2385049E+002
 20
-3.807145E+001
 11
2.2658314E+002
 21
-3.807145E+001
  0
LINE
  8
106
  6
CENTERLINE
 62
1
 10
2.2385049E+002
 20
-3.4871449E+001
 11
2.2658314E+002
 21
-3.4871449E+001
  0
LINE
  8
106
  6
CENTERLINE
 62
1
 10
2.582741E+002
 20
-4.3471449E+001
 11
2.5554145E+002
 21
-4.3471449E+001
  0
LINE
  8
106
  6
CENTERLINE
 62
1
 10
2.582741E+002
 20
-4.027145E+001
 11
2.5554145E+002
 21
-4.027145E+001
  0
LINE
  8
106
  6
CENTERLINE
 62
1
 10
2.582741E+002
 20
-3.807145E+001
 11
2.5554145E+002
 21
-3.807145E+001
  0
CIRCLE
  8
105
  6
HIDDEN
 62
1
 10
2.250623E+002
 20
-4.027145E+001
 40
1.0
  0
CIRCLE
  8
105
  6
HIDDEN
 62
1
 10
2.250623E+002
 20
-3.807145E+001
 40
1.0
  0
CIRCLE
  8
105
  6
HIDDEN
 62
1
 10
2.250623E+002
 20
-3.4871449E+001
 40
1.0
  0
CIRCLE
  8
105
  6
HIDDEN
 62
1
 10
2.5706229E+002
 20
-4.3471455E+001
 40
1.0
  0
CIRCLE
  8
105
  6
HIDDEN
 62
1
 10
2.5706229E+002
 20
-4.027145E+001
 40
1.0
  0
CIRCLE
  8
105
  6
HIDDEN
 62
1
 10
2.5706229E+002
 20
-3.807145E+001
 40
1.0
  0
LINE
  8
104
  6
CONTINUOUS
 62
40
 10
2.6646229E+002
 20
-4.4621449E+001
 11
2.6656229E+002
 21
-4.4621449E+001
  0
LINE
  8
104
  6
CONTINUOUS
 62
40
 10
2.6656229E+002
 20
-4.4621449E+001
 11
2.6816229E+002
 21
-4.4621449E+001
  0
ARC
  8
104
  6
CONTINUOUS
 62
40
 10
2.6816229E+002
 20
-4.4221446E+001
 40
4.0000278E-001
 50
2.7000054E+002
 51
3.5999956E+002
  0
LINE
  8
104
  6
CONTINUOUS
 62
40
 10
2.6856229E+002
 20
-4.4221449E+001
 11
2.6856229E+002
 21
-3.302145E+001
  0
ARC
  8
104
  6
CONTINUOUS
 62
40
 10
2.6816229E+002
 20
-3.3021449E+001
 40
3.9999992E-001
 50
3.5999977E+002
 51
4.4999987E+002
  0
LINE
  8
104
  6
CONTINUOUS
 62
40
 10
2.6816229E+002
 20
-3.2621449E+001
 11
2.6656229E+002
 21
-3.2621449E+001
  0
LINE
  8
104
  6
CONTINUOUS
 62
40
 10
2.6656229E+002
 20
-3.2621449E+001
 11
2.6646229E+002
 21
-3.2621449E+001
  0
LINE
  8
104
  6
CONTINUOUS
 62
40
 10
2.6646229E+002
 20
-3.2621449E+001
 11
2.156623E+002
 21
-3.2621449E+001
  0
LINE
  8
104
  6
CONTINUOUS
 62
40
 10
2.156623E+002
 20
-3.2621449E+001
 11
2.155623E+002
 21
-3.2621449E+001
  0
LINE
  8
104
  6
CONTINUOUS
 62
40
 10
2.155623E+002
 20
-3.2621449E+001
 11
2.139623E+002
 21
-3.2621449E+001
  0
ARC
  8
104
  6
CONTINUOUS
 62
40
 10
2.1396546E+002
 20
-3.3024599E+001
 40
4.0316291E-001
 50
9.044922E+001
 51
1.7999811E+002
  0
LINE
  8
104
  6
CONTINUOUS
 62
40
 10
2.135623E+002
 20
-3.3024586E+001
 11
2.135623E+002
 21
-4.4221449E+001
  0
ARC
  8
104
  6
CONTINUOUS
 62
40
 10
2.139623E+002
 20
-4.4221452E+001
 40
3.9999707E-001
 50
1.7999962E+002
 51
2.7000071E+002
  0
LINE
  8
104
  6
CONTINUOUS
 62
40
 10
2.139623E+002
 20
-4.4621449E+001
 11
2.155623E+002
 21
-4.4621449E+001
  0
LINE
  8
104
  6
CONTINUOUS
 62
40
 10
2.155623E+002
 20
-4.4621449E+001
 11
2.156623E+002
 21
-4.4621449E+001
  0
LINE
  8
104
  6
CONTINUOUS
 62
40
 10
2.156623E+002
 20
-4.4621449E+001
 11
2.6646229E+002
 21
-4.4621449E+001
  0
LINE
  8
104
  6
CONTINUOUS
 62
40
 10
2.155623E+002
 20
-3.2621449E+001
 11
2.155623E+002
 21
-4.452145E+001
  0
LINE
  8
104
  6
CONTINUOUS
 62
40
 10
2.155623E+002
 20
-4.452145E+001
 11
2.155623E+002
 21
-4.4621449E+001
  0
LINE
  8
104
  6
CONTINUOUS
 62
40
 10
2.6656229E+002
 20
-4.4621449E+001
 11
2.6656229E+002
 21
-3.2621449E+001
  0
LINE
  8
106
  6
CENTERLINE
 62
1
 10
2.5706229E+002
 20
-4.4972018E+001
 11
2.5706229E+002
 21
-3.8766939E+001
  0
LINE
  8
106
  6
CENTERLINE
 62
1
 10
2.5706229E+002
 20
-3.8766939E+001
 11
2.5706229E+002
 21
-3.4028786E+001
  0
LINE
  8
106
  6
CENTERLINE
 62
1
 10
2.250623E+002
 20
-4.4972018E+001
 11
2.250623E+002
 21
-3.8575032E+001
  0
LINE
  8
106
  6
CENTERLINE
 62
1
 10
2.250623E+002
 20
-3.8575032E+001
 11
2.250623E+002
 21
-3.3920448E+001
  0
LINE
  8
104
  6
CONTINUOUS
 62
40
 10
1.615623E+002
 20
2.2896132E+001
 11
1.615623E+002
 21
2.2996134E+001
  0
ARC
  8
104
  6
CONTINUOUS
 62
40
 10
1.616623E+002
 20
2.2996129E+001
 40
1.0000391E-001
 50
8.99988E+001
 51
1.7999719E+002
  0
LINE
  8
104
  6
CONTINUOUS
 62
40
 10
1.6166231E+002
 20
2.3096133E+001
 11
1.634623E+002
 21
2.3096133E+001
  0
ARC
  8
104
  6
CONTINUOUS
 62
40
 10
1.634623E+002
 20
2.2996134E+001
 40
9.9998606E-002
 50
3.5999977E+002
 51
4.5000023E+002
  0
LINE
  8
104
  6
CONTINUOUS
 62
40
 10
1.635623E+002
 20
2.2996134E+001
 11
1.635623E+002
 21
2.2896132E+001
  0
LINE
  8
104
  6
CONTINUOUS
 62
40
 10
1.603623E+002
 20
2.0246134E+001
 11
1.603623E+002
 21
2.1896132E+001
  0
LINE
  8
104
  6
CONTINUOUS
 62
40
 10
1.603623E+002
 20
2.1896132E+001
 11
1.647623E+002
 21
2.1896132E+001
  0
LINE
  8
104
  6
CONTINUOUS
 62
40
 10
1.647623E+002
 20
2.1896132E+001
 11
1.647623E+002
 21
2.0246134E+001
  0
LINE
  8
104
  6
CONTINUOUS
 62
40
 10
1.614073E+002
 20
1.8996134E+001
 11
1.6134231E+002
 21
1.8996134E+001
  0
LINE
  8
104
  6
CONTINUOUS
 62
40
 10
1.6191231E+002
 20
2.1896136E+001
 11
1.632123E+002
 21
2.1896136E+001
  0
LINE
  8
104
  6
CONTINUOUS
 62
40
 10
2.3926229E+002
 20
2.3596129E+001
 11
2.3926229E+002
 21
2.3096129E+001
  0
LINE
  8
104
  6
CONTINUOUS
 62
40
 10
2.3926229E+002
 20
2.3096129E+001
 11
2.3586229E+002
 21
2.3096129E+001
  0
LINE
  8
104
  6
CONTINUOUS
 62
40
 10
2.3586229E+002
 20
2.3096129E+001
 11
2.3586229E+002
 21
2.3596129E+001
  0
LINE
  8
104
  6
CONTINUOUS
 62
40
 10
2.365623E+002
 20
2.3096129E+001
 11
2.365623E+002
 21
2.2896132E+001
  0
LINE
  8
104
  6
CONTINUOUS
 62
40
 10
2.385623E+002
 20
2.3096129E+001
 11
2.385623E+002
 21
2.2896132E+001
  0
LINE
  8
104
  6
CONTINUOUS
 62
40
 10
2.3626529E+002
 20
2.1896132E+001
 11
2.3626529E+002
 21
2.1796126E+001
  0
ARC
  8
104
  6
CONTINUOUS
 62
40
 10
2.3636529E+002
 20
2.1796125E+001
 40
9.9997513E-002
 50
1.7999915E+002
 51
2.7000085E+002
  0
LINE
  8
104
  6
CONTINUOUS
 62
40
 10
2.3636529E+002
 20
2.1696127E+001
 11
2.3875929E+002
 21
2.1696127E+001
  0
ARC
  8
104
  6
CONTINUOUS
 62
40
 10
2.3875929E+002
 20
2.1796123E+001
 40
9.9995642E-002
 50
2.6999865E+002
 51
3.6000192E+002
  0
LINE
  8
104
  6
CONTINUOUS
 62
40
 10
2.3885929E+002
 20
2.1796126E+001
 11
2.3885929E+002
 21
2.1896132E+001
  0
LINE
  8
104
  6
CONTINUOUS
 62
40
 10
2.3885929E+002
 20
2.1896132E+001
 11
2.3626529E+002
 21
2.1896132E+001
  0
LINE
  8
99
  6
CONTINUOUS
 62
1
 10
2.3756229E+002
 20
2.1487612E+001
 11
2.3756229E+002
 21
2.4236185E+001
  0
LINE
  8
104
  6
CONTINUOUS
 62
40
 10
1.6138231E+002
 20
2.1896136E+001
 11
1.637423E+002
 21
2.1896136E+001
  0
LINE
  8
104
  6
CONTINUOUS
 62
40
 10
2.389355E+002
 20
2.2896136E+001
 11
2.3855728E+002
 21
2.2896136E+001
  0
LINE
  8
104
  6
CONTINUOUS
 62
40
 10
2.3656729E+002
 20
2.2896136E+001
 11
2.3618908E+002
 21
2.2896136E+001
  0
LINE
  8
104
  6
CONTINUOUS
 62
40
 10
2.3876229E+002
 20
2.1896132E+001
 11
2.3855728E+002
 21
2.1896132E+001
  0
LINE
  8
104
  6
CONTINUOUS
 62
40
 10
2.3656729E+002
 20
2.1896132E+001
 11
2.3636229E+002
 21
2.1896132E+001
  0
LINE
  8
104
  6
CONTINUOUS
 62
40
 10
2.3976229E+002
 20
2.1896132E+001
 11
2.3976229E+002
 21
2.2896132E+001
  0
LINE
  8
104
  6
CONTINUOUS
 62
40
 10
2.3976229E+002
 20
2.2896132E+001
 11
2.3618908E+002
 21
2.2896132E+001
  0
LINE
  8
104
  6
CONTINUOUS
 62
40
 10
2.3618908E+002
 20
2.2896132E+001
 11
1.637423E+002
 21
2.2896132E+001
  0
LINE
  8
104
  6
CONTINUOUS
 62
40
 10
1.637423E+002
 20
2.2896132E+001
 11
1.603623E+002
 21
2.2896132E+001
  0
LINE
  8
104
  6
CONTINUOUS
 62
40
 10
1.603623E+002
 20
2.2896132E+001
 11
1.603623E+002
 21
2.1896132E+001
  0
LINE
  8
104
  6
CONTINUOUS
 62
40
 10
1.603623E+002
 20
2.1896132E+001
 11
2.3976229E+002
 21
2.1896132E+001
  0
LINE
  8
99
  6
CONTINUOUS
 62
1
 10
2.4316229E+002
 20
2.7053935E+001
 11
2.4316229E+002
 21
2.4359888E+001
  0
LINE
  8
99
  6
CONTINUOUS
 62
1
 10
2.4451727E+002
 20
2.5596133E+001
 11
2.4182322E+002
 21
2.5596133E+001
  0
LINE
  8
99
  6
CONTINUOUS
 62
1
 10
1.5596229E+002
 20
2.5596129E+001
 11
1.5916251E+002
 21
2.5596133E+001
  0
CIRCLE
  8
104
  6
CONTINUOUS
 62
40
 10
2.6486229E+002
 20
2.6596125E+001
 40
5.99998E-001
  0
CIRCLE
  8
99
  6
CONTINUOUS
 62
1
 10
1.307623E+002
 20
2.5596133E+001
 40
1.0
  0
LINE
  8
99
  6
CONTINUOUS
 62
1
 10
1.3244833E+002
 20
2.5596133E+001
 11
1.2956229E+002
 21
2.5596133E+001
  0
LINE
  8
99
  6
CONTINUOUS
 62
1
 10
1.307623E+002
 20
2.4179758E+001
 11
1.307623E+002
 21
2.712834E+001
  0
LINE
  8
99
  6
CONTINUOUS
 62
1
 10
1.5756229E+002
 20
2.7142081E+001
 11
1.5756229E+002
 21
2.3596129E+001
  0
CIRCLE
  8
99
  6
CONTINUOUS
 62
1
 10
2.4316229E+002
 20
2.5596133E+001
 40
1.0
  0
CIRCLE
  8
99
  6
CONTINUOUS
 62
1
 10
1.5756229E+002
 20
2.5596133E+001
 40
1.0
  0
ARC
  8
104
  6
CONTINUOUS
 62
40
 10
1.2996229E+002
 20
2.9296127E+001
 40
3.999997E-001
 50
8.9999671E+001
 51
1.7999961E+002
  0
LINE
  8
104
  6
CONTINUOUS
 62
40
 10
1.299623E+002
 20
2.9696127E+001
 11
2.830623E+002
 21
2.9696127E+001
  0
ARC
  8
104
  6
CONTINUOUS
 62
40
 10
2.8306229E+002
 20
2.9296127E+001
 40
3.9999978E-001
 50
3.981986E-004
 51
8.9999172E+001
  0
LINE
  8
104
  6
CONTINUOUS
 62
40
 10
2.8346229E+002
 20
2.929613E+001
 11
2.8346229E+002
 21
2.3996127E+001
  0
ARC
  8
104
  6
CONTINUOUS
 62
40
 10
2.830623E+002
 20
2.3996124E+001
 40
3.9999481E-001
 50
2.6999897E+002
 51
3.6000046E+002
  0
LINE
  8
104
  6
CONTINUOUS
 62
40
 10
2.8306229E+002
 20
2.3596129E+001
 11
1.299623E+002
 21
2.3596129E+001
  0
ARC
  8
104
  6
CONTINUOUS
 62
40
 10
1.2996229E+002
 20
2.3996125E+001
 40
3.9999639E-001
 50
1.7999977E+002
 51
2.700008E+002
  0
LINE
  8
104
  6
CONTINUOUS
 62
40
 10
1.2956229E+002
 20
2.3996127E+001
 11
1.2956229E+002
 21
2.929613E+001
  0
LINE
  8
104
  6
CONTINUOUS
 62
40
 10
2.8136229E+002
 20
2.9696127E+001
 11
2.8136229E+002
 21
2.3596125E+001
  0
LINE
  8
104
  6
CONTINUOUS
 62
40
 10
1.316623E+002
 20
2.9696131E+001
 11
1.3166231E+002
 21
2.3596125E+001
  0
LINE
  8
106
  6
CENTERLINE
 62
1
 10
1.625623E+002
 20
2.3455357E+001
 11
1.625623E+002
 21
1.8787703E+001
  0
CIRCLE
  8
105
  6
HIDDEN
 62
1
 10
1.559623E+002
 20
1.7996138E+001
 40
1.0
  0
CIRCLE
  8
105
  6
HIDDEN
 62
1
 10
1.775623E+002
 20
1.6396138E+001
 40
1.0
  0
LINE
  8
106
  6
CENTERLINE
 62
1
 10
1.775623E+002
 20
1.7829466E+001
 11
1.775623E+002
 21
1.4942366E+001
  0
LINE
  8
106
  6
CENTERLINE
 62
1
 10
1.789608E+002
 20
1.6396138E+001
 11
1.761138E+002
 21
1.6396138E+001
  0
LINE
  8
106
  6
CENTERLINE
 62
1
 10
1.663623E+002
 20
1.7829466E+001
 11
1.663623E+002
 21
1.4942366E+001
  0
LINE
  8
106
  6
CENTERLINE
 62
1
 10
1.6776081E+002
 20
1.6396138E+001
 11
1.649138E+002
 21
1.6396138E+001
  0
CIRCLE
  8
105
  6
HIDDEN
 62
1
 10
1.663623E+002
 20
1.6396138E+001
 40
1.0
  0
CIRCLE
  8
105
  6
HIDDEN
 62
1
 10
1.8796229E+002
 20
9.396138
 40
1.0
  0
LINE
  8
99
  6
CONTINUOUS
 62
1
 10
1.559623E+002
 20
7.895569
 11
1.559623E+002
 21
1.9550917E+001
  0
LINE
  8
106
  6
CENTERLINE
 62
1
 10
1.5475049E+002
 20
1.7996138E+001
 11
1.5748315E+002
 21
1.7996138E+001
  0
LINE
  8
106
  6
CENTERLINE
 62
1
 10
1.891741E+002
 20
9.396138
 11
1.8644145E+002
 21
9.396138
  0
LINE
  8
106
  6
CENTERLINE
 62
1
 10
1.8796229E+002
 20
7.895569
 11
1.8796229E+002
 21
1.9494084E+001
  0
LINE
  8
106
  6
CENTERLINE
 62
1
 10
1.891741E+002
 20
1.2596137E+001
 11
1.8644145E+002
 21
1.2596137E+001
  0
LINE
  8
106
  6
CENTERLINE
 62
1
 10
1.891741E+002
 20
1.4796137E+001
 11
1.8644145E+002
 21
1.4796137E+001
  0
LINE
  8
106
  6
CENTERLINE
 62
1
 10
1.891741E+002
 20
1.7996138E+001
 11
1.8644145E+002
 21
1.7996138E+001
  0
LINE
  8
106
  6
CENTERLINE
 62
1
 10
1.5475049E+002
 20
9.396138
 11
1.5748315E+002
 21
9.396138
  0
LINE
  8
106
  6
CENTERLINE
 62
1
 10
1.5475049E+002
 20
1.2596137E+001
 11
1.5748315E+002
 21
1.2596137E+001
  0
LINE
  8
106
  6
CENTERLINE
 62
1
 10
1.5475049E+002
 20
1.4796137E+001
 11
1.5748315E+002
 21
1.4796137E+001
  0
CIRCLE
  8
105
  6
HIDDEN
 62
1
 10
1.8796229E+002
 20
1.2596137E+001
 40
1.0
  0
CIRCLE
  8
105
  6
HIDDEN
 62
1
 10
1.8796229E+002
 20
1.4796137E+001
 40
1.0
  0
CIRCLE
  8
105
  6
HIDDEN
 62
1
 10
1.8796229E+002
 20
1.7996138E+001
 40
1.0
  0
CIRCLE
  8
105
  6
HIDDEN
 62
1
 10
1.559623E+002
 20
9.396132
 40
1.0
  0
CIRCLE
  8
105
  6
HIDDEN
 62
1
 10
1.559623E+002
 20
1.2596137E+001
 40
1.0
  0
CIRCLE
  8
105
  6
HIDDEN
 62
1
 10
1.559623E+002
 20
1.4796137E+001
 40
1.0
  0
LINE
  8
104
  6
CONTINUOUS
 62
40
 10
1.465623E+002
 20
8.246138
 11
1.464623E+002
 21
8.246138
  0
LINE
  8
104
  6
CONTINUOUS
 62
40
 10
1.464623E+002
 20
8.246138
 11
1.448623E+002
 21
8.246138
  0
ARC
  8
104
  6
CONTINUOUS
 62
40
 10
1.448623E+002
 20
8.6461409
 40
4.0000287E-001
 50
1.8000041E+002
 51
2.6999959E+002
  0
LINE
  8
104
  6
CONTINUOUS
 62
40
 10
1.444623E+002
 20
8.646138
 11
1.444623E+002
 21
1.9846137E+001
  0
ARC
  8
104
  6
CONTINUOUS
 62
40
 10
1.448623E+002
 20
1.9846138E+001
 40
3.9999964E-001
 50
8.9999949E+001
 51
1.8000019E+002
  0
LINE
  8
104
  6
CONTINUOUS
 62
40
 10
1.448623E+002
 20
2.0246138E+001
 11
1.464623E+002
 21
2.0246138E+001
  0
LINE
  8
104
  6
CONTINUOUS
 62
40
 10
1.464623E+002
 20
2.0246138E+001
 11
1.465623E+002
 21
2.0246138E+001
  0
LINE
  8
104
  6
CONTINUOUS
 62
40
 10
1.465623E+002
 20
2.0246138E+001
 11
1.9736229E+002
 21
2.0246138E+001
  0
LINE
  8
104
  6
CONTINUOUS
 62
40
 10
1.9736229E+002
 20
2.0246138E+001
 11
1.9746229E+002
 21
2.0246138E+001
  0
LINE
  8
104
  6
CONTINUOUS
 62
40
 10
1.9746229E+002
 20
2.0246138E+001
 11
1.9906229E+002
 21
2.0246138E+001
  0
ARC
  8
104
  6
CONTINUOUS
 62
40
 10
1.9905913E+002
 20
1.9842988E+001
 40
4.0316275E-001
 50
1.8992958E-003
 51
8.9550802E+001
  0
LINE
  8
104
  6
CONTINUOUS
 62
40
 10
1.9946229E+002
 20
1.9843001E+001
 11
1.9946229E+002
 21
8.646138
  0
ARC
  8
104
  6
CONTINUOUS
 62
40
 10
1.990623E+002
 20
8.6461353
 40
3.9999732E-001
 50
2.6999933E+002
 51
3.6000038E+002
  0
LINE
  8
104
  6
CONTINUOUS
 62
40
 10
1.9906229E+002
 20
8.246138
 11
1.9746229E+002
 21
8.246138
  0
LINE
  8
104
  6
CONTINUOUS
 62
40
 10
1.9746229E+002
 20
8.246138
 11
1.9736229E+002
 21
8.246138
  0
LINE
  8
104
  6
CONTINUOUS
 62
40
 10
1.9736229E+002
 20
8.246138
 11
1.465623E+002
 21
8.246138
  0
LINE
  8
104
  6
CONTINUOUS
 62
40
 10
1.9746229E+002
 20
2.0246138E+001
 11
1.9746229E+002
 21
8.346137
  0
LINE
  8
104
  6
CONTINUOUS
 62
40
 10
1.9746229E+002
 20
8.346137
 11
1.9746229E+002
 21
8.246138
  0
LINE
  8
104
  6
CONTINUOUS
 62
40
 10
1.464623E+002
 20
8.246138
 11
1.464623E+002
 21
2.0246138E+001
  0
LINE
  8
106
  6
CENTERLINE
 62
1
 10
1.559623E+002
 20
7.895569
 11
1.559623E+002
 21
1.4100647E+001
  0
LINE
  8
106
  6
CENTERLINE
 62
1
 10
1.559623E+002
 20
1.4100647E+001
 11
1.559623E+002
 21
1.8838801E+001
  0
LINE
  8
106
  6
CENTERLINE
 62
1
 10
1.8796229E+002
 20
7.895569
 11
1.8796229E+002
 21
1.4292555E+001
  0
LINE
  8
106
  6
CENTERLINE
 62
1
 10
1.8796229E+002
 20
1.4292555E+001
 11
1.8796229E+002
 21
1.8947138E+001
  0
POINT
  8
Drafting_Hidden_Entities
  6
CONTINUOUS
 62
1
 10
0.0
 20
0.0
  0
ENDBLK
  0
BLOCK
  2
5NEW00
 10
0.0
 20
0.0
 70
0
  0
TEXT
  8
103
  6
CONTINUOUS
 62
150
 10
3.5701354E+001
 20
-3.8906165E+001
 40
3.5
  1
G93EMF-DR
 41
6.5000002E-001
 72
1
 11
2.5463854E+001
 21
-4.0656165E+001
 73
2
  0
TEXT
  8
103
  6
CONTINUOUS
 62
150
 10
9.1485029E+001
 20
1.4346137E+001
 40
3.5
  1
G93EMF-DL
 41
6.5000002E-001
 72
1
 11
8.1247529E+001
 21
1.2596137E+001
 73
2
  0
TEXT
  8
103
  6
CONTINUOUS
 62
150
 10
2.3613787E+002
 20
1.5728254E+001
 40
3.5
  1
G93EMR-DL
 41
6.5000002E-001
 72
1
 11
2.2590037E+002
 21
1.3978254E+001
 73
2
  0
TEXT
  8
103
  6
CONTINUOUS
 62
150
 10
1.8766378E+002
 20
-3.8348917E+001
 40
3.5
  1
G93EMR-DR
 41
6.5000002E-001
 72
1
 11
1.7742628E+002
 21
-4.0098917E+001
 73
2
  0
TEXT
  8
103
  6
CONTINUOUS
 62
150
 10
-8.5044945E+001
 20
-3.7485439E+001
 40
3.5
  1
G93N(RF)-DR
 41
6.5454547E-001
 72
1
 11
-9.7644945E+001
 21
-3.9235439E+001
 73
2
  0
TEXT
  8
103
  6
CONTINUOUS
 62
150
 10
-3.00307E+001
 20
1.3804679E+001
 40
3.5
  1
G93N(RF)-DL
 41
6.5454547E-001
 72
1
 11
-4.2630701E+001
 21
1.2054679E+001
 73
2
  0
CIRCLE
  8
99
  6
CONTINUOUS
 62
1
 10
9.1958418E+001
 20
-2.7268742E+001
 40
5.99999E-001
  0
LINE
  8
106
  6
CENTERLINE
 62
1
 10
9.3158418E+001
 20
-2.7268742E+001
 11
9.0882814E+001
 21
-2.7268742E+001
  0
LINE
  8
106
  6
CENTERLINE
 62
1
 10
9.1958418E+001
 20
-2.6295819E+001
 11
9.1958418E+001
 21
-2.8367581E+001
  0
CIRCLE
  8
99
  6
CONTINUOUS
 62
1
 10
6.358415
 20
-2.7271458E+001
 40
5.99998E-001
  0
LINE
  8
104
  6
CONTINUOUS
 62
40
 10
5.158418
 20
-2.3271466E+001
 11
2.658418
 21
-2.3271466E+001
  0
LINE
  8
104
  6
CONTINUOUS
 62
40
 10
2.658418
 20
-2.3271466E+001
 11
2.658418
 21
-2.9271458E+001
  0
LINE
  8
104
  6
CONTINUOUS
 62
40
 10
2.658418
 20
-2.9271458E+001
 11
5.158418
 21
-2.9271458E+001
  0
LINE
  8
104
  6
CONTINUOUS
 62
40
 10
5.158418
 20
-2.9271458E+001
 11
9.3158418E+001
 21
-2.9271458E+001
  0
LINE
  8
104
  6
CONTINUOUS
 62
40
 10
9.3158418E+001
 20
-2.9271458E+001
 11
9.3158411E+001
 21
-2.3271466E+001
  0
LINE
  8
104
  6
CONTINUOUS
 62
40
 10
9.3158411E+001
 20
-2.3271466E+001
 11
5.158418
 21
-2.3271466E+001
  0
LINE
  8
104
  6
CONTINUOUS
 62
40
 10
5.158418
 20
-2.3271466E+001
 11
5.158418
 21
-2.9271458E+001
  0
LINE
  8
104
  6
CONTINUOUS
 62
40
 10
9.5658418E+001
 20
-2.9271458E+001
 11
9.3158418E+001
 21
-2.9271458E+001
  0
LINE
  8
104
  6
CONTINUOUS
 62
40
 10
9.3158418E+001
 20
-2.9271458E+001
 11
9.3158411E+001
 21
-2.3271466E+001
  0
LINE
  8
104
  6
CONTINUOUS
 62
40
 10
9.3158411E+001
 20
-2.3271466E+001
 11
9.5658418E+001
 21
-2.3271466E+001
  0
LINE
  8
104
  6
CONTINUOUS
 62
40
 10
9.5658418E+001
 20
-2.3271466E+001
 11
9.5658418E+001
 21
-2.9271458E+001
  0
LINE
  8
99
  6
CONTINUOUS
 62
1
 10
7.966051
 20
-2.7271458E+001
 11
4.712328
 21
-2.7271458E+001
  0
LINE
  8
99
  6
CONTINUOUS
 62
1
 10
6.358415
 20
-2.5786717E+001
 11
6.358415
 21
-2.8682537E+001
  0
LINE
  8
104
  6
CONTINUOUS
 62
40
 10
8.795841E+001
 20
-2.9971455E+001
 11
8.795841E+001
 21
-2.9871456E+001
  0
ARC
  8
104
  6
CONTINUOUS
 62
40
 10
8.7858406E+001
 20
-2.9871462E+001
 40
1.0000363E-001
 50
2.995171E-003
 51
9.0001359E+001
  0
LINE
  8
104
  6
CONTINUOUS
 62
40
 10
8.7858404E+001
 20
-2.9771458E+001
 11
8.6058408E+001
 21
-2.9771458E+001
  0
ARC
  8
104
  6
CONTINUOUS
 62
40
 10
8.6058405E+001
 20
-2.9871453E+001
 40
9.9995222E-002
 50
8.9998408E+001
 51
1.8000182E+002
  0
LINE
  8
104
  6
CONTINUOUS
 62
40
 10
8.595841E+001
 20
-2.9871456E+001
 11
8.595841E+001
 21
-2.9971455E+001
  0
LINE
  8
104
  6
CONTINUOUS
 62
40
 10
8.9158407E+001
 20
-3.2621456E+001
 11
8.9158407E+001
 21
-3.0971455E+001
  0
LINE
  8
104
  6
CONTINUOUS
 62
40
 10
8.9158407E+001
 20
-3.0971455E+001
 11
8.4758405E+001
 21
-3.0971455E+001
  0
LINE
  8
104
  6
CONTINUOUS
 62
40
 10
8.4758405E+001
 20
-3.0971455E+001
 11
8.4758405E+001
 21
-3.2621456E+001
  0
LINE
  8
104
  6
CONTINUOUS
 62
40
 10
8.8113409E+001
 20
-3.3871456E+001
 11
8.8178404E+001
 21
-3.3871456E+001
  0
LINE
  8
104
  6
CONTINUOUS
 62
40
 10
8.7608404E+001
 20
-3.0971455E+001
 11
8.6308408E+001
 21
-3.0971455E+001
  0
LINE
  8
104
  6
CONTINUOUS
 62
40
 10
1.0258417E+001
 20
-2.9271458E+001
 11
1.0258417E+001
 21
-2.9771458E+001
  0
LINE
  8
104
  6
CONTINUOUS
 62
40
 10
1.0258417E+001
 20
-2.9771458E+001
 11
1.3658418E+001
 21
-2.9771458E+001
  0
LINE
  8
104
  6
CONTINUOUS
 62
40
 10
1.3658418E+001
 20
-2.9771458E+001
 11
1.3658418E+001
 21
-2.9271458E+001
  0
LINE
  8
104
  6
CONTINUOUS
 62
40
 10
1.2958414E+001
 20
-2.9771458E+001
 11
1.2958414E+001
 21
-2.9971455E+001
  0
LINE
  8
104
  6
CONTINUOUS
 62
40
 10
1.0958414E+001
 20
-2.9771458E+001
 11
1.0958414E+001
 21
-2.9971455E+001
  0
LINE
  8
104
  6
CONTINUOUS
 62
40
 10
1.3255419E+001
 20
-3.0971455E+001
 11
1.3255419E+001
 21
-3.1071461E+001
  0
ARC
  8
104
  6
CONTINUOUS
 62
40
 10
1.3155415E+001
 20
-3.1071456E+001
 40
1.0000358E-001
 50
2.7000262E+002
 51
3.5999709E+002
  0
LINE
  8
104
  6
CONTINUOUS
 62
40
 10
1.315542E+001
 20
-3.117146E+001
 11
1.0761423E+001
 21
-3.117146E+001
  0
ARC
  8
104
  6
CONTINUOUS
 62
40
 10
1.076142E+001
 20
-3.1071463E+001
 40
9.999649E-002
 50
1.7999885E+002
 51
2.7000144E+002
  0
LINE
  8
104
  6
CONTINUOUS
 62
40
 10
1.0661424E+001
 20
-3.1071461E+001
 11
1.0661424E+001
 21
-3.0971455E+001
  0
LINE
  8
104
  6
CONTINUOUS
 62
40
 10
1.0661424E+001
 20
-3.0971455E+001
 11
1.3255419E+001
 21
-3.0971455E+001
  0
LINE
  8
99
  6
CONTINUOUS
 62
1
 10
1.1958421E+001
 20
-3.1379979E+001
 11
1.1958421E+001
 21
-2.8631405E+001
  0
LINE
  8
104
  6
CONTINUOUS
 62
40
 10
8.8138403E+001
 20
-3.0971455E+001
 11
8.577841E+001
 21
-3.0971455E+001
  0
LINE
  8
104
  6
CONTINUOUS
 62
40
 10
1.0585207E+001
 20
-2.9971455E+001
 11
1.0963426E+001
 21
-2.9971455E+001
  0
LINE
  8
104
  6
CONTINUOUS
 62
40
 10
1.2953417E+001
 20
-2.9971455E+001
 11
1.3331629E+001
 21
-2.9971455E+001
  0
LINE
  8
104
  6
CONTINUOUS
 62
40
 10
1.0758417E+001
 20
-3.0971455E+001
 11
1.0963426E+001
 21
-3.0971455E+001
  0
LINE
  8
104
  6
CONTINUOUS
 62
40
 10
1.2953417E+001
 20
-3.0971455E+001
 11
1.3158418E+001
 21
-3.0971455E+001
  0
LINE
  8
104
  6
CONTINUOUS
 62
40
 10
9.758417
 20
-3.0971455E+001
 11
9.758417
 21
-2.9971455E+001
  0
LINE
  8
104
  6
CONTINUOUS
 62
40
 10
9.758417
 20
-2.9971455E+001
 11
1.3331629E+001
 21
-2.9971455E+001
  0
LINE
  8
104
  6
CONTINUOUS
 62
40
 10
1.3331629E+001
 20
-2.9971455E+001
 11
8.577841E+001
 21
-2.9971455E+001
  0
LINE
  8
104
  6
CONTINUOUS
 62
40
 10
8.577841E+001
 20
-2.9971455E+001
 11
8.9158407E+001
 21
-2.9971455E+001
  0
LINE
  8
104
  6
CONTINUOUS
 62
40
 10
8.9158407E+001
 20
-2.9971455E+001
 11
8.9158407E+001
 21
-3.0971455E+001
  0
LINE
  8
104
  6
CONTINUOUS
 62
40
 10
8.9158407E+001
 20
-3.0971455E+001
 11
9.758417
 21
-3.0971455E+001
  0
LINE
  8
106
  6
CENTERLINE
 62
1
 10
8.695841E+001
 20
-2.9412236E+001
 11
8.695841E+001
 21
-3.4079884E+001
  0
CIRCLE
  8
105
  6
HIDDEN
 62
1
 10
9.3558408E+001
 20
-3.4871449E+001
 40
1.0
  0
CIRCLE
  8
105
  6
HIDDEN
 62
1
 10
7.1958414E+001
 20
-3.6471455E+001
 40
1.0
  0
LINE
  8
106
  6
CENTERLINE
 62
1
 10
7.1958414E+001
 20
-3.5038121E+001
 11
7.1958414E+001
 21
-3.7925221E+001
  0
LINE
  8
106
  6
CENTERLINE
 62
1
 10
7.0559908E+001
 20
-3.6471455E+001
 11
7.3406912E+001
 21
-3.6471455E+001
  0
LINE
  8
106
  6
CENTERLINE
 62
1
 10
8.3158411E+001
 20
-3.5038121E+001
 11
8.3158411E+001
 21
-3.7925221E+001
  0
LINE
  8
106
  6
CENTERLINE
 62
1
 10
8.1759905E+001
 20
-3.6471455E+001
 11
8.4606909E+001
 21
-3.6471455E+001
  0
CIRCLE
  8
105
  6
HIDDEN
 62
1
 10
8.3158411E+001
 20
-3.6471455E+001
 40
1.0
  0
CIRCLE
  8
105
  6
HIDDEN
 62
1
 10
6.1558416E+001
 20
-4.3471455E+001
 40
1.0
  0
LINE
  8
99
  6
CONTINUOUS
 62
1
 10
9.3558408E+001
 20
-4.497202E+001
 11
9.3558408E+001
 21
-3.331667E+001
  0
LINE
  8
106
  6
CENTERLINE
 62
1
 10
9.4770216E+001
 20
-3.4871449E+001
 11
9.2037565E+001
 21
-3.4871449E+001
  0
LINE
  8
106
  6
CENTERLINE
 62
1
 10
6.0346609E+001
 20
-4.3471455E+001
 11
6.307926E+001
 21
-4.3471455E+001
  0
LINE
  8
106
  6
CENTERLINE
 62
1
 10
6.1558416E+001
 20
-4.497202E+001
 11
6.1558416E+001
 21
-3.3373509E+001
  0
LINE
  8
106
  6
CENTERLINE
 62
1
 10
6.0346609E+001
 20
-4.027145E+001
 11
6.307926E+001
 21
-4.027145E+001
  0
LINE
  8
106
  6
CENTERLINE
 62
1
 10
6.0346609E+001
 20
-3.8071453E+001
 11
6.307926E+001
 21
-3.8071453E+001
  0
LINE
  8
106
  6
CENTERLINE
 62
1
 10
6.0346609E+001
 20
-3.4871449E+001
 11
6.307926E+001
 21
-3.4871449E+001
  0
LINE
  8
106
  6
CENTERLINE
 62
1
 10
9.4770216E+001
 20
-4.3471455E+001
 11
9.2037565E+001
 21
-4.3471455E+001
  0
LINE
  8
106
  6
CENTERLINE
 62
1
 10
9.4770216E+001
 20
-4.027145E+001
 11
9.2037565E+001
 21
-4.027145E+001
  0
LINE
  8
106
  6
CENTERLINE
 62
1
 10
9.4770216E+001
 20
-3.8071453E+001
 11
9.2037565E+001
 21
-3.8071453E+001
  0
CIRCLE
  8
105
  6
HIDDEN
 62
1
 10
6.1558416E+001
 20
-4.027145E+001
 40
1.0
  0
CIRCLE
  8
105
  6
HIDDEN
 62
1
 10
6.1558416E+001
 20
-3.8071453E+001
 40
1.0
  0
CIRCLE
  8
105
  6
HIDDEN
 62
1
 10
6.1558416E+001
 20
-3.4871449E+001
 40
1.0
  0
CIRCLE
  8
105
  6
HIDDEN
 62
1
 10
9.3558408E+001
 20
-4.3471455E+001
 40
1.0
  0
CIRCLE
  8
105
  6
HIDDEN
 62
1
 10
9.3558408E+001
 20
-4.027145E+001
 40
1.0
  0
CIRCLE
  8
105
  6
HIDDEN
 62
1
 10
9.3558408E+001
 20
-3.8071453E+001
 40
1.0
  0
LINE
  8
104
  6
CONTINUOUS
 62
40
 10
1.0295841E+002
 20
-4.4621449E+001
 11
1.0305841E+002
 21
-4.4621449E+001
  0
LINE
  8
104
  6
CONTINUOUS
 62
40
 10
1.0305841E+002
 20
-4.4621449E+001
 11
1.0465841E+002
 21
-4.4621449E+001
  0
ARC
  8
104
  6
CONTINUOUS
 62
40
 10
1.046584E+002
 20
-4.4221444E+001
 40
4.0000522E-001
 50
2.7000089E+002
 51
3.5999838E+002
  0
LINE
  8
104
  6
CONTINUOUS
 62
40
 10
1.0505841E+002
 20
-4.4221455E+001
 11
1.0505841E+002
 21
-3.302145E+001
  0
ARC
  8
104
  6
CONTINUOUS
 62
40
 10
1.0465841E+002
 20
-3.3021447E+001
 40
3.9999774E-001
 50
3.5999946E+002
 51
4.5000018E+002
  0
LINE
  8
104
  6
CONTINUOUS
 62
40
 10
1.0465841E+002
 20
-3.2621449E+001
 11
1.0305841E+002
 21
-3.2621449E+001
  0
LINE
  8
104
  6
CONTINUOUS
 62
40
 10
1.0305841E+002
 20
-3.2621449E+001
 11
1.0295841E+002
 21
-3.2621449E+001
  0
LINE
  8
104
  6
CONTINUOUS
 62
40
 10
1.0295841E+002
 20
-3.2621449E+001
 11
5.2158415E+001
 21
-3.2621449E+001
  0
LINE
  8
104
  6
CONTINUOUS
 62
40
 10
5.2158415E+001
 20
-3.2621449E+001
 11
5.2058416E+001
 21
-3.2621449E+001
  0
LINE
  8
104
  6
CONTINUOUS
 62
40
 10
5.2058416E+001
 20
-3.2621449E+001
 11
5.0458418E+001
 21
-3.2621449E+001
  0
ARC
  8
104
  6
CONTINUOUS
 62
40
 10
5.0461585E+001
 20
-3.3024605E+001
 40
4.0316907E-001
 50
9.0450088E+001
 51
1.7999724E+002
  0
LINE
  8
104
  6
CONTINUOUS
 62
40
 10
5.0058416E+001
 20
-3.3024586E+001
 11
5.0058416E+001
 21
-4.4221455E+001
  0
ARC
  8
104
  6
CONTINUOUS
 62
40
 10
5.0458412E+001
 20
-4.4221453E+001
 40
3.9999564E-001
 50
1.8000025E+002
 51
2.7000091E+002
  0
LINE
  8
104
  6
CONTINUOUS
 62
40
 10
5.0458418E+001
 20
-4.4621449E+001
 11
5.2058416E+001
 21
-4.4621449E+001
  0
LINE
  8
104
  6
CONTINUOUS
 62
40
 10
5.2058416E+001
 20
-4.4621449E+001
 11
5.2158415E+001
 21
-4.4621449E+001
  0
LINE
  8
104
  6
CONTINUOUS
 62
40
 10
5.2158415E+001
 20
-4.4621449E+001
 11
1.0295841E+002
 21
-4.4621449E+001
  0
LINE
  8
104
  6
CONTINUOUS
 62
40
 10
5.2058416E+001
 20
-3.2621449E+001
 11
5.2058416E+001
 21
-4.452145E+001
  0
LINE
  8
104
  6
CONTINUOUS
 62
40
 10
5.2058416E+001
 20
-4.452145E+001
 11
5.2058416E+001
 21
-4.4621449E+001
  0
LINE
  8
104
  6
CONTINUOUS
 62
40
 10
1.0305841E+002
 20
-4.4621449E+001
 11
1.0305841E+002
 21
-3.2621449E+001
  0
LINE
  8
106
  6
CENTERLINE
 62
1
 10
9.3558408E+001
 20
-4.497202E+001
 11
9.3558408E+001
 21
-3.8766941E+001
  0
LINE
  8
106
  6
CENTERLINE
 62
1
 10
9.3558408E+001
 20
-3.8766941E+001
 11
9.3558408E+001
 21
-3.402879E+001
  0
LINE
  8
106
  6
CENTERLINE
 62
1
 10
6.1558416E+001
 20
-4.497202E+001
 11
6.1558416E+001
 21
-3.8575032E+001
  0
LINE
  8
106
  6
CENTERLINE
 62
1
 10
6.1558416E+001
 20
-3.8575032E+001
 11
6.1558416E+001
 21
-3.3920452E+001
  0
CIRCLE
  8
99
  6
CONTINUOUS
 62
1
 10
1.4752965E+001
 20
2.5598845E+001
 40
5.99998E-001
  0
LINE
  8
106
  6
CENTERLINE
 62
1
 10
1.3552964E+001
 20
2.5598845E+001
 11
1.5828568E+001
 21
2.5598845E+001
  0
LINE
  8
106
  6
CENTERLINE
 62
1
 10
1.4752965E+001
 20
2.6571769E+001
 11
1.4752965E+001
 21
2.4500007E+001
  0
CIRCLE
  8
99
  6
CONTINUOUS
 62
1
 10
1.0035297E+002
 20
2.5596129E+001
 40
5.99999E-001
  0
LINE
  8
104
  6
CONTINUOUS
 62
40
 10
1.0155296E+002
 20
2.9596122E+001
 11
1.0405296E+002
 21
2.9596122E+001
  0
LINE
  8
104
  6
CONTINUOUS
 62
40
 10
1.0405296E+002
 20
2.9596122E+001
 11
1.0405296E+002
 21
2.3596129E+001
  0
LINE
  8
104
  6
CONTINUOUS
 62
40
 10
1.0405296E+002
 20
2.3596129E+001
 11
1.0155296E+002
 21
2.3596129E+001
  0
LINE
  8
104
  6
CONTINUOUS
 62
40
 10
1.0155296E+002
 20
2.3596129E+001
 11
1.3552964E+001
 21
2.3596129E+001
  0
LINE
  8
104
  6
CONTINUOUS
 62
40
 10
1.3552964E+001
 20
2.3596129E+001
 11
1.3552972E+001
 21
2.9596122E+001
  0
LINE
  8
104
  6
CONTINUOUS
 62
40
 10
1.3552972E+001
 20
2.9596122E+001
 11
1.0155296E+002
 21
2.9596122E+001
  0
LINE
  8
104
  6
CONTINUOUS
 62
40
 10
1.0155296E+002
 20
2.9596122E+001
 11
1.0155296E+002
 21
2.3596129E+001
  0
LINE
  8
104
  6
CONTINUOUS
 62
40
 10
1.1052964E+001
 20
2.3596129E+001
 11
1.3552964E+001
 21
2.3596129E+001
  0
LINE
  8
104
  6
CONTINUOUS
 62
40
 10
1.3552964E+001
 20
2.3596129E+001
 11
1.3552972E+001
 21
2.9596122E+001
  0
LINE
  8
104
  6
CONTINUOUS
 62
40
 10
1.3552972E+001
 20
2.9596122E+001
 11
1.1052964E+001
 21
2.9596122E+001
  0
LINE
  8
104
  6
CONTINUOUS
 62
40
 10
1.1052964E+001
 20
2.9596122E+001
 11
1.1052964E+001
 21
2.3596129E+001
  0
LINE
  8
99
  6
CONTINUOUS
 62
1
 10
9.8745332E+001
 20
2.5596129E+001
 11
1.0199906E+002
 21
2.5596129E+001
  0
LINE
  8
99
  6
CONTINUOUS
 62
1
 10
1.0035297E+002
 20
2.7080871E+001
 11
1.0035297E+002
 21
2.418505E+001
  0
LINE
  8
104
  6
CONTINUOUS
 62
40
 10
1.8752972E+001
 20
2.2896132E+001
 11
1.8752972E+001
 21
2.2996131E+001
  0
ARC
  8
104
  6
CONTINUOUS
 62
40
 10
1.8852976E+001
 20
2.2996125E+001
 40
1.0000382E-001
 50
8.9998178E+001
 51
1.7999667E+002
  0
LINE
  8
104
  6
CONTINUOUS
 62
40
 10
1.8852979E+001
 20
2.3096129E+001
 11
2.0652974E+001
 21
2.3096129E+001
  0
ARC
  8
104
  6
CONTINUOUS
 62
40
 10
2.0652977E+001
 20
2.2996134E+001
 40
9.9995422E-002
 50
3.5999852E+002
 51
4.5000148E+002
  0
LINE
  8
104
  6
CONTINUOUS
 62
40
 10
2.0752972E+001
 20
2.2996131E+001
 11
2.0752972E+001
 21
2.2896132E+001
  0
LINE
  8
104
  6
CONTINUOUS
 62
40
 10
1.7552975E+001
 20
2.0246131E+001
 11
1.7552975E+001
 21
2.1896132E+001
  0
LINE
  8
104
  6
CONTINUOUS
 62
40
 10
1.7552975E+001
 20
2.1896132E+001
 11
2.1952977E+001
 21
2.1896132E+001
  0
LINE
  8
104
  6
CONTINUOUS
 62
40
 10
2.1952977E+001
 20
2.1896132E+001
 11
2.1952977E+001
 21
2.0246131E+001
  0
LINE
  8
104
  6
CONTINUOUS
 62
40
 10
1.8597974E+001
 20
1.8996131E+001
 11
1.8532979E+001
 21
1.8996131E+001
  0
LINE
  8
104
  6
CONTINUOUS
 62
40
 10
1.9102979E+001
 20
2.1896132E+001
 11
2.0402974E+001
 21
2.1896132E+001
  0
LINE
  8
104
  6
CONTINUOUS
 62
40
 10
9.6452966E+001
 20
2.3596129E+001
 11
9.6452966E+001
 21
2.3096129E+001
  0
LINE
  8
104
  6
CONTINUOUS
 62
40
 10
9.6452966E+001
 20
2.3096129E+001
 11
9.3052964E+001
 21
2.3096129E+001
  0
LINE
  8
104
  6
CONTINUOUS
 62
40
 10
9.3052964E+001
 20
2.3096129E+001
 11
9.3052964E+001
 21
2.3596129E+001
  0
LINE
  8
104
  6
CONTINUOUS
 62
40
 10
9.3752969E+001
 20
2.3096129E+001
 11
9.3752969E+001
 21
2.2896132E+001
  0
LINE
  8
104
  6
CONTINUOUS
 62
40
 10
9.5752969E+001
 20
2.3096129E+001
 11
9.5752969E+001
 21
2.2896132E+001
  0
LINE
  8
104
  6
CONTINUOUS
 62
40
 10
9.3455964E+001
 20
2.1896132E+001
 11
9.3455964E+001
 21
2.1796126E+001
  0
ARC
  8
104
  6
CONTINUOUS
 62
40
 10
9.3555967E+001
 20
2.1796131E+001
 40
1.0000318E-001
 50
1.8000297E+002
 51
2.6999703E+002
  0
LINE
  8
104
  6
CONTINUOUS
 62
40
 10
9.3555962E+001
 20
2.1696128E+001
 11
9.594996E+001
 21
2.1696128E+001
  0
ARC
  8
104
  6
CONTINUOUS
 62
40
 10
9.5949962E+001
 20
2.1796124E+001
 40
9.9995886E-002
 50
2.6999879E+002
 51
3.6000121E+002
  0
LINE
  8
104
  6
CONTINUOUS
 62
40
 10
9.6049958E+001
 20
2.1796126E+001
 11
9.6049958E+001
 21
2.1896132E+001
  0
LINE
  8
104
  6
CONTINUOUS
 62
40
 10
9.6049958E+001
 20
2.1896132E+001
 11
9.3455964E+001
 21
2.1896132E+001
  0
LINE
  8
99
  6
CONTINUOUS
 62
1
 10
9.4752961E+001
 20
2.1487609E+001
 11
9.4752961E+001
 21
2.4236182E+001
  0
LINE
  8
104
  6
CONTINUOUS
 62
40
 10
1.857298E+001
 20
2.1896132E+001
 11
2.0932973E+001
 21
2.1896132E+001
  0
LINE
  8
104
  6
CONTINUOUS
 62
40
 10
9.6126176E+001
 20
2.2896132E+001
 11
9.5747956E+001
 21
2.2896132E+001
  0
LINE
  8
104
  6
CONTINUOUS
 62
40
 10
9.3757966E+001
 20
2.2896132E+001
 11
9.3379754E+001
 21
2.2896132E+001
  0
LINE
  8
104
  6
CONTINUOUS
 62
40
 10
9.5952966E+001
 20
2.1896132E+001
 11
9.5747956E+001
 21
2.1896132E+001
  0
LINE
  8
104
  6
CONTINUOUS
 62
40
 10
9.3757966E+001
 20
2.1896132E+001
 11
9.3552964E+001
 21
2.1896132E+001
  0
LINE
  8
104
  6
CONTINUOUS
 62
40
 10
9.6952966E+001
 20
2.1896132E+001
 11
9.6952966E+001
 21
2.2896132E+001
  0
LINE
  8
104
  6
CONTINUOUS
 62
40
 10
9.6952966E+001
 20
2.2896132E+001
 11
9.3379754E+001
 21
2.2896132E+001
  0
LINE
  8
104
  6
CONTINUOUS
 62
40
 10
9.3379754E+001
 20
2.2896132E+001
 11
2.0932973E+001
 21
2.2896132E+001
  0
LINE
  8
104
  6
CONTINUOUS
 62
40
 10
2.0932973E+001
 20
2.2896132E+001
 11
1.7552975E+001
 21
2.2896132E+001
  0
LINE
  8
104
  6
CONTINUOUS
 62
40
 10
1.7552975E+001
 20
2.2896132E+001
 11
1.7552975E+001
 21
2.1896132E+001
  0
LINE
  8
104
  6
CONTINUOUS
 62
40
 10
1.7552975E+001
 20
2.1896132E+001
 11
9.6952966E+001
 21
2.1896132E+001
  0
LINE
  8
106
  6
CENTERLINE
 62
1
 10
1.9752972E+001
 20
2.3455352E+001
 11
1.9752972E+001
 21
1.8787703E+001
  0
CIRCLE
  8
105
  6
HIDDEN
 62
1
 10
1.3152974E+001
 20
1.7996138E+001
 40
1.0
  0
CIRCLE
  8
105
  6
HIDDEN
 62
1
 10
3.4752969E+001
 20
1.6396132E+001
 40
1.0
  0
LINE
  8
106
  6
CENTERLINE
 62
1
 10
3.4752969E+001
 20
1.7829467E+001
 11
3.4752969E+001
 21
1.4942367E+001
  0
LINE
  8
106
  6
CENTERLINE
 62
1
 10
3.6151475E+001
 20
1.6396132E+001
 11
3.3304471E+001
 21
1.6396132E+001
  0
LINE
  8
106
  6
CENTERLINE
 62
1
 10
2.3552972E+001
 20
1.7829467E+001
 11
2.3552972E+001
 21
1.4942367E+001
  0
LINE
  8
106
  6
CENTERLINE
 62
1
 10
2.4951478E+001
 20
1.6396132E+001
 11
2.2104474E+001
 21
1.6396132E+001
  0
CIRCLE
  8
105
  6
HIDDEN
 62
1
 10
2.3552972E+001
 20
1.6396132E+001
 40
1.0
  0
CIRCLE
  8
105
  6
HIDDEN
 62
1
 10
4.5152966E+001
 20
9.396132
 40
1.0
  0
LINE
  8
99
  6
CONTINUOUS
 62
1
 10
1.3152974E+001
 20
7.895568
 11
1.3152974E+001
 21
1.9550918E+001
  0
LINE
  8
106
  6
CENTERLINE
 62
1
 10
1.1941167E+001
 20
1.7996138E+001
 11
1.4673817E+001
 21
1.7996138E+001
  0
LINE
  8
106
  6
CENTERLINE
 62
1
 10
4.6364774E+001
 20
9.396132
 11
4.3632123E+001
 21
9.396132
  0
LINE
  8
106
  6
CENTERLINE
 62
1
 10
4.5152966E+001
 20
7.895568
 11
4.5152966E+001
 21
1.9494079E+001
  0
LINE
  8
106
  6
CENTERLINE
 62
1
 10
4.6364774E+001
 20
1.2596137E+001
 11
4.3632123E+001
 21
1.2596137E+001
  0
LINE
  8
106
  6
CENTERLINE
 62
1
 10
4.6364774E+001
 20
1.4796134E+001
 11
4.3632123E+001
 21
1.4796134E+001
  0
LINE
  8
106
  6
CENTERLINE
 62
1
 10
4.6364774E+001
 20
1.7996138E+001
 11
4.3632123E+001
 21
1.7996138E+001
  0
LINE
  8
106
  6
CENTERLINE
 62
1
 10
1.1941167E+001
 20
9.396132
 11
1.4673817E+001
 21
9.396132
  0
LINE
  8
106
  6
CENTERLINE
 62
1
 10
1.1941167E+001
 20
1.2596137E+001
 11
1.4673817E+001
 21
1.2596137E+001
  0
LINE
  8
106
  6
CENTERLINE
 62
1
 10
1.1941167E+001
 20
1.4796134E+001
 11
1.4673817E+001
 21
1.4796134E+001
  0
CIRCLE
  8
105
  6
HIDDEN
 62
1
 10
4.5152966E+001
 20
1.2596137E+001
 40
1.0
  0
CIRCLE
  8
105
  6
HIDDEN
 62
1
 10
4.5152966E+001
 20
1.4796134E+001
 40
1.0
  0
CIRCLE
  8
105
  6
HIDDEN
 62
1
 10
4.5152966E+001
 20
1.7996138E+001
 40
1.0
  0
CIRCLE
  8
105
  6
HIDDEN
 62
1
 10
1.3152974E+001
 20
9.396132
 40
1.0
  0
CIRCLE
  8
105
  6
HIDDEN
 62
1
 10
1.3152974E+001
 20
1.2596137E+001
 40
1.0
  0
CIRCLE
  8
105
  6
HIDDEN
 62
1
 10
1.3152974E+001
 20
1.4796134E+001
 40
1.0
  0
LINE
  8
104
  6
CONTINUOUS
 62
40
 10
3.752972
 20
8.246138
 11
3.652974
 21
8.246138
  0
LINE
  8
104
  6
CONTINUOUS
 62
40
 10
3.652974
 20
8.246138
 11
2.052974
 21
8.246138
  0
ARC
  8
104
  6
CONTINUOUS
 62
40
 10
2.0529791
 20
8.6461431
 40
4.0000512E-001
 50
1.8000159E+002
 51
2.6999927E+002
  0
LINE
  8
104
  6
CONTINUOUS
 62
40
 10
1.652974
 20
8.646132
 11
1.652974
 21
1.9846137E+001
  0
ARC
  8
104
  6
CONTINUOUS
 62
40
 10
2.0529718
 20
1.984614E+001
 40
3.9999784E-001
 50
8.9999691E+001
 51
1.8000045E+002
  0
LINE
  8
104
  6
CONTINUOUS
 62
40
 10
2.052974
 20
2.0246138E+001
 11
3.652974
 21
2.0246138E+001
  0
LINE
  8
104
  6
CONTINUOUS
 62
40
 10
3.652974
 20
2.0246138E+001
 11
3.752972
 21
2.0246138E+001
  0
LINE
  8
104
  6
CONTINUOUS
 62
40
 10
3.752972
 20
2.0246138E+001
 11
5.4552968E+001
 21
2.0246138E+001
  0
LINE
  8
104
  6
CONTINUOUS
 62
40
 10
5.4552968E+001
 20
2.0246138E+001
 11
5.4652966E+001
 21
2.0246138E+001
  0
LINE
  8
104
  6
CONTINUOUS
 62
40
 10
5.4652966E+001
 20
2.0246138E+001
 11
5.6252965E+001
 21
2.0246138E+001
  0
ARC
  8
104
  6
CONTINUOUS
 62
40
 10
5.6249798E+001
 20
1.9842982E+001
 40
4.0316797E-001
 50
2.6328994E-003
 51
8.9549926E+001
  0
LINE
  8
104
  6
CONTINUOUS
 62
40
 10
5.6652966E+001
 20
1.9843001E+001
 11
5.6652966E+001
 21
8.646132
  0
ARC
  8
104
  6
CONTINUOUS
 62
40
 10
5.6252971E+001
 20
8.6461332
 40
3.999952E-001
 50
2.6999917E+002
 51
3.5999983E+002
  0
LINE
  8
104
  6
CONTINUOUS
 62
40
 10
5.6252965E+001
 20
8.246138
 11
5.4652966E+001
 21
8.246138
  0
LINE
  8
104
  6
CONTINUOUS
 62
40
 10
5.4652966E+001
 20
8.246138
 11
5.4552968E+001
 21
8.246138
  0
LINE
  8
104
  6
CONTINUOUS
 62
40
 10
5.4552968E+001
 20
8.246138
 11
3.752972
 21
8.246138
  0
LINE
  8
104
  6
CONTINUOUS
 62
40
 10
5.4652966E+001
 20
2.0246138E+001
 11
5.4652966E+001
 21
8.346137
  0
LINE
  8
104
  6
CONTINUOUS
 62
40
 10
5.4652966E+001
 20
8.346137
 11
5.4652966E+001
 21
8.246138
  0
LINE
  8
104
  6
CONTINUOUS
 62
40
 10
3.652974
 20
8.246138
 11
3.652974
 21
2.0246138E+001
  0
LINE
  8
106
  6
CENTERLINE
 62
1
 10
1.3152974E+001
 20
7.895568
 11
1.3152974E+001
 21
1.4100646E+001
  0
LINE
  8
106
  6
CENTERLINE
 62
1
 10
1.3152974E+001
 20
1.4100646E+001
 11
1.3152974E+001
 21
1.8838797E+001
  0
LINE
  8
106
  6
CENTERLINE
 62
1
 10
4.5152966E+001
 20
7.895568
 11
4.5152966E+001
 21
1.4292556E+001
  0
LINE
  8
106
  6
CENTERLINE
 62
1
 10
4.5152966E+001
 20
1.4292556E+001
 11
4.5152966E+001
 21
1.8947135E+001
  0
LINE
  8
106
  6
CENTERLINE
 62
1
 10
-1.0098124E+002
 20
2.3455359E+001
 11
-1.0098124E+002
 21
1.8787703E+001
  0
CIRCLE
  8
105
  6
HIDDEN
 62
1
 10
-1.0758124E+002
 20
1.7996138E+001
 40
1.0
  0
CIRCLE
  8
105
  6
HIDDEN
 62
1
 10
-8.5981239E+001
 20
1.639614E+001
 40
1.0
  0
LINE
  8
106
  6
CENTERLINE
 62
1
 10
-8.5981239E+001
 20
1.7829466E+001
 11
-8.5981239E+001
 21
1.4942366E+001
  0
LINE
  8
106
  6
CENTERLINE
 62
1
 10
-8.4582737E+001
 20
1.639614E+001
 11
-8.7429741E+001
 21
1.639614E+001
  0
LINE
  8
106
  6
CENTERLINE
 62
1
 10
-9.7181236E+001
 20
1.7829466E+001
 11
-9.7181236E+001
 21
1.4942366E+001
  0
LINE
  8
106
  6
CENTERLINE
 62
1
 10
-9.5782734E+001
 20
1.639614E+001
 11
-9.8629738E+001
 21
1.639614E+001
  0
CIRCLE
  8
105
  6
HIDDEN
 62
1
 10
-9.7181236E+001
 20
1.639614E+001
 40
1.0
  0
CIRCLE
  8
105
  6
HIDDEN
 62
1
 10
-7.5581241E+001
 20
9.39614
 40
1.0
  0
LINE
  8
99
  6
CONTINUOUS
 62
1
 10
-1.0758124E+002
 20
7.895575
 11
-1.0758124E+002
 21
1.9550917E+001
  0
LINE
  8
106
  6
CENTERLINE
 62
1
 10
-1.0879304E+002
 20
1.7996138E+001
 11
-1.0606039E+002
 21
1.7996138E+001
  0
LINE
  8
106
  6
CENTERLINE
 62
1
 10
-7.4369438E+001
 20
9.39614
 11
-7.7102085E+001
 21
9.39614
  0
LINE
  8
106
  6
CENTERLINE
 62
1
 10
-7.5581245E+001
 20
7.895575
 11
-7.5581245E+001
 21
1.9494086E+001
  0
LINE
  8
106
  6
CENTERLINE
 62
1
 10
-7.4369438E+001
 20
1.2596144E+001
 11
-7.7102085E+001
 21
1.2596144E+001
  0
LINE
  8
106
  6
CENTERLINE
 62
1
 10
-7.4369438E+001
 20
1.4796141E+001
 11
-7.7102085E+001
 21
1.4796141E+001
  0
LINE
  8
106
  6
CENTERLINE
 62
1
 10
-7.4369438E+001
 20
1.7996138E+001
 11
-7.7102085E+001
 21
1.7996138E+001
  0
LINE
  8
106
  6
CENTERLINE
 62
1
 10
-1.0879304E+002
 20
9.39614
 11
-1.0606039E+002
 21
9.39614
  0
LINE
  8
106
  6
CENTERLINE
 62
1
 10
-1.0879304E+002
 20
1.2596144E+001
 11
-1.0606039E+002
 21
1.2596144E+001
  0
LINE
  8
106
  6
CENTERLINE
 62
1
 10
-1.0879304E+002
 20
1.4796141E+001
 11
-1.0606039E+002
 21
1.4796141E+001
  0
CIRCLE
  8
105
  6
HIDDEN
 62
1
 10
-7.5581241E+001
 20
1.2596144E+001
 40
1.0
  0
CIRCLE
  8
105
  6
HIDDEN
 62
1
 10
-7.5581241E+001
 20
1.4796141E+001
 40
1.0
  0
CIRCLE
  8
105
  6
HIDDEN
 62
1
 10
-7.5581241E+001
 20
1.7996138E+001
 40
1.0
  0
CIRCLE
  8
105
  6
HIDDEN
 62
1
 10
-1.0758124E+002
 20
9.39614
 40
1.0
  0
CIRCLE
  8
105
  6
HIDDEN
 62
1
 10
-1.0758124E+002
 20
1.2596144E+001
 40
1.0
  0
CIRCLE
  8
105
  6
HIDDEN
 62
1
 10
-1.0758124E+002
 20
1.4796141E+001
 40
1.0
  0
LINE
  8
104
  6
CONTINUOUS
 62
40
 10
-1.1698124E+002
 20
8.246138
 11
-1.1708123E+002
 21
8.246138
  0
LINE
  8
104
  6
CONTINUOUS
 62
40
 10
-1.1708123E+002
 20
8.246138
 11
-1.1868123E+002
 21
8.246138
  0
ARC
  8
104
  6
CONTINUOUS
 62
40
 10
-1.1868123E+002
 20
8.6461392
 40
4.0000118E-001
 50
1.7999988E+002
 51
2.6999979E+002
  0
LINE
  8
104
  6
CONTINUOUS
 62
40
 10
-1.1908123E+002
 20
8.64614
 11
-1.1908123E+002
 21
1.9846144E+001
  0
ARC
  8
104
  6
CONTINUOUS
 62
40
 10
-1.1868123E+002
 20
1.9846139E+001
 40
3.9999917E-001
 50
8.9999924E+001
 51
1.7999926E+002
  0
LINE
  8
104
  6
CONTINUOUS
 62
40
 10
-1.1868123E+002
 20
2.0246138E+001
 11
-1.1708123E+002
 21
2.0246138E+001
  0
LINE
  8
104
  6
CONTINUOUS
 62
40
 10
-1.1708123E+002
 20
2.0246138E+001
 11
-1.1698124E+002
 21
2.0246138E+001
  0
LINE
  8
104
  6
CONTINUOUS
 62
40
 10
-1.1698124E+002
 20
2.0246138E+001
 11
-6.6181244E+001
 21
2.0246138E+001
  0
LINE
  8
104
  6
CONTINUOUS
 62
40
 10
-6.6181244E+001
 20
2.0246138E+001
 11
-6.6081245E+001
 21
2.0246138E+001
  0
LINE
  8
104
  6
CONTINUOUS
 62
40
 10
-6.6081245E+001
 20
2.0246138E+001
 11
-6.4481243E+001
 21
2.0246138E+001
  0
ARC
  8
104
  6
CONTINUOUS
 62
40
 10
-6.4484407E+001
 20
1.9842988E+001
 40
4.0316232E-001
 50
1.8331633E-003
 51
8.9550253E+001
  0
LINE
  8
104
  6
CONTINUOUS
 62
40
 10
-6.4081245E+001
 20
1.9843001E+001
 11
-6.4081245E+001
 21
8.64614
  0
ARC
  8
104
  6
CONTINUOUS
 62
40
 10
-6.4481236E+001
 20
8.6461294
 40
3.9999139E-001
 50
2.699991E+002
 51
3.6000152E+002
  0
LINE
  8
104
  6
CONTINUOUS
 62
40
 10
-6.4481243E+001
 20
8.246138
 11
-6.6081245E+001
 21
8.246138
  0
LINE
  8
104
  6
CONTINUOUS
 62
40
 10
-6.6081245E+001
 20
8.246138
 11
-6.6181244E+001
 21
8.246138
  0
LINE
  8
104
  6
CONTINUOUS
 62
40
 10
-6.6181244E+001
 20
8.246138
 11
-1.1698124E+002
 21
8.246138
  0
LINE
  8
104
  6
CONTINUOUS
 62
40
 10
-6.6081245E+001
 20
2.0246138E+001
 11
-6.6081245E+001
 21
8.346144
  0
LINE
  8
104
  6
CONTINUOUS
 62
40
 10
-6.6081245E+001
 20
8.346144
 11
-6.6081245E+001
 21
8.246138
  0
LINE
  8
104
  6
CONTINUOUS
 62
40
 10
-1.1708123E+002
 20
8.246138
 11
-1.1708123E+002
 21
2.0246138E+001
  0
LINE
  8
106
  6
CENTERLINE
 62
1
 10
-1.0758124E+002
 20
7.895575
 11
-1.0758124E+002
 21
1.4100653E+001
  0
LINE
  8
106
  6
CENTERLINE
 62
1
 10
-1.0758124E+002
 20
1.4100653E+001
 11
-1.0758124E+002
 21
1.8838805E+001
  0
LINE
  8
106
  6
CENTERLINE
 62
1
 10
-7.5581241E+001
 20
7.895575
 11
-7.5581241E+001
 21
1.4292555E+001
  0
LINE
  8
106
  6
CENTERLINE
 62
1
 10
-7.5581241E+001
 20
1.4292555E+001
 11
-7.5581241E+001
 21
1.8947142E+001
  0
LINE
  8
105
  6
HIDDEN
 62
1
 10
-1.0538124E+002
 20
2.6096137E+001
 11
-1.0538124E+002
 21
2.5096137E+001
  0
ARC
  8
105
  6
HIDDEN
 62
1
 10
-1.0598124E+002
 20
2.5096137E+001
 40
6.000004E-001
 50
1.8E+002
 51
3.6E+002
  0
LINE
  8
105
  6
HIDDEN
 62
1
 10
-1.0658124E+002
 20
2.5096137E+001
 11
-1.0658124E+002
 21
2.6096137E+001
  0
ARC
  8
105
  6
HIDDEN
 62
1
 10
-1.0598124E+002
 20
2.6096137E+001
 40
6.000004E-001
 50
0.0
 51
1.8E+002
  0
LINE
  8
104
  6
CONTINUOUS
 62
40
 10
-2.7681251E+001
 20
2.3596129E+001
 11
-2.7681251E+001
 21
2.3136137E+001
  0
LINE
  8
104
  6
CONTINUOUS
 62
40
 10
-2.7681251E+001
 20
2.3136137E+001
 11
-2.428125E+001
 21
2.3136137E+001
  0
LINE
  8
104
  6
CONTINUOUS
 62
40
 10
-2.428125E+001
 20
2.3136137E+001
 11
-2.428125E+001
 21
2.3596129E+001
  0
LINE
  8
104
  6
CONTINUOUS
 62
40
 10
-2.4776252E+001
 20
2.3155386E+001
 11
-2.4776252E+001
 21
2.3096137E+001
  0
LINE
  8
104
  6
CONTINUOUS
 62
40
 10
-2.4776252E+001
 20
2.3096137E+001
 11
-2.7186256E+001
 21
2.3096137E+001
  0
LINE
  8
104
  6
CONTINUOUS
 62
40
 10
-2.7186256E+001
 20
2.3096137E+001
 11
-2.7186256E+001
 21
2.3136137E+001
  0
LINE
  8
104
  6
CONTINUOUS
 62
40
 10
-2.6976249E+001
 20
2.3096137E+001
 11
-2.6976249E+001
 21
2.289614E+001
  0
LINE
  8
104
  6
CONTINUOUS
 62
40
 10
-2.4986259E+001
 20
2.3096137E+001
 11
-2.4986259E+001
 21
2.289614E+001
  0
LINE
  8
106
  6
CENTERLINE
 62
1
 10
-2.0378891E+001
 20
2.7010985E+001
 11
-2.0381645E+001
 21
2.4131171E+001
  0
LINE
  8
106
  6
CENTERLINE
 62
1
 10
-1.9331253E+001
 20
2.5596137E+001
 11
-2.1381248E+001
 21
2.5596137E+001
  0
LINE
  8
106
  6
CENTERLINE
 62
1
 10
-1.0598124E+002
 20
2.4163153E+001
 11
-1.0598124E+002
 21
2.6996489E+001
  0
LINE
  8
105
  6
HIDDEN
 62
1
 10
-1.978025E+001
 20
2.6096137E+001
 11
-1.978025E+001
 21
2.5096137E+001
  0
ARC
  8
105
  6
HIDDEN
 62
1
 10
-2.0380249E+001
 20
2.5096137E+001
 40
5.999985E-001
 50
1.8E+002
 51
3.6E+002
  0
LINE
  8
105
  6
HIDDEN
 62
1
 10
-2.0980247E+001
 20
2.5096137E+001
 11
-2.0980247E+001
 21
2.6096137E+001
  0
ARC
  8
105
  6
HIDDEN
 62
1
 10
-2.0380249E+001
 20
2.6096137E+001
 40
5.999985E-001
 50
0.0
 51
1.8E+002
  0
LINE
  8
106
  6
CENTERLINE
 62
1
 10
-1.0498124E+002
 20
2.5596137E+001
 11
-1.0703124E+002
 21
2.5596137E+001
  0
ARC
  8
104
  6
CONTINUOUS
 62
40
 10
-1.9230481E+001
 20
2.7396135E+001
 40
1.9999373E-001
 50
3.5999906E+002
 51
4.5000094E+002
  0
LINE
  8
104
  6
CONTINUOUS
 62
40
 10
-1.9030487E+001
 20
2.7396132E+001
 11
-1.9030487E+001
 21
2.3796133E+001
  0
ARC
  8
104
  6
CONTINUOUS
 62
40
 10
-1.9230485E+001
 20
2.3796127E+001
 40
1.9999752E-001
 50
2.7000015E+002
 51
3.6000186E+002
  0
LINE
  8
104
  6
CONTINUOUS
 62
40
 10
-1.9230484E+001
 20
2.3596129E+001
 11
-1.07132E+002
 21
2.3596129E+001
  0
ARC
  8
104
  6
CONTINUOUS
 62
40
 10
-1.07132E+002
 20
2.379613E+001
 40
2.0000089E-001
 50
1.7999911E+002
 51
2.7E+002
  0
LINE
  8
104
  6
CONTINUOUS
 62
40
 10
-1.07332E+002
 20
2.3796133E+001
 11
-1.07332E+002
 21
2.7596129E+001
  0
LINE
  8
104
  6
CONTINUOUS
 62
40
 10
-1.07332E+002
 20
2.7596129E+001
 11
-1.9230484E+001
 21
2.7596129E+001
  0
LINE
  8
104
  6
CONTINUOUS
 62
40
 10
-1.04932E+002
 20
2.7596129E+001
 11
-1.04932E+002
 21
2.3596137E+001
  0
LINE
  8
104
  6
CONTINUOUS
 62
40
 10
-2.1430496E+001
 20
2.7596129E+001
 11
-2.1430496E+001
 21
2.3596129E+001
  0
LINE
  8
104
  6
CONTINUOUS
 62
40
 10
-1.0198124E+002
 20
2.289614E+001
 11
-1.0198124E+002
 21
2.2996138E+001
  0
ARC
  8
104
  6
CONTINUOUS
 62
40
 10
-1.0188124E+002
 20
2.299614E+001
 40
9.9996548E-002
 50
8.9998881E+001
 51
1.8000141E+002
  0
LINE
  8
104
  6
CONTINUOUS
 62
40
 10
-1.0188124E+002
 20
2.3096137E+001
 11
-1.0008124E+002
 21
2.3096137E+001
  0
ARC
  8
104
  6
CONTINUOUS
 62
40
 10
-1.0008123E+002
 20
2.2996143E+001
 40
9.9993793E-002
 50
3.5999702E+002
 51
4.500027E+002
  0
LINE
  8
104
  6
CONTINUOUS
 62
40
 10
-9.9981239E+001
 20
2.2996138E+001
 11
-9.9981239E+001
 21
2.289614E+001
  0
LINE
  8
104
  6
CONTINUOUS
 62
40
 10
-1.0318124E+002
 20
2.0246138E+001
 11
-1.0318124E+002
 21
2.189614E+001
  0
LINE
  8
104
  6
CONTINUOUS
 62
40
 10
-1.0318124E+002
 20
2.189614E+001
 11
-9.8781238E+001
 21
2.189614E+001
  0
LINE
  8
104
  6
CONTINUOUS
 62
40
 10
-9.8781238E+001
 20
2.189614E+001
 11
-9.8781238E+001
 21
2.0246138E+001
  0
LINE
  8
104
  6
CONTINUOUS
 62
40
 10
-1.0213624E+002
 20
1.8996138E+001
 11
-1.0220124E+002
 21
1.8996138E+001
  0
LINE
  8
104
  6
CONTINUOUS
 62
40
 10
-1.0163124E+002
 20
2.189614E+001
 11
-1.0033124E+002
 21
2.189614E+001
  0
LINE
  8
104
  6
CONTINUOUS
 62
40
 10
-2.7278251E+001
 20
2.189614E+001
 11
-2.7278251E+001
 21
2.1796133E+001
  0
ARC
  8
104
  6
CONTINUOUS
 62
40
 10
-2.7178247E+001
 20
2.1796139E+001
 40
1.0000356E-001
 50
1.8000318E+002
 51
2.6999682E+002
  0
LINE
  8
104
  6
CONTINUOUS
 62
40
 10
-2.7178253E+001
 20
2.1696135E+001
 11
-2.4784256E+001
 21
2.1696135E+001
  0
ARC
  8
104
  6
CONTINUOUS
 62
40
 10
-2.4784256E+001
 20
2.1796134E+001
 40
9.999865E-002
 50
2.699998E+002
 51
3.5999963E+002
  0
LINE
  8
104
  6
CONTINUOUS
 62
40
 10
-2.4684257E+001
 20
2.1796133E+001
 11
-2.4684257E+001
 21
2.189614E+001
  0
LINE
  8
104
  6
CONTINUOUS
 62
40
 10
-2.4684257E+001
 20
2.189614E+001
 11
-2.7278251E+001
 21
2.189614E+001
  0
LINE
  8
106
  6
CENTERLINE
 62
1
 10
-2.5981254E+001
 20
2.1487616E+001
 11
-2.5981254E+001
 21
2.4236189E+001
  0
LINE
  8
104
  6
CONTINUOUS
 62
40
 10
-1.0216124E+002
 20
2.189614E+001
 11
-9.9801239E+001
 21
2.189614E+001
  0
LINE
  8
104
  6
CONTINUOUS
 62
40
 10
-2.460804E+001
 20
2.289614E+001
 11
-2.4986259E+001
 21
2.289614E+001
  0
LINE
  8
104
  6
CONTINUOUS
 62
40
 10
-2.6976249E+001
 20
2.289614E+001
 11
-2.7354469E+001
 21
2.289614E+001
  0
LINE
  8
104
  6
CONTINUOUS
 62
40
 10
-2.4781257E+001
 20
2.189614E+001
 11
-2.4986259E+001
 21
2.189614E+001
  0
LINE
  8
104
  6
CONTINUOUS
 62
40
 10
-2.6976249E+001
 20
2.189614E+001
 11
-2.7181259E+001
 21
2.189614E+001
  0
LINE
  8
104
  6
CONTINUOUS
 62
40
 10
-2.3781257E+001
 20
2.189614E+001
 11
-2.3781257E+001
 21
2.289614E+001
  0
LINE
  8
104
  6
CONTINUOUS
 62
40
 10
-2.3781257E+001
 20
2.289614E+001
 11
-2.7354469E+001
 21
2.289614E+001
  0
LINE
  8
104
  6
CONTINUOUS
 62
40
 10
-2.7354469E+001
 20
2.289614E+001
 11
-9.9801239E+001
 21
2.289614E+001
  0
LINE
  8
104
  6
CONTINUOUS
 62
40
 10
-9.9801239E+001
 20
2.289614E+001
 11
-1.0318124E+002
 21
2.289614E+001
  0
LINE
  8
104
  6
CONTINUOUS
 62
40
 10
-1.0318124E+002
 20
2.289614E+001
 11
-1.0318124E+002
 21
2.189614E+001
  0
LINE
  8
104
  6
CONTINUOUS
 62
40
 10
-1.0318124E+002
 20
2.189614E+001
 11
-2.3781257E+001
 21
2.189614E+001
  0
LINE
  8
106
  6
CENTERLINE
 62
1
 10
-3.7130485E+001
 20
-2.9412228E+001
 11
-3.7130485E+001
 21
-3.4079884E+001
  0
CIRCLE
  8
105
  6
HIDDEN
 62
1
 10
-3.0530486E+001
 20
-3.4871449E+001
 40
1.0
  0
CIRCLE
  8
105
  6
HIDDEN
 62
1
 10
-5.2130485E+001
 20
-3.6471447E+001
 40
1.0
  0
LINE
  8
106
  6
CENTERLINE
 62
1
 10
-5.2130485E+001
 20
-3.5038121E+001
 11
-5.2130485E+001
 21
-3.7925221E+001
  0
LINE
  8
106
  6
CENTERLINE
 62
1
 10
-5.3528987E+001
 20
-3.6471447E+001
 11
-5.0681983E+001
 21
-3.6471447E+001
  0
LINE
  8
106
  6
CENTERLINE
 62
1
 10
-4.0930488E+001
 20
-3.5038121E+001
 11
-4.0930488E+001
 21
-3.7925221E+001
  0
LINE
  8
106
  6
CENTERLINE
 62
1
 10
-4.232899E+001
 20
-3.6471447E+001
 11
-3.9481986E+001
 21
-3.6471447E+001
  0
CIRCLE
  8
105
  6
HIDDEN
 62
1
 10
-4.0930488E+001
 20
-3.6471447E+001
 40
1.0
  0
CIRCLE
  8
105
  6
HIDDEN
 62
1
 10
-6.2530482E+001
 20
-4.3471447E+001
 40
1.0
  0
LINE
  8
99
  6
CONTINUOUS
 62
1
 10
-3.0530486E+001
 20
-4.4972012E+001
 11
-3.0530486E+001
 21
-3.331667E+001
  0
LINE
  8
106
  6
CENTERLINE
 62
1
 10
-2.9318683E+001
 20
-3.4871449E+001
 11
-3.205133E+001
 21
-3.4871449E+001
  0
LINE
  8
106
  6
CENTERLINE
 62
1
 10
-6.3742286E+001
 20
-4.3471447E+001
 11
-6.1009639E+001
 21
-4.3471447E+001
  0
LINE
  8
106
  6
CENTERLINE
 62
1
 10
-6.2530479E+001
 20
-4.4972012E+001
 11
-6.2530479E+001
 21
-3.3373501E+001
  0
LINE
  8
106
  6
CENTERLINE
 62
1
 10
-6.3742286E+001
 20
-4.0271443E+001
 11
-6.1009639E+001
 21
-4.0271443E+001
  0
LINE
  8
106
  6
CENTERLINE
 62
1
 10
-6.3742286E+001
 20
-3.8071446E+001
 11
-6.1009639E+001
 21
-3.8071446E+001
  0
LINE
  8
106
  6
CENTERLINE
 62
1
 10
-6.3742286E+001
 20
-3.4871449E+001
 11
-6.1009639E+001
 21
-3.4871449E+001
  0
LINE
  8
106
  6
CENTERLINE
 62
1
 10
-2.9318683E+001
 20
-4.3471447E+001
 11
-3.205133E+001
 21
-4.3471447E+001
  0
LINE
  8
106
  6
CENTERLINE
 62
1
 10
-2.9318683E+001
 20
-4.0271443E+001
 11
-3.205133E+001
 21
-4.0271443E+001
  0
LINE
  8
106
  6
CENTERLINE
 62
1
 10
-2.9318683E+001
 20
-3.8071446E+001
 11
-3.205133E+001
 21
-3.8071446E+001
  0
CIRCLE
  8
105
  6
HIDDEN
 62
1
 10
-6.2530482E+001
 20
-4.0271443E+001
 40
1.0
  0
CIRCLE
  8
105
  6
HIDDEN
 62
1
 10
-6.2530482E+001
 20
-3.8071446E+001
 40
1.0
  0
CIRCLE
  8
105
  6
HIDDEN
 62
1
 10
-6.2530482E+001
 20
-3.4871449E+001
 40
1.0
  0
CIRCLE
  8
105
  6
HIDDEN
 62
1
 10
-3.0530486E+001
 20
-4.3471447E+001
 40
1.0
  0
CIRCLE
  8
105
  6
HIDDEN
 62
1
 10
-3.0530486E+001
 20
-4.0271443E+001
 40
1.0
  0
CIRCLE
  8
105
  6
HIDDEN
 62
1
 10
-3.0530486E+001
 20
-3.8071446E+001
 40
1.0
  0
LINE
  8
104
  6
CONTINUOUS
 62
40
 10
-2.1130489E+001
 20
-4.4621449E+001
 11
-2.103049E+001
 21
-4.4621449E+001
  0
LINE
  8
104
  6
CONTINUOUS
 62
40
 10
-2.103049E+001
 20
-4.4621449E+001
 11
-1.943049E+001
 21
-4.4621449E+001
  0
ARC
  8
104
  6
CONTINUOUS
 62
40
 10
-1.9430491E+001
 20
-4.4221448E+001
 40
4.0000108E-001
 50
2.7000016E+002
 51
3.6000006E+002
  0
LINE
  8
104
  6
CONTINUOUS
 62
40
 10
-1.903049E+001
 20
-4.4221447E+001
 11
-1.903049E+001
 21
-3.3021443E+001
  0
ARC
  8
104
  6
CONTINUOUS
 62
40
 10
-1.9430489E+001
 20
-3.3021448E+001
 40
3.9999926E-001
 50
7.678659E-004
 51
9.0000106E+001
  0
LINE
  8
104
  6
CONTINUOUS
 62
40
 10
-1.943049E+001
 20
-3.2621449E+001
 11
-2.103049E+001
 21
-3.2621449E+001
  0
LINE
  8
104
  6
CONTINUOUS
 62
40
 10
-2.103049E+001
 20
-3.2621449E+001
 11
-2.1130489E+001
 21
-3.2621449E+001
  0
LINE
  8
104
  6
CONTINUOUS
 62
40
 10
-2.1130489E+001
 20
-3.2621449E+001
 11
-7.193048E+001
 21
-3.2621449E+001
  0
LINE
  8
104
  6
CONTINUOUS
 62
40
 10
-7.193048E+001
 20
-3.2621449E+001
 11
-7.2030479E+001
 21
-3.2621449E+001
  0
LINE
  8
104
  6
CONTINUOUS
 62
40
 10
-7.2030479E+001
 20
-3.2621449E+001
 11
-7.3630481E+001
 21
-3.2621449E+001
  0
ARC
  8
104
  6
CONTINUOUS
 62
40
 10
-7.3627316E+001
 20
-3.3024599E+001
 40
4.0316252E-001
 50
9.0449776E+001
 51
1.7999817E+002
  0
LINE
  8
104
  6
CONTINUOUS
 62
40
 10
-7.4030479E+001
 20
-3.3024586E+001
 11
-7.4030479E+001
 21
-4.4221447E+001
  0
ARC
  8
104
  6
CONTINUOUS
 62
40
 10
-7.3630487E+001
 20
-4.4221458E+001
 40
3.9999113E-001
 50
1.7999852E+002
 51
2.7000094E+002
  0
LINE
  8
104
  6
CONTINUOUS
 62
40
 10
-7.3630481E+001
 20
-4.4621449E+001
 11
-7.2030479E+001
 21
-4.4621449E+001
  0
LINE
  8
104
  6
CONTINUOUS
 62
40
 10
-7.2030479E+001
 20
-4.4621449E+001
 11
-7.193048E+001
 21
-4.4621449E+001
  0
LINE
  8
104
  6
CONTINUOUS
 62
40
 10
-7.193048E+001
 20
-4.4621449E+001
 11
-2.1130489E+001
 21
-4.4621449E+001
  0
LINE
  8
104
  6
CONTINUOUS
 62
40
 10
-7.2030479E+001
 20
-3.2621449E+001
 11
-7.2030479E+001
 21
-4.4521443E+001
  0
LINE
  8
104
  6
CONTINUOUS
 62
40
 10
-7.2030479E+001
 20
-4.4521443E+001
 11
-7.2030479E+001
 21
-4.4621449E+001
  0
LINE
  8
104
  6
CONTINUOUS
 62
40
 10
-2.103049E+001
 20
-4.4621449E+001
 11
-2.103049E+001
 21
-3.2621449E+001
  0
LINE
  8
106
  6
CENTERLINE
 62
1
 10
-3.0530486E+001
 20
-4.4972012E+001
 11
-3.0530486E+001
 21
-3.8766934E+001
  0
LINE
  8
106
  6
CENTERLINE
 62
1
 10
-3.0530486E+001
 20
-3.8766934E+001
 11
-3.0530486E+001
 21
-3.4028782E+001
  0
LINE
  8
106
  6
CENTERLINE
 62
1
 10
-6.2530482E+001
 20
-4.4972012E+001
 11
-6.2530482E+001
 21
-3.8575032E+001
  0
LINE
  8
106
  6
CENTERLINE
 62
1
 10
-6.2530482E+001
 20
-3.8575032E+001
 11
-6.2530482E+001
 21
-3.3920445E+001
  0
LINE
  8
105
  6
HIDDEN
 62
1
 10
-3.2730483E+001
 20
-2.677145E+001
 11
-3.2730483E+001
 21
-2.777145E+001
  0
ARC
  8
105
  6
HIDDEN
 62
1
 10
-3.2130483E+001
 20
-2.777145E+001
 40
6.000004E-001
 50
1.8E+002
 51
3.6E+002
  0
LINE
  8
105
  6
HIDDEN
 62
1
 10
-3.1530482E+001
 20
-2.777145E+001
 11
-3.1530482E+001
 21
-2.677145E+001
  0
ARC
  8
105
  6
HIDDEN
 62
1
 10
-3.2130483E+001
 20
-2.677145E+001
 40
6.000004E-001
 50
0.0
 51
1.8E+002
  0
LINE
  8
104
  6
CONTINUOUS
 62
40
 10
-1.1043047E+002
 20
-2.9271458E+001
 11
-1.1043047E+002
 21
-2.973145E+001
  0
LINE
  8
104
  6
CONTINUOUS
 62
40
 10
-1.1043047E+002
 20
-2.973145E+001
 11
-1.1383047E+002
 21
-2.973145E+001
  0
LINE
  8
104
  6
CONTINUOUS
 62
40
 10
-1.1383047E+002
 20
-2.973145E+001
 11
-1.1383047E+002
 21
-2.9271458E+001
  0
LINE
  8
104
  6
CONTINUOUS
 62
40
 10
-1.1333547E+002
 20
-2.9712201E+001
 11
-1.1333547E+002
 21
-2.977145E+001
  0
LINE
  8
104
  6
CONTINUOUS
 62
40
 10
-1.1333547E+002
 20
-2.977145E+001
 11
-1.1092547E+002
 21
-2.977145E+001
  0
LINE
  8
104
  6
CONTINUOUS
 62
40
 10
-1.1092547E+002
 20
-2.977145E+001
 11
-1.1092547E+002
 21
-2.973145E+001
  0
LINE
  8
104
  6
CONTINUOUS
 62
40
 10
-1.1113547E+002
 20
-2.977145E+001
 11
-1.1113547E+002
 21
-2.9971447E+001
  0
LINE
  8
104
  6
CONTINUOUS
 62
40
 10
-1.1312546E+002
 20
-2.977145E+001
 11
-1.1312546E+002
 21
-2.9971447E+001
  0
LINE
  8
106
  6
CENTERLINE
 62
1
 10
-1.1773283E+002
 20
-2.5856602E+001
 11
-1.1773008E+002
 21
-2.8736416E+001
  0
LINE
  8
106
  6
CENTERLINE
 62
1
 10
-1.1878047E+002
 20
-2.727145E+001
 11
-1.1673048E+002
 21
-2.727145E+001
  0
LINE
  8
106
  6
CENTERLINE
 62
1
 10
-3.2130485E+001
 20
-2.8704434E+001
 11
-3.2130481E+001
 21
-2.5871098E+001
  0
LINE
  8
105
  6
HIDDEN
 62
1
 10
-1.1833147E+002
 20
-2.677145E+001
 11
-1.1833147E+002
 21
-2.777145E+001
  0
ARC
  8
105
  6
HIDDEN
 62
1
 10
-1.1773148E+002
 20
-2.777145E+001
 40
5.999985E-001
 50
1.8E+002
 51
3.6E+002
  0
LINE
  8
105
  6
HIDDEN
 62
1
 10
-1.1713148E+002
 20
-2.777145E+001
 11
-1.1713148E+002
 21
-2.677145E+001
  0
ARC
  8
105
  6
HIDDEN
 62
1
 10
-1.1773148E+002
 20
-2.677145E+001
 40
5.999985E-001
 50
0.0
 51
1.8E+002
  0
LINE
  8
106
  6
CENTERLINE
 62
1
 10
-3.3130485E+001
 20
-2.727145E+001
 11
-3.1080485E+001
 21
-2.727145E+001
  0
ARC
  8
104
  6
CONTINUOUS
 62
40
 10
-1.1888124E+002
 20
-2.5471452E+001
 40
1.9999357E-001
 50
8.9999046E+001
 51
1.8000095E+002
  0
LINE
  8
104
  6
CONTINUOUS
 62
40
 10
-1.1908124E+002
 20
-2.5471455E+001
 11
-1.1908124E+002
 21
-2.9071453E+001
  0
ARC
  8
104
  6
CONTINUOUS
 62
40
 10
-1.1888124E+002
 20
-2.907146E+001
 40
1.999976E-001
 50
1.7999799E+002
 51
2.699998E+002
  0
LINE
  8
104
  6
CONTINUOUS
 62
40
 10
-1.1888124E+002
 20
-2.9271458E+001
 11
-3.0979728E+001
 21
-2.9271458E+001
  0
ARC
  8
104
  6
CONTINUOUS
 62
40
 10
-3.0979728E+001
 20
-2.9071457E+001
 40
2.0000107E-001
 50
2.7000011E+002
 51
3.6000101E+002
  0
LINE
  8
104
  6
CONTINUOUS
 62
40
 10
-3.0779727E+001
 20
-2.9071453E+001
 11
-3.0779727E+001
 21
-2.5271458E+001
  0
LINE
  8
104
  6
CONTINUOUS
 62
40
 10
-3.0779727E+001
 20
-2.5271458E+001
 11
-1.1888124E+002
 21
-2.5271458E+001
  0
LINE
  8
104
  6
CONTINUOUS
 62
40
 10
-3.3179725E+001
 20
-2.5271458E+001
 11
-3.3179725E+001
 21
-2.927145E+001
  0
LINE
  8
104
  6
CONTINUOUS
 62
40
 10
-1.1668123E+002
 20
-2.5271458E+001
 11
-1.1668123E+002
 21
-2.9271458E+001
  0
LINE
  8
104
  6
CONTINUOUS
 62
40
 10
-3.6130485E+001
 20
-2.9971447E+001
 11
-3.6130485E+001
 21
-2.9871449E+001
  0
ARC
  8
104
  6
CONTINUOUS
 62
40
 10
-3.6230481E+001
 20
-2.9871447E+001
 40
9.9996488E-002
 50
3.599989E+002
 51
4.5000115E+002
  0
LINE
  8
104
  6
CONTINUOUS
 62
40
 10
-3.6230483E+001
 20
-2.977145E+001
 11
-3.8030486E+001
 21
-2.977145E+001
  0
ARC
  8
104
  6
CONTINUOUS
 62
40
 10
-3.8030491E+001
 20
-2.9871444E+001
 40
9.9993694E-002
 50
8.9997246E+001
 51
1.800027E+002
  0
LINE
  8
104
  6
CONTINUOUS
 62
40
 10
-3.8130485E+001
 20
-2.9871449E+001
 11
-3.8130485E+001
 21
-2.9971447E+001
  0
LINE
  8
104
  6
CONTINUOUS
 62
40
 10
-3.4930488E+001
 20
-3.2621449E+001
 11
-3.4930488E+001
 21
-3.0971447E+001
  0
LINE
  8
104
  6
CONTINUOUS
 62
40
 10
-3.4930488E+001
 20
-3.0971447E+001
 11
-3.9330485E+001
 21
-3.0971447E+001
  0
LINE
  8
104
  6
CONTINUOUS
 62
40
 10
-3.9330485E+001
 20
-3.0971447E+001
 11
-3.9330485E+001
 21
-3.2621449E+001
  0
LINE
  8
104
  6
CONTINUOUS
 62
40
 10
-3.5975486E+001
 20
-3.3871449E+001
 11
-3.5910483E+001
 21
-3.3871449E+001
  0
LINE
  8
104
  6
CONTINUOUS
 62
40
 10
-3.6480487E+001
 20
-3.0971447E+001
 11
-3.7780486E+001
 21
-3.0971447E+001
  0
LINE
  8
104
  6
CONTINUOUS
 62
40
 10
-1.1083347E+002
 20
-3.0971447E+001
 11
-1.1083347E+002
 21
-3.1071453E+001
  0
ARC
  8
104
  6
CONTINUOUS
 62
40
 10
-1.1093348E+002
 20
-3.1071448E+001
 40
1.0000391E-001
 50
2.7000315E+002
 51
3.599969E+002
  0
LINE
  8
104
  6
CONTINUOUS
 62
40
 10
-1.1093347E+002
 20
-3.1171452E+001
 11
-1.1332747E+002
 21
-3.1171452E+001
  0
ARC
  8
104
  6
CONTINUOUS
 62
40
 10
-1.1332747E+002
 20
-3.1071453E+001
 40
9.999876E-002
 50
1.8000015E+002
 51
2.6999985E+002
  0
LINE
  8
104
  6
CONTINUOUS
 62
40
 10
-1.1342747E+002
 20
-3.1071453E+001
 11
-1.1342747E+002
 21
-3.0971447E+001
  0
LINE
  8
104
  6
CONTINUOUS
 62
40
 10
-1.1342747E+002
 20
-3.0971447E+001
 11
-1.1083347E+002
 21
-3.0971447E+001
  0
LINE
  8
106
  6
CENTERLINE
 62
1
 10
-1.1213047E+002
 20
-3.1379971E+001
 11
-1.1213047E+002
 21
-2.8631398E+001
  0
LINE
  8
104
  6
CONTINUOUS
 62
40
 10
-3.5950484E+001
 20
-3.0971447E+001
 11
-3.8310485E+001
 21
-3.0971447E+001
  0
LINE
  8
104
  6
CONTINUOUS
 62
40
 10
-1.1350368E+002
 20
-2.9971447E+001
 11
-1.1312546E+002
 21
-2.9971447E+001
  0
LINE
  8
104
  6
CONTINUOUS
 62
40
 10
-1.1113547E+002
 20
-2.9971447E+001
 11
-1.1075725E+002
 21
-2.9971447E+001
  0
LINE
  8
104
  6
CONTINUOUS
 62
40
 10
-1.1333047E+002
 20
-3.0971447E+001
 11
-1.1312546E+002
 21
-3.0971447E+001
  0
LINE
  8
104
  6
CONTINUOUS
 62
40
 10
-1.1113547E+002
 20
-3.0971447E+001
 11
-1.1093046E+002
 21
-3.0971447E+001
  0
LINE
  8
104
  6
CONTINUOUS
 62
40
 10
-1.1433047E+002
 20
-3.0971447E+001
 11
-1.1433047E+002
 21
-2.9971447E+001
  0
LINE
  8
104
  6
CONTINUOUS
 62
40
 10
-1.1433047E+002
 20
-2.9971447E+001
 11
-1.1075725E+002
 21
-2.9971447E+001
  0
LINE
  8
104
  6
CONTINUOUS
 62
40
 10
-1.1075725E+002
 20
-2.9971447E+001
 11
-3.8310485E+001
 21
-2.9971447E+001
  0
LINE
  8
104
  6
CONTINUOUS
 62
40
 10
-3.8310485E+001
 20
-2.9971447E+001
 11
-3.4930488E+001
 21
-2.9971447E+001
  0
LINE
  8
104
  6
CONTINUOUS
 62
40
 10
-3.4930488E+001
 20
-2.9971447E+001
 11
-3.4930488E+001
 21
-3.0971447E+001
  0
LINE
  8
104
  6
CONTINUOUS
 62
40
 10
-3.4930488E+001
 20
-3.0971447E+001
 11
-1.1433047E+002
 21
-3.0971447E+001
  0
LINE
  8
104
  6
CONTINUOUS
 62
40
 10
2.5146229E+002
 20
-2.9971455E+001
 11
2.5146229E+002
 21
-2.9871453E+001
  0
ARC
  8
104
  6
CONTINUOUS
 62
40
 10
2.5136229E+002
 20
-2.9871458E+001
 40
1.0000391E-001
 50
3.097289E-003
 51
9.00012E+001
  0
LINE
  8
104
  6
CONTINUOUS
 62
40
 10
2.5136229E+002
 20
-2.9771454E+001
 11
2.4956229E+002
 21
-2.9771454E+001
  0
ARC
  8
104
  6
CONTINUOUS
 62
40
 10
2.4956229E+002
 20
-2.9871453E+001
 40
9.999866E-002
 50
9.0000378E+001
 51
1.7999991E+002
  0
LINE
  8
104
  6
CONTINUOUS
 62
40
 10
2.4946229E+002
 20
-2.9871453E+001
 11
2.4946229E+002
 21
-2.9971455E+001
  0
LINE
  8
104
  6
CONTINUOUS
 62
40
 10
2.5266229E+002
 20
-3.2621453E+001
 11
2.5266229E+002
 21
-3.0971455E+001
  0
LINE
  8
104
  6
CONTINUOUS
 62
40
 10
2.5266229E+002
 20
-3.0971455E+001
 11
2.4826229E+002
 21
-3.0971455E+001
  0
LINE
  8
104
  6
CONTINUOUS
 62
40
 10
2.4826229E+002
 20
-3.0971455E+001
 11
2.4826229E+002
 21
-3.2621453E+001
  0
LINE
  8
104
  6
CONTINUOUS
 62
40
 10
2.5161729E+002
 20
-3.3871453E+001
 11
2.5168229E+002
 21
-3.3871453E+001
  0
LINE
  8
104
  6
CONTINUOUS
 62
40
 10
2.5111229E+002
 20
-3.0971451E+001
 11
2.4981229E+002
 21
-3.0971451E+001
  0
LINE
  8
104
  6
CONTINUOUS
 62
40
 10
1.737623E+002
 20
-2.9271458E+001
 11
1.737623E+002
 21
-2.9771458E+001
  0
LINE
  8
104
  6
CONTINUOUS
 62
40
 10
1.737623E+002
 20
-2.9771458E+001
 11
1.771623E+002
 21
-2.9771458E+001
  0
LINE
  8
104
  6
CONTINUOUS
 62
40
 10
1.771623E+002
 20
-2.9771458E+001
 11
1.771623E+002
 21
-2.9271458E+001
  0
LINE
  8
104
  6
CONTINUOUS
 62
40
 10
1.764623E+002
 20
-2.9771458E+001
 11
1.764623E+002
 21
-2.9971455E+001
  0
LINE
  8
104
  6
CONTINUOUS
 62
40
 10
1.744623E+002
 20
-2.9771458E+001
 11
1.744623E+002
 21
-2.9971455E+001
  0
LINE
  8
104
  6
CONTINUOUS
 62
40
 10
1.767593E+002
 20
-3.0971455E+001
 11
1.767593E+002
 21
-3.1071461E+001
  0
ARC
  8
104
  6
CONTINUOUS
 62
40
 10
1.766593E+002
 20
-3.1071462E+001
 40
9.9997537E-002
 50
2.6999916E+002
 51
3.6000049E+002
  0
LINE
  8
104
  6
CONTINUOUS
 62
40
 10
1.766593E+002
 20
-3.1171459E+001
 11
1.7426531E+002
 21
-3.1171459E+001
  0
ARC
  8
104
  6
CONTINUOUS
 62
40
 10
1.742653E+002
 20
-3.1071464E+001
 40
9.9995514E-002
 50
1.7999835E+002
 51
2.70002E+002
  0
LINE
  8
104
  6
CONTINUOUS
 62
40
 10
1.7416531E+002
 20
-3.1071461E+001
 11
1.7416531E+002
 21
-3.0971455E+001
  0
LINE
  8
104
  6
CONTINUOUS
 62
40
 10
1.7416531E+002
 20
-3.0971455E+001
 11
1.767593E+002
 21
-3.0971455E+001
  0
LINE
  8
99
  6
CONTINUOUS
 62
1
 10
1.754623E+002
 20
-3.1379975E+001
 11
1.754623E+002
 21
-2.8631401E+001
  0
LINE
  8
104
  6
CONTINUOUS
 62
40
 10
2.5164228E+002
 20
-3.0971451E+001
 11
2.4928229E+002
 21
-3.0971451E+001
  0
LINE
  8
104
  6
CONTINUOUS
 62
40
 10
1.7408909E+002
 20
-2.9971451E+001
 11
1.7446731E+002
 21
-2.9971451E+001
  0
LINE
  8
104
  6
CONTINUOUS
 62
40
 10
1.764573E+002
 20
-2.9971451E+001
 11
1.7683551E+002
 21
-2.9971451E+001
  0
LINE
  8
104
  6
CONTINUOUS
 62
40
 10
1.742623E+002
 20
-3.0971455E+001
 11
1.7446731E+002
 21
-3.0971455E+001
  0
LINE
  8
104
  6
CONTINUOUS
 62
40
 10
1.764573E+002
 20
-3.0971455E+001
 11
1.766623E+002
 21
-3.0971455E+001
  0
LINE
  8
104
  6
CONTINUOUS
 62
40
 10
1.732623E+002
 20
-3.0971455E+001
 11
1.732623E+002
 21
-2.9971455E+001
  0
LINE
  8
104
  6
CONTINUOUS
 62
40
 10
1.732623E+002
 20
-2.9971455E+001
 11
1.7683551E+002
 21
-2.9971455E+001
  0
LINE
  8
104
  6
CONTINUOUS
 62
40
 10
1.7683551E+002
 20
-2.9971455E+001
 11
2.4928229E+002
 21
-2.9971455E+001
  0
LINE
  8
104
  6
CONTINUOUS
 62
40
 10
2.4928229E+002
 20
-2.9971455E+001
 11
2.5266229E+002
 21
-2.9971455E+001
  0
LINE
  8
104
  6
CONTINUOUS
 62
40
 10
2.5266229E+002
 20
-2.9971455E+001
 11
2.5266229E+002
 21
-3.0971455E+001
  0
LINE
  8
104
  6
CONTINUOUS
 62
40
 10
2.5266229E+002
 20
-3.0971455E+001
 11
1.732623E+002
 21
-3.0971455E+001
  0
LINE
  8
99
  6
CONTINUOUS
 62
1
 10
1.698623E+002
 20
-2.5813652E+001
 11
1.698623E+002
 21
-2.8507698E+001
  0
LINE
  8
99
  6
CONTINUOUS
 62
1
 10
1.6850733E+002
 20
-2.7271454E+001
 11
1.7120137E+002
 21
-2.7271454E+001
  0
LINE
  8
99
  6
CONTINUOUS
 62
1
 10
2.570623E+002
 20
-2.7271458E+001
 11
2.5386208E+002
 21
-2.7271454E+001
  0
CIRCLE
  8
104
  6
CONTINUOUS
 62
40
 10
1.481623E+002
 20
-2.6271462E+001
 40
5.99999E-001
  0
CIRCLE
  8
99
  6
CONTINUOUS
 62
1
 10
2.8226229E+002
 20
-2.7271454E+001
 40
1.0
  0
LINE
  8
99
  6
CONTINUOUS
 62
1
 10
2.8057626E+002
 20
-2.7271454E+001
 11
2.834623E+002
 21
-2.7271454E+001
  0
LINE
  8
99
  6
CONTINUOUS
 62
1
 10
2.8226229E+002
 20
-2.8687828E+001
 11
2.8226229E+002
 21
-2.5739247E+001
  0
LINE
  8
99
  6
CONTINUOUS
 62
1
 10
2.554623E+002
 20
-2.5725506E+001
 11
2.554623E+002
 21
-2.9271458E+001
  0
CIRCLE
  8
99
  6
CONTINUOUS
 62
1
 10
1.698623E+002
 20
-2.7271454E+001
 40
1.0
  0
CIRCLE
  8
99
  6
CONTINUOUS
 62
1
 10
2.554623E+002
 20
-2.7271454E+001
 40
1.0
  0
ARC
  8
104
  6
CONTINUOUS
 62
40
 10
2.830623E+002
 20
-2.3571459E+001
 40
3.9999995E-001
 50
3.22729E-004
 51
9.0000293E+001
  0
LINE
  8
104
  6
CONTINUOUS
 62
40
 10
2.830623E+002
 20
-2.3171459E+001
 11
1.299623E+002
 21
-2.3171459E+001
  0
ARC
  8
104
  6
CONTINUOUS
 62
40
 10
1.299623E+002
 20
-2.3571459E+001
 40
3.9999988E-001
 50
9.0000842E+001
 51
1.7999969E+002
  0
LINE
  8
104
  6
CONTINUOUS
 62
40
 10
1.295623E+002
 20
-2.3571457E+001
 11
1.295623E+002
 21
-2.887146E+001
  0
ARC
  8
104
  6
CONTINUOUS
 62
40
 10
1.299623E+002
 20
-2.8871463E+001
 40
3.9999472E-001
 50
1.7999957E+002
 51
2.700009E+002
  0
LINE
  8
104
  6
CONTINUOUS
 62
40
 10
1.299623E+002
 20
-2.9271458E+001
 11
2.830623E+002
 21
-2.9271458E+001
  0
ARC
  8
104
  6
CONTINUOUS
 62
40
 10
2.830623E+002
 20
-2.8871462E+001
 40
3.9999625E-001
 50
2.6999918E+002
 51
3.6000021E+002
  0
LINE
  8
104
  6
CONTINUOUS
 62
40
 10
2.834623E+002
 20
-2.887146E+001
 11
2.834623E+002
 21
-2.3571457E+001
  0
LINE
  8
104
  6
CONTINUOUS
 62
40
 10
1.316623E+002
 20
-2.3171459E+001
 11
1.316623E+002
 21
-2.9271462E+001
  0
LINE
  8
104
  6
CONTINUOUS
 62
40
 10
2.8136229E+002
 20
-2.3171456E+001
 11
2.8136228E+002
 21
-2.9271462E+001
  0
LINE
  8
106
  6
CENTERLINE
 62
1
 10
2.5046229E+002
 20
-2.941223E+001
 11
2.5046229E+002
 21
-3.4079884E+001
  0
CIRCLE
  8
105
  6
HIDDEN
 62
1
 10
2.5706229E+002
 20
-3.4871449E+001
 40
1.0
  0
CIRCLE
  8
105
  6
HIDDEN
 62
1
 10
2.354623E+002
 20
-3.6471449E+001
 40
1.0
  0
LINE
  8
106
  6
CENTERLINE
 62
1
 10
2.354623E+002
 20
-3.503812E+001
 11
2.354623E+002
 21
-3.7925221E+001
  0
LINE
  8
106
  6
CENTERLINE
 62
1
 10
2.3406379E+002
 20
-3.6471449E+001
 11
2.3691079E+002
 21
-3.6471449E+001
  0
LINE
  8
106
  6
CENTERLINE
 62
1
 10
2.4666229E+002
 20
-3.503812E+001
 11
2.4666229E+002
 21
-3.7925221E+001
  0
LINE
  8
106
  6
CENTERLINE
 62
1
 10
2.4526379E+002
 20
-3.6471449E+001
 11
2.4811079E+002
 21
-3.6471449E+001
  0
CIRCLE
  8
105
  6
HIDDEN
 62
1
 10
2.4666229E+002
 20
-3.6471449E+001
 40
1.0
  0
CIRCLE
  8
105
  6
HIDDEN
 62
1
 10
2.250623E+002
 20
-4.3471449E+001
 40
1.0
  0
LINE
  8
99
  6
CONTINUOUS
 62
1
 10
2.5706229E+002
 20
-4.4972018E+001
 11
2.5706229E+002
 21
-3.331667E+001
  0
LINE
  8
106
  6
CENTERLINE
 62
1
 10
2.582741E+002
 20
-3.4871449E+001
 11
2.5554145E+002
 21
-3.4871449E+001
  0
LINE
  8
106
  6
CENTERLINE
 62
1
 10
2.2385049E+002
 20
-4.3471449E+001
 11
2.2658314E+002
 21
-4.3471449E+001
  0
LINE
  8
106
  6
CENTERLINE
 62
1
 10
2.250623E+002
 20
-4.4972018E+001
 11
2.250623E+002
 21
-3.3373503E+001
  0
LINE
  8
106
  6
CENTERLINE
 62
1
 10
2.2385049E+002
 20
-4.027145E+001
 11
2.2658314E+002
 21
-4.027145E+001
  0
LINE
  8
106
  6
CENTERLINE
 62
1
 10
2.2385049E+002
 20
-3.807145E+001
 11
2.2658314E+002
 21
-3.807145E+001
  0
LINE
  8
106
  6
CENTERLINE
 62
1
 10
2.2385049E+002
 20
-3.4871449E+001
 11
2.2658314E+002
 21
-3.4871449E+001
  0
LINE
  8
106
  6
CENTERLINE
 62
1
 10
2.582741E+002
 20
-4.3471449E+001
 11
2.5554145E+002
 21
-4.3471449E+001
  0
LINE
  8
106
  6
CENTERLINE
 62
1
 10
2.582741E+002
 20
-4.027145E+001
 11
2.5554145E+002
 21
-4.027145E+001
  0
LINE
  8
106
  6
CENTERLINE
 62
1
 10
2.582741E+002
 20
-3.807145E+001
 11
2.5554145E+002
 21
-3.807145E+001
  0
CIRCLE
  8
105
  6
HIDDEN
 62
1
 10
2.250623E+002
 20
-4.027145E+001
 40
1.0
  0
CIRCLE
  8
105
  6
HIDDEN
 62
1
 10
2.250623E+002
 20
-3.807145E+001
 40
1.0
  0
CIRCLE
  8
105
  6
HIDDEN
 62
1
 10
2.250623E+002
 20
-3.4871449E+001
 40
1.0
  0
CIRCLE
  8
105
  6
HIDDEN
 62
1
 10
2.5706229E+002
 20
-4.3471455E+001
 40
1.0
  0
CIRCLE
  8
105
  6
HIDDEN
 62
1
 10
2.5706229E+002
 20
-4.027145E+001
 40
1.0
  0
CIRCLE
  8
105
  6
HIDDEN
 62
1
 10
2.5706229E+002
 20
-3.807145E+001
 40
1.0
  0
LINE
  8
104
  6
CONTINUOUS
 62
40
 10
2.6646229E+002
 20
-4.4621449E+001
 11
2.6656229E+002
 21
-4.4621449E+001
  0
LINE
  8
104
  6
CONTINUOUS
 62
40
 10
2.6656229E+002
 20
-4.4621449E+001
 11
2.6816229E+002
 21
-4.4621449E+001
  0
ARC
  8
104
  6
CONTINUOUS
 62
40
 10
2.6816229E+002
 20
-4.4221446E+001
 40
4.0000278E-001
 50
2.7000054E+002
 51
3.5999956E+002
  0
LINE
  8
104
  6
CONTINUOUS
 62
40
 10
2.6856229E+002
 20
-4.4221449E+001
 11
2.6856229E+002
 21
-3.302145E+001
  0
ARC
  8
104
  6
CONTINUOUS
 62
40
 10
2.6816229E+002
 20
-3.3021449E+001
 40
3.9999992E-001
 50
3.5999977E+002
 51
4.4999987E+002
  0
LINE
  8
104
  6
CONTINUOUS
 62
40
 10
2.6816229E+002
 20
-3.2621449E+001
 11
2.6656229E+002
 21
-3.2621449E+001
  0
LINE
  8
104
  6
CONTINUOUS
 62
40
 10
2.6656229E+002
 20
-3.2621449E+001
 11
2.6646229E+002
 21
-3.2621449E+001
  0
LINE
  8
104
  6
CONTINUOUS
 62
40
 10
2.6646229E+002
 20
-3.2621449E+001
 11
2.156623E+002
 21
-3.2621449E+001
  0
LINE
  8
104
  6
CONTINUOUS
 62
40
 10
2.156623E+002
 20
-3.2621449E+001
 11
2.155623E+002
 21
-3.2621449E+001
  0
LINE
  8
104
  6
CONTINUOUS
 62
40
 10
2.155623E+002
 20
-3.2621449E+001
 11
2.139623E+002
 21
-3.2621449E+001
  0
ARC
  8
104
  6
CONTINUOUS
 62
40
 10
2.1396546E+002
 20
-3.3024599E+001
 40
4.0316291E-001
 50
9.044922E+001
 51
1.7999811E+002
  0
LINE
  8
104
  6
CONTINUOUS
 62
40
 10
2.135623E+002
 20
-3.3024586E+001
 11
2.135623E+002
 21
-4.4221449E+001
  0
ARC
  8
104
  6
CONTINUOUS
 62
40
 10
2.139623E+002
 20
-4.4221452E+001
 40
3.9999707E-001
 50
1.7999962E+002
 51
2.7000071E+002
  0
LINE
  8
104
  6
CONTINUOUS
 62
40
 10
2.139623E+002
 20
-4.4621449E+001
 11
2.155623E+002
 21
-4.4621449E+001
  0
LINE
  8
104
  6
CONTINUOUS
 62
40
 10
2.155623E+002
 20
-4.4621449E+001
 11
2.156623E+002
 21
-4.4621449E+001
  0
LINE
  8
104
  6
CONTINUOUS
 62
40
 10
2.156623E+002
 20
-4.4621449E+001
 11
2.6646229E+002
 21
-4.4621449E+001
  0
LINE
  8
104
  6
CONTINUOUS
 62
40
 10
2.155623E+002
 20
-3.2621449E+001
 11
2.155623E+002
 21
-4.452145E+001
  0
LINE
  8
104
  6
CONTINUOUS
 62
40
 10
2.155623E+002
 20
-4.452145E+001
 11
2.155623E+002
 21
-4.4621449E+001
  0
LINE
  8
104
  6
CONTINUOUS
 62
40
 10
2.6656229E+002
 20
-4.4621449E+001
 11
2.6656229E+002
 21
-3.2621449E+001
  0
LINE
  8
106
  6
CENTERLINE
 62
1
 10
2.5706229E+002
 20
-4.4972018E+001
 11
2.5706229E+002
 21
-3.8766939E+001
  0
LINE
  8
106
  6
CENTERLINE
 62
1
 10
2.5706229E+002
 20
-3.8766939E+001
 11
2.5706229E+002
 21
-3.4028786E+001
  0
LINE
  8
106
  6
CENTERLINE
 62
1
 10
2.250623E+002
 20
-4.4972018E+001
 11
2.250623E+002
 21
-3.8575032E+001
  0
LINE
  8
106
  6
CENTERLINE
 62
1
 10
2.250623E+002
 20
-3.8575032E+001
 11
2.250623E+002
 21
-3.3920448E+001
  0
LINE
  8
104
  6
CONTINUOUS
 62
40
 10
1.615623E+002
 20
2.2896132E+001
 11
1.615623E+002
 21
2.2996134E+001
  0
ARC
  8
104
  6
CONTINUOUS
 62
40
 10
1.616623E+002
 20
2.2996129E+001
 40
1.0000391E-001
 50
8.99988E+001
 51
1.7999719E+002
  0
LINE
  8
104
  6
CONTINUOUS
 62
40
 10
1.6166231E+002
 20
2.3096133E+001
 11
1.634623E+002
 21
2.3096133E+001
  0
ARC
  8
104
  6
CONTINUOUS
 62
40
 10
1.634623E+002
 20
2.2996134E+001
 40
9.9998606E-002
 50
3.5999977E+002
 51
4.5000023E+002
  0
LINE
  8
104
  6
CONTINUOUS
 62
40
 10
1.635623E+002
 20
2.2996134E+001
 11
1.635623E+002
 21
2.2896132E+001
  0
LINE
  8
104
  6
CONTINUOUS
 62
40
 10
1.603623E+002
 20
2.0246134E+001
 11
1.603623E+002
 21
2.1896132E+001
  0
LINE
  8
104
  6
CONTINUOUS
 62
40
 10
1.603623E+002
 20
2.1896132E+001
 11
1.647623E+002
 21
2.1896132E+001
  0
LINE
  8
104
  6
CONTINUOUS
 62
40
 10
1.647623E+002
 20
2.1896132E+001
 11
1.647623E+002
 21
2.0246134E+001
  0
LINE
  8
104
  6
CONTINUOUS
 62
40
 10
1.614073E+002
 20
1.8996134E+001
 11
1.6134231E+002
 21
1.8996134E+001
  0
LINE
  8
104
  6
CONTINUOUS
 62
40
 10
1.6191231E+002
 20
2.1896136E+001
 11
1.632123E+002
 21
2.1896136E+001
  0
LINE
  8
104
  6
CONTINUOUS
 62
40
 10
2.3926229E+002
 20
2.3596129E+001
 11
2.3926229E+002
 21
2.3096129E+001
  0
LINE
  8
104
  6
CONTINUOUS
 62
40
 10
2.3926229E+002
 20
2.3096129E+001
 11
2.3586229E+002
 21
2.3096129E+001
  0
LINE
  8
104
  6
CONTINUOUS
 62
40
 10
2.3586229E+002
 20
2.3096129E+001
 11
2.3586229E+002
 21
2.3596129E+001
  0
LINE
  8
104
  6
CONTINUOUS
 62
40
 10
2.365623E+002
 20
2.3096129E+001
 11
2.365623E+002
 21
2.2896132E+001
  0
LINE
  8
104
  6
CONTINUOUS
 62
40
 10
2.385623E+002
 20
2.3096129E+001
 11
2.385623E+002
 21
2.2896132E+001
  0
LINE
  8
104
  6
CONTINUOUS
 62
40
 10
2.3626529E+002
 20
2.1896132E+001
 11
2.3626529E+002
 21
2.1796126E+001
  0
ARC
  8
104
  6
CONTINUOUS
 62
40
 10
2.3636529E+002
 20
2.1796125E+001
 40
9.9997513E-002
 50
1.7999915E+002
 51
2.7000085E+002
  0
LINE
  8
104
  6
CONTINUOUS
 62
40
 10
2.3636529E+002
 20
2.1696127E+001
 11
2.3875929E+002
 21
2.1696127E+001
  0
ARC
  8
104
  6
CONTINUOUS
 62
40
 10
2.3875929E+002
 20
2.1796123E+001
 40
9.9995642E-002
 50
2.6999865E+002
 51
3.6000192E+002
  0
LINE
  8
104
  6
CONTINUOUS
 62
40
 10
2.3885929E+002
 20
2.1796126E+001
 11
2.3885929E+002
 21
2.1896132E+001
  0
LINE
  8
104
  6
CONTINUOUS
 62
40
 10
2.3885929E+002
 20
2.1896132E+001
 11
2.3626529E+002
 21
2.1896132E+001
  0
LINE
  8
99
  6
CONTINUOUS
 62
1
 10
2.3756229E+002
 20
2.1487612E+001
 11
2.3756229E+002
 21
2.4236185E+001
  0
LINE
  8
104
  6
CONTINUOUS
 62
40
 10
1.6138231E+002
 20
2.1896136E+001
 11
1.637423E+002
 21
2.1896136E+001
  0
LINE
  8
104
  6
CONTINUOUS
 62
40
 10
2.389355E+002
 20
2.2896136E+001
 11
2.3855728E+002
 21
2.2896136E+001
  0
LINE
  8
104
  6
CONTINUOUS
 62
40
 10
2.3656729E+002
 20
2.2896136E+001
 11
2.3618908E+002
 21
2.2896136E+001
  0
LINE
  8
104
  6
CONTINUOUS
 62
40
 10
2.3876229E+002
 20
2.1896132E+001
 11
2.3855728E+002
 21
2.1896132E+001
  0
LINE
  8
104
  6
CONTINUOUS
 62
40
 10
2.3656729E+002
 20
2.1896132E+001
 11
2.3636229E+002
 21
2.1896132E+001
  0
LINE
  8
104
  6
CONTINUOUS
 62
40
 10
2.3976229E+002
 20
2.1896132E+001
 11
2.3976229E+002
 21
2.2896132E+001
  0
LINE
  8
104
  6
CONTINUOUS
 62
40
 10
2.3976229E+002
 20
2.2896132E+001
 11
2.3618908E+002
 21
2.2896132E+001
  0
LINE
  8
104
  6
CONTINUOUS
 62
40
 10
2.3618908E+002
 20
2.2896132E+001
 11
1.637423E+002
 21
2.2896132E+001
  0
LINE
  8
104
  6
CONTINUOUS
 62
40
 10
1.637423E+002
 20
2.2896132E+001
 11
1.603623E+002
 21
2.2896132E+001
  0
LINE
  8
104
  6
CONTINUOUS
 62
40
 10
1.603623E+002
 20
2.2896132E+001
 11
1.603623E+002
 21
2.1896132E+001
  0
LINE
  8
104
  6
CONTINUOUS
 62
40
 10
1.603623E+002
 20
2.1896132E+001
 11
2.3976229E+002
 21
2.1896132E+001
  0
LINE
  8
99
  6
CONTINUOUS
 62
1
 10
2.4316229E+002
 20
2.7053935E+001
 11
2.4316229E+002
 21
2.4359888E+001
  0
LINE
  8
99
  6
CONTINUOUS
 62
1
 10
2.4451727E+002
 20
2.5596133E+001
 11
2.4182322E+002
 21
2.5596133E+001
  0
LINE
  8
99
  6
CONTINUOUS
 62
1
 10
1.5596229E+002
 20
2.5596129E+001
 11
1.5916251E+002
 21
2.5596133E+001
  0
CIRCLE
  8
104
  6
CONTINUOUS
 62
40
 10
2.6486229E+002
 20
2.6596125E+001
 40
5.99998E-001
  0
CIRCLE
  8
99
  6
CONTINUOUS
 62
1
 10
1.307623E+002
 20
2.5596133E+001
 40
1.0
  0
LINE
  8
99
  6
CONTINUOUS
 62
1
 10
1.3244833E+002
 20
2.5596133E+001
 11
1.2956229E+002
 21
2.5596133E+001
  0
LINE
  8
99
  6
CONTINUOUS
 62
1
 10
1.307623E+002
 20
2.4179758E+001
 11
1.307623E+002
 21
2.712834E+001
  0
LINE
  8
99
  6
CONTINUOUS
 62
1
 10
1.5756229E+002
 20
2.7142081E+001
 11
1.5756229E+002
 21
2.3596129E+001
  0
CIRCLE
  8
99
  6
CONTINUOUS
 62
1
 10
2.4316229E+002
 20
2.5596133E+001
 40
1.0
  0
CIRCLE
  8
99
  6
CONTINUOUS
 62
1
 10
1.5756229E+002
 20
2.5596133E+001
 40
1.0
  0
ARC
  8
104
  6
CONTINUOUS
 62
40
 10
1.2996229E+002
 20
2.9296127E+001
 40
3.999997E-001
 50
8.9999671E+001
 51
1.7999961E+002
  0
LINE
  8
104
  6
CONTINUOUS
 62
40
 10
1.299623E+002
 20
2.9696127E+001
 11
2.830623E+002
 21
2.9696127E+001
  0
ARC
  8
104
  6
CONTINUOUS
 62
40
 10
2.8306229E+002
 20
2.9296127E+001
 40
3.9999978E-001
 50
3.981986E-004
 51
8.9999172E+001
  0
LINE
  8
104
  6
CONTINUOUS
 62
40
 10
2.8346229E+002
 20
2.929613E+001
 11
2.8346229E+002
 21
2.3996127E+001
  0
ARC
  8
104
  6
CONTINUOUS
 62
40
 10
2.830623E+002
 20
2.3996124E+001
 40
3.9999481E-001
 50
2.6999897E+002
 51
3.6000046E+002
  0
LINE
  8
104
  6
CONTINUOUS
 62
40
 10
2.8306229E+002
 20
2.3596129E+001
 11
1.299623E+002
 21
2.3596129E+001
  0
ARC
  8
104
  6
CONTINUOUS
 62
40
 10
1.2996229E+002
 20
2.3996125E+001
 40
3.9999639E-001
 50
1.7999977E+002
 51
2.700008E+002
  0
LINE
  8
104
  6
CONTINUOUS
 62
40
 10
1.2956229E+002
 20
2.3996127E+001
 11
1.2956229E+002
 21
2.929613E+001
  0
LINE
  8
104
  6
CONTINUOUS
 62
40
 10
2.8136229E+002
 20
2.9696127E+001
 11
2.8136229E+002
 21
2.3596125E+001
  0
LINE
  8
104
  6
CONTINUOUS
 62
40
 10
1.316623E+002
 20
2.9696131E+001
 11
1.3166231E+002
 21
2.3596125E+001
  0
LINE
  8
106
  6
CENTERLINE
 62
1
 10
1.625623E+002
 20
2.3455357E+001
 11
1.625623E+002
 21
1.8787703E+001
  0
CIRCLE
  8
105
  6
HIDDEN
 62
1
 10
1.559623E+002
 20
1.7996138E+001
 40
1.0
  0
CIRCLE
  8
105
  6
HIDDEN
 62
1
 10
1.775623E+002
 20
1.6396138E+001
 40
1.0
  0
LINE
  8
106
  6
CENTERLINE
 62
1
 10
1.775623E+002
 20
1.7829466E+001
 11
1.775623E+002
 21
1.4942366E+001
  0
LINE
  8
106
  6
CENTERLINE
 62
1
 10
1.789608E+002
 20
1.6396138E+001
 11
1.761138E+002
 21
1.6396138E+001
  0
LINE
  8
106
  6
CENTERLINE
 62
1
 10
1.663623E+002
 20
1.7829466E+001
 11
1.663623E+002
 21
1.4942366E+001
  0
LINE
  8
106
  6
CENTERLINE
 62
1
 10
1.6776081E+002
 20
1.6396138E+001
 11
1.649138E+002
 21
1.6396138E+001
  0
CIRCLE
  8
105
  6
HIDDEN
 62
1
 10
1.663623E+002
 20
1.6396138E+001
 40
1.0
  0
CIRCLE
  8
105
  6
HIDDEN
 62
1
 10
1.8796229E+002
 20
9.396138
 40
1.0
  0
LINE
  8
99
  6
CONTINUOUS
 62
1
 10
1.559623E+002
 20
7.895569
 11
1.559623E+002
 21
1.9550917E+001
  0
LINE
  8
106
  6
CENTERLINE
 62
1
 10
1.5475049E+002
 20
1.7996138E+001
 11
1.5748315E+002
 21
1.7996138E+001
  0
LINE
  8
106
  6
CENTERLINE
 62
1
 10
1.891741E+002
 20
9.396138
 11
1.8644145E+002
 21
9.396138
  0
LINE
  8
106
  6
CENTERLINE
 62
1
 10
1.8796229E+002
 20
7.895569
 11
1.8796229E+002
 21
1.9494084E+001
  0
LINE
  8
106
  6
CENTERLINE
 62
1
 10
1.891741E+002
 20
1.2596137E+001
 11
1.8644145E+002
 21
1.2596137E+001
  0
LINE
  8
106
  6
CENTERLINE
 62
1
 10
1.891741E+002
 20
1.4796137E+001
 11
1.8644145E+002
 21
1.4796137E+001
  0
LINE
  8
106
  6
CENTERLINE
 62
1
 10
1.891741E+002
 20
1.7996138E+001
 11
1.8644145E+002
 21
1.7996138E+001
  0
LINE
  8
106
  6
CENTERLINE
 62
1
 10
1.5475049E+002
 20
9.396138
 11
1.5748315E+002
 21
9.396138
  0
LINE
  8
106
  6
CENTERLINE
 62
1
 10
1.5475049E+002
 20
1.2596137E+001
 11
1.5748315E+002
 21
1.2596137E+001
  0
LINE
  8
106
  6
CENTERLINE
 62
1
 10
1.5475049E+002
 20
1.4796137E+001
 11
1.5748315E+002
 21
1.4796137E+001
  0
CIRCLE
  8
105
  6
HIDDEN
 62
1
 10
1.8796229E+002
 20
1.2596137E+001
 40
1.0
  0
CIRCLE
  8
105
  6
HIDDEN
 62
1
 10
1.8796229E+002
 20
1.4796137E+001
 40
1.0
  0
CIRCLE
  8
105
  6
HIDDEN
 62
1
 10
1.8796229E+002
 20
1.7996138E+001
 40
1.0
  0
CIRCLE
  8
105
  6
HIDDEN
 62
1
 10
1.559623E+002
 20
9.396132
 40
1.0
  0
CIRCLE
  8
105
  6
HIDDEN
 62
1
 10
1.559623E+002
 20
1.2596137E+001
 40
1.0
  0
CIRCLE
  8
105
  6
HIDDEN
 62
1
 10
1.559623E+002
 20
1.4796137E+001
 40
1.0
  0
LINE
  8
104
  6
CONTINUOUS
 62
40
 10
1.465623E+002
 20
8.246138
 11
1.464623E+002
 21
8.246138
  0
LINE
  8
104
  6
CONTINUOUS
 62
40
 10
1.464623E+002
 20
8.246138
 11
1.448623E+002
 21
8.246138
  0
ARC
  8
104
  6
CONTINUOUS
 62
40
 10
1.448623E+002
 20
8.6461409
 40
4.0000287E-001
 50
1.8000041E+002
 51
2.6999959E+002
  0
LINE
  8
104
  6
CONTINUOUS
 62
40
 10
1.444623E+002
 20
8.646138
 11
1.444623E+002
 21
1.9846137E+001
  0
ARC
  8
104
  6
CONTINUOUS
 62
40
 10
1.448623E+002
 20
1.9846138E+001
 40
3.9999964E-001
 50
8.9999949E+001
 51
1.8000019E+002
  0
LINE
  8
104
  6
CONTINUOUS
 62
40
 10
1.448623E+002
 20
2.0246138E+001
 11
1.464623E+002
 21
2.0246138E+001
  0
LINE
  8
104
  6
CONTINUOUS
 62
40
 10
1.464623E+002
 20
2.0246138E+001
 11
1.465623E+002
 21
2.0246138E+001
  0
LINE
  8
104
  6
CONTINUOUS
 62
40
 10
1.465623E+002
 20
2.0246138E+001
 11
1.9736229E+002
 21
2.0246138E+001
  0
LINE
  8
104
  6
CONTINUOUS
 62
40
 10
1.9736229E+002
 20
2.0246138E+001
 11
1.9746229E+002
 21
2.0246138E+001
  0
LINE
  8
104
  6
CONTINUOUS
 62
40
 10
1.9746229E+002
 20
2.0246138E+001
 11
1.9906229E+002
 21
2.0246138E+001
  0
ARC
  8
104
  6
CONTINUOUS
 62
40
 10
1.9905913E+002
 20
1.9842988E+001
 40
4.0316275E-001
 50
1.8992958E-003
 51
8.9550802E+001
  0
LINE
  8
104
  6
CONTINUOUS
 62
40
 10
1.9946229E+002
 20
1.9843001E+001
 11
1.9946229E+002
 21
8.646138
  0
ARC
  8
104
  6
CONTINUOUS
 62
40
 10
1.990623E+002
 20
8.6461353
 40
3.9999732E-001
 50
2.6999933E+002
 51
3.6000038E+002
  0
LINE
  8
104
  6
CONTINUOUS
 62
40
 10
1.9906229E+002
 20
8.246138
 11
1.9746229E+002
 21
8.246138
  0
LINE
  8
104
  6
CONTINUOUS
 62
40
 10
1.9746229E+002
 20
8.246138
 11
1.9736229E+002
 21
8.246138
  0
LINE
  8
104
  6
CONTINUOUS
 62
40
 10
1.9736229E+002
 20
8.246138
 11
1.465623E+002
 21
8.246138
  0
LINE
  8
104
  6
CONTINUOUS
 62
40
 10
1.9746229E+002
 20
2.0246138E+001
 11
1.9746229E+002
 21
8.346137
  0
LINE
  8
104
  6
CONTINUOUS
 62
40
 10
1.9746229E+002
 20
8.346137
 11
1.9746229E+002
 21
8.246138
  0
LINE
  8
104
  6
CONTINUOUS
 62
40
 10
1.464623E+002
 20
8.246138
 11
1.464623E+002
 21
2.0246138E+001
  0
LINE
  8
106
  6
CENTERLINE
 62
1
 10
1.559623E+002
 20
7.895569
 11
1.559623E+002
 21
1.4100647E+001
  0
LINE
  8
106
  6
CENTERLINE
 62
1
 10
1.559623E+002
 20
1.4100647E+001
 11
1.559623E+002
 21
1.8838801E+001
  0
LINE
  8
106
  6
CENTERLINE
 62
1
 10
1.8796229E+002
 20
7.895569
 11
1.8796229E+002
 21
1.4292555E+001
  0
LINE
  8
106
  6
CENTERLINE
 62
1
 10
1.8796229E+002
 20
1.4292555E+001
 11
1.8796229E+002
 21
1.8947138E+001
  0
POINT
  8
Drafting_Hidden_Entities
  6
CONTINUOUS
 62
1
 10
0.0
 20
0.0
  0
ENDBLK
  0
ENDSEC
  0
SECTION
  2
ENTITIES
  0
LINE
  8
0
  6
CONTINUOUS
 62
3
 10
7.529844
 20
1.7987961E+001
 11
4.1246812E+002
 21
1.7987961E+001
  0
LINE
  8
0
  6
CONTINUOUS
 62
3
 10
4.1246812E+002
 20
1.7987961E+001
 11
4.1246812E+002
 21
1.3428222E+002
  0
LINE
  8
0
  6
CONTINUOUS
 62
3
 10
4.1246812E+002
 20
1.3428222E+002
 11
7.529844
 21
1.3428222E+002
  0
LINE
  8
0
  6
CONTINUOUS
 62
3
 10
7.529844
 20
1.3428222E+002
 11
7.529844
 21
1.7987961E+001
  0
TEXT
  8
1
  6
CONTINUOUS
 62
7
 10
8.729844
 20
1.9187961E+001
 40
1.0
  1
2-FRONT
 41
3.0
 50
1.0
  0
TEXT
  8
103
  6
CONTINUOUS
 62
40
 10
4.113779E+002
 20
1.4426147E+001
 40
5.0
  1
TS93,N,EMF,EMR
 41
6.5892857E-001
 72
1
 11
3.883154E+002
 21
1.1926147E+001
 73
2
  0
TEXT
  8
103
  6
CONTINUOUS
 62
150
 10
1.8149232E+002
 20
1.6486914E+002
 40
3.5
  1
G93EMF
 41
6.3750002E-001
 72
1
 11
1.7479857E+002
 21
1.6311914E+002
 73
2
  0
TEXT
  8
103
  6
CONTINUOUS
 62
150
 10
3.3520245E+002
 20
1.6525386E+002
 40
3.5
  1
G93EMR
 41
6.3750002E-001
 72
1
 11
3.285087E+002
 21
1.6350386E+002
 73
2
  0
TEXT
  8
103
  6
CONTINUOUS
 62
150
 10
2.1423781E+001
 20
2.8759323E+002
 40
3.5
  1
M 1:1
 41
6.3000002E-001
 72
1
 11
1.5911281E+001
 21
2.8584323E+002
 73
2
  0
TEXT
  8
103
  6
CONTINUOUS
 62
150
 10
1.9500206E+001
 20
1.5116095E+001
 40
3.5
  1
M 1:5
 41
6.3000002E-001
 72
1
 11
1.3987706E+001
 21
1.3366095E+001
 73
2
  0
TEXT
  8
103
  6
CONTINUOUS
 62
150
 10
5.8053021E+001
 20
1.6525386E+002
 40
3.5
  1
G93N(RF)
 41
6.4687502E-001
 72
1
 11
4.899677E+001
 21
1.6350386E+002
 73
2
  0
LINE
  8
98
  6
CONTINUOUS
 62
1
 10
8.9619822E+001
 20
1.9017613E+002
 11
7.8619825E+001
 21
1.9017613E+002
  0
LINE
  8
98
  6
CONTINUOUS
 62
1
 10
7.8619825E+001
 20
1.9017613E+002
 11
7.8619825E+001
 21
1.9517613E+002
  0
LINE
  8
98
  6
CONTINUOUS
 62
1
 10
7.8619825E+001
 20
1.9517613E+002
 11
8.9619822E+001
 21
1.9517613E+002
  0
LINE
  8
98
  6
CONTINUOUS
 62
1
 10
8.9619822E+001
 20
1.9517613E+002
 11
8.9619822E+001
 21
1.9017613E+002
  0
LINE
  8
99
  6
CONTINUOUS
 62
1
 10
7.8619825E+001
 20
1.9417613E+002
 11
8.9619822E+001
 21
1.9417613E+002
  0
LINE
  8
99
  6
CONTINUOUS
 62
1
 10
8.9619822E+001
 20
1.9117613E+002
 11
7.8619825E+001
 21
1.9117613E+002
  0
LINE
  8
106
  6
CENTERLINE
 62
1
 10
7.0942091E+001
 20
1.9267613E+002
 11
9.1401667E+001
 21
1.9267613E+002
  0
LINE
  8
98
  6
CONTINUOUS
 62
1
 10
8.9619822E+001
 20
1.7417612E+002
 11
7.8619825E+001
 21
1.7417612E+002
  0
LINE
  8
98
  6
CONTINUOUS
 62
1
 10
7.8619825E+001
 20
1.7417612E+002
 11
7.8619825E+001
 21
1.7917612E+002
  0
LINE
  8
98
  6
CONTINUOUS
 62
1
 10
7.8619825E+001
 20
1.7917612E+002
 11
8.9619822E+001
 21
1.7917612E+002
  0
LINE
  8
98
  6
CONTINUOUS
 62
1
 10
8.9619822E+001
 20
1.7917612E+002
 11
8.9619822E+001
 21
1.7417612E+002
  0
LINE
  8
99
  6
CONTINUOUS
 62
1
 10
7.8619825E+001
 20
1.7817612E+002
 11
8.9619822E+001
 21
1.7817612E+002
  0
LINE
  8
99
  6
CONTINUOUS
 62
1
 10
8.9619822E+001
 20
1.7517612E+002
 11
7.8619825E+001
 21
1.7517612E+002
  0
LINE
  8
106
  6
CENTERLINE
 62
1
 10
7.0942091E+001
 20
1.7667612E+002
 11
9.1401667E+001
 21
1.7667612E+002
  0
LINE
  8
99
  6
CONTINUOUS
 62
1
 10
7.8619825E+001
 20
2.3092613E+002
 11
7.8619825E+001
 21
2.3467613E+002
  0
LINE
  8
99
  6
CONTINUOUS
 62
1
 10
7.8619825E+001
 20
2.3467613E+002
 11
8.5710154E+001
 21
2.3467613E+002
  0
LINE
  8
106
  6
CENTERLINE
 62
1
 10
5.0619825E+001
 20
2.2754437E+002
 11
5.0619764E+001
 21
2.479261E+002
  0
LINE
  8
104
  6
CONTINUOUS
 62
40
 10
6.1619825E+001
 20
2.3917607E+002
 11
6.1619825E+001
 21
2.3092613E+002
  0
LINE
  8
104
  6
CONTINUOUS
 62
40
 10
3.9619827E+001
 20
2.3092613E+002
 11
3.9619827E+001
 21
2.4417609E+002
  0
LINE
  8
104
  6
CONTINUOUS
 62
40
 10
3.9619827E+001
 20
2.4417609E+002
 11
5.8144789E+001
 21
2.4417609E+002
  0
LINE
  8
104
  6
CONTINUOUS
 62
40
 10
3.9619827E+001
 20
2.3917607E+002
 11
5.8065611E+001
 21
2.3917607E+002
  0
LINE
  8
104
  6
CONTINUOUS
 62
40
 10
6.1619825E+001
 20
2.3917609E+002
 11
6.1619825E+001
 21
2.3092612E+002
  0
LINE
  8
99
  6
CONTINUOUS
 62
1
 10
7.8619825E+001
 20
2.0092609E+002
 11
7.8619825E+001
 21
2.2867609E+002
  0
ARC
  8
99
  6
CONTINUOUS
 62
1
 10
7.8119865E+001
 20
2.2867612E+002
 40
4.9996062E-001
 50
3.5999549E+002
 51
4.5000451E+002
  0
LINE
  8
99
  6
CONTINUOUS
 62
1
 10
7.8119825E+001
 20
2.2917609E+002
 11
7.652693E+001
 21
2.2917609E+002
  0
ARC
  8
99
  6
CONTINUOUS
 62
1
 10
7.6526791E+001
 20
2.2967568E+002
 40
4.9959378E-001
 50
2.249821E+002
 51
2.7001596E+002
  0
LINE
  8
99
  6
CONTINUOUS
 62
1
 10
7.6173414E+001
 20
2.2932252E+002
 11
7.5466261E+001
 21
2.3002963E+002
  0
ARC
  8
99
  6
CONTINUOUS
 62
1
 10
7.5112843E+001
 20
2.2967643E+002
 40
4.9965381E-001
 50
4.4982359E+001
 51
9.0011265E+001
  0
LINE
  8
99
  6
CONTINUOUS
 62
1
 10
7.5112745E+001
 20
2.3017609E+002
 11
7.4926954E+001
 21
2.3017609E+002
  0
ARC
  8
99
  6
CONTINUOUS
 62
1
 10
7.4927112E+001
 20
2.2967567E+002
 40
5.0041845E-001
 50
9.0018021E+001
 51
1.3498135E+002
  0
LINE
  8
99
  6
CONTINUOUS
 62
1
 10
7.4573378E+001
 20
2.3002963E+002
 11
7.376631E+001
 21
2.2922255E+002
  0
ARC
  8
99
  6
CONTINUOUS
 62
1
 10
7.4119747E+001
 20
2.2886899E+002
 40
4.9992131E-001
 50
1.3499014E+002
 51
1.8000039E+002
  0
LINE
  8
99
  6
CONTINUOUS
 62
1
 10
7.3619825E+001
 20
2.2886899E+002
 11
7.3619825E+001
 21
1.7298318E+002
  0
ARC
  8
99
  6
CONTINUOUS
 62
1
 10
7.411999E+001
 20
1.7298328E+002
 40
5.0016468E-001
 50
1.8001116E+002
 51
2.2499831E+002
  0
LINE
  8
99
  6
CONTINUOUS
 62
1
 10
7.376631E+001
 20
1.7262962E+002
 11
7.4573378E+001
 21
1.7182254E+002
  0
ARC
  8
99
  6
CONTINUOUS
 62
1
 10
7.492703E+001
 20
1.7217631E+002
 40
5.002234E-001
 50
2.2500956E+002
 51
2.6999134E+002
  0
LINE
  8
99
  6
CONTINUOUS
 62
1
 10
7.4926954E+001
 20
1.7167609E+002
 11
7.5112745E+001
 21
1.7167609E+002
  0
ARC
  8
99
  6
CONTINUOUS
 62
1
 10
7.5112736E+001
 20
1.72176E+002
 40
4.9991623E-001
 50
2.7000109E+002
 51
3.1500501E+002
  0
LINE
  8
99
  6
CONTINUOUS
 62
1
 10
7.5466261E+001
 20
1.7182254E+002
 11
7.6173414E+001
 21
1.7252965E+002
  0
ARC
  8
99
  6
CONTINUOUS
 62
1
 10
7.6526948E+001
 20
1.7217611E+002
 40
4.9997245E-001
 50
9.000214E+001
 51
1.3500007E+002
  0
LINE
  8
99
  6
CONTINUOUS
 62
1
 10
7.652693E+001
 20
1.7267609E+002
 11
7.8119825E+001
 21
1.7267609E+002
  0
ARC
  8
99
  6
CONTINUOUS
 62
1
 10
7.8119819E+001
 20
1.7317609E+002
 40
5.0000628E-001
 50
2.7000072E+002
 51
3.5999928E+002
  0
LINE
  8
99
  6
CONTINUOUS
 62
1
 10
7.8619825E+001
 20
1.7317609E+002
 11
7.8619825E+001
 21
2.0092609E+002
  0
LINE
  8
106
  6
CENTERLINE
 62
1
 10
7.107881E+001
 20
2.1967613E+002
 11
8.1570631E+001
 21
2.1967613E+002
  0
LINE
  8
106
  6
CENTERLINE
 62
1
 10
7.1352247E+001
 20
2.0367613E+002
 11
8.1382093E+001
 21
2.0367613E+002
  0
LINE
  8
106
  6
CENTERLINE
 62
1
 10
7.0942091E+001
 20
1.9267613E+002
 11
8.0953138E+001
 21
1.9267613E+002
  0
LINE
  8
106
  6
CENTERLINE
 62
1
 10
7.0942091E+001
 20
1.7667613E+002
 11
8.1340528E+001
 21
1.7667612E+002
  0
LINE
  8
99
  6
CONTINUOUS
 62
1
 10
7.3619825E+001
 20
1.8217612E+002
 11
7.6619825E+001
 21
1.7917612E+002
  0
LINE
  8
99
  6
CONTINUOUS
 62
1
 10
7.6619825E+001
 20
1.7917612E+002
 11
7.6619825E+001
 21
1.7417612E+002
  0
LINE
  8
99
  6
CONTINUOUS
 62
1
 10
7.6619825E+001
 20
1.7417612E+002
 11
7.4419874E+001
 21
1.719761E+002
  0
LINE
  8
99
  6
CONTINUOUS
 62
1
 10
7.3619825E+001
 20
1.9817613E+002
 11
7.6619825E+001
 21
1.9517613E+002
  0
LINE
  8
99
  6
CONTINUOUS
 62
1
 10
7.6619825E+001
 20
1.9517613E+002
 11
7.6619825E+001
 21
1.9017613E+002
  0
LINE
  8
99
  6
CONTINUOUS
 62
1
 10
7.6619825E+001
 20
1.9017613E+002
 11
7.3619825E+001
 21
1.8717613E+002
  0
LINE
  8
99
  6
CONTINUOUS
 62
1
 10
7.6619825E+001
 20
1.9017613E+002
 11
7.8619825E+001
 21
1.9017613E+002
  0
LINE
  8
99
  6
CONTINUOUS
 62
1
 10
7.8619825E+001
 20
1.9517613E+002
 11
7.6619825E+001
 21
1.9517613E+002
  0
LINE
  8
99
  6
CONTINUOUS
 62
1
 10
7.6619825E+001
 20
1.7917613E+002
 11
7.8619825E+001
 21
1.7917613E+002
  0
LINE
  8
99
  6
CONTINUOUS
 62
1
 10
7.8619825E+001
 20
1.7417613E+002
 11
7.6619825E+001
 21
1.7417613E+002
  0
LINE
  8
99
  6
CONTINUOUS
 62
1
 10
7.3619825E+001
 20
2.2517613E+002
 11
7.6619825E+001
 21
2.2217613E+002
  0
LINE
  8
99
  6
CONTINUOUS
 62
1
 10
7.6619825E+001
 20
2.2217613E+002
 11
7.6619825E+001
 21
2.1717613E+002
  0
LINE
  8
99
  6
CONTINUOUS
 62
1
 10
7.6619825E+001
 20
2.1717613E+002
 11
7.3619825E+001
 21
2.1417613E+002
  0
LINE
  8
99
  6
CONTINUOUS
 62
1
 10
7.6619825E+001
 20
2.2217613E+002
 11
7.8619825E+001
 21
2.2217613E+002
  0
LINE
  8
99
  6
CONTINUOUS
 62
1
 10
7.8619825E+001
 20
2.1717613E+002
 11
7.6619825E+001
 21
2.1717613E+002
  0
LINE
  8
99
  6
CONTINUOUS
 62
1
 10
7.3619825E+001
 20
2.0917613E+002
 11
7.6619825E+001
 21
2.0617613E+002
  0
LINE
  8
99
  6
CONTINUOUS
 62
1
 10
7.6619825E+001
 20
2.0617613E+002
 11
7.6619825E+001
 21
2.0117613E+002
  0
LINE
  8
99
  6
CONTINUOUS
 62
1
 10
7.6619825E+001
 20
2.0117613E+002
 11
7.3619825E+001
 21
1.9817613E+002
  0
LINE
  8
99
  6
CONTINUOUS
 62
1
 10
7.6619825E+001
 20
2.0617613E+002
 11
7.8619825E+001
 21
2.0617613E+002
  0
LINE
  8
99
  6
CONTINUOUS
 62
1
 10
7.8619825E+001
 20
2.0117613E+002
 11
7.6619825E+001
 21
2.0117613E+002
  0
LINE
  8
104
  6
CONTINUOUS
 62
40
 10
7.8619825E+001
 20
1.7092612E+002
 11
7.8619825E+001
 21
2.3092613E+002
  0
LINE
  8
104
  6
CONTINUOUS
 62
40
 10
7.8619825E+001
 20
2.3092613E+002
 11
2.8656696E+001
 21
2.3092613E+002
  0
ARC
  8
104
  6
CONTINUOUS
 62
40
 10
2.865802E+001
 20
2.2790539E+002
 40
3.0207423
 50
9.0025102E+001
 51
1.1241289E+002
  0
ARC
  8
104
  6
CONTINUOUS
 62
40
 10
2.8668538E+001
 20
2.2787787E+002
 40
3.0501917
 50
1.1239847E+002
 51
1.3464191E+002
  0
ARC
  8
104
  6
CONTINUOUS
 62
40
 10
2.8667936E+001
 20
2.2787696E+002
 40
3.0504161
 50
1.3462186E+002
 51
1.568642E+002
  0
ARC
  8
104
  6
CONTINUOUS
 62
40
 10
2.8640844E+001
 20
2.278877E+002
 40
3.0212822
 50
1.5684964E+002
 51
1.7923475E+002
  0
LINE
  8
104
  6
CONTINUOUS
 62
40
 10
2.5619831E+001
 20
2.2792805E+002
 11
2.5621784E+001
 21
1.7392805E+002
  0
ARC
  8
104
  6
CONTINUOUS
 62
40
 10
2.8621813E+001
 20
1.7392613E+002
 40
3.0000298
 50
1.7996327E+002
 51
2.6999944E+002
  0
LINE
  8
104
  6
CONTINUOUS
 62
40
 10
2.8621784E+001
 20
1.709261E+002
 11
7.8619825E+001
 21
1.7092612E+002
  0
LINE
  8
104
  6
CONTINUOUS
 62
40
 10
5.8144789E+001
 20
2.4417609E+002
 11
7.4119825E+001
 21
2.4417609E+002
  0
LINE
  8
104
  6
CONTINUOUS
 62
40
 10
7.4119825E+001
 20
2.4417609E+002
 11
7.4119825E+001
 21
2.3917607E+002
  0
LINE
  8
104
  6
CONTINUOUS
 62
40
 10
7.4119825E+001
 20
2.3917607E+002
 11
5.8065611E+001
 21
2.3917607E+002
  0
LINE
  8
98
  6
CONTINUOUS
 62
1
 10
9.2603785E+001
 20
2.6017613E+002
 11
7.8619825E+001
 21
2.6017613E+002
  0
LINE
  8
98
  6
CONTINUOUS
 62
1
 10
7.8619825E+001
 20
2.6017613E+002
 11
7.8619825E+001
 21
2.5517613E+002
  0
LINE
  8
98
  6
CONTINUOUS
 62
1
 10
7.8619825E+001
 20
2.5517613E+002
 11
9.2603785E+001
 21
2.5517613E+002
  0
LINE
  8
98
  6
CONTINUOUS
 62
1
 10
9.2603785E+001
 20
2.5517613E+002
 11
9.2603785E+001
 21
2.6017613E+002
  0
LINE
  8
99
  6
CONTINUOUS
 62
1
 10
7.8619825E+001
 20
2.5942613E+002
 11
9.2603785E+001
 21
2.5942613E+002
  0
LINE
  8
99
  6
CONTINUOUS
 62
1
 10
7.8619825E+001
 20
2.5592613E+002
 11
9.2603785E+001
 21
2.5592613E+002
  0
LINE
  8
106
  6
CENTERLINE
 62
1
 10
7.5094023E+001
 20
2.5767613E+002
 11
9.5039438E+001
 21
2.5767613E+002
  0
LINE
  8
106
  6
CENTERLINE
 62
1
 10
6.3119825E+001
 20
2.5123761E+002
 11
6.3119825E+001
 21
2.380314E+002
  0
LINE
  8
106
  6
CENTERLINE
 62
1
 10
8.1179579E+001
 20
2.5767613E+002
 11
4.6019607E+001
 21
2.5767613E+002
  0
LINE
  8
104
  6
CONTINUOUS
 62
40
 10
7.1619764E+001
 20
2.4767613E+002
 11
7.1619764E+001
 21
2.4567607E+002
  0
LINE
  8
104
  6
CONTINUOUS
 62
40
 10
7.1619764E+001
 20
2.4567607E+002
 11
5.4619764E+001
 21
2.4567607E+002
  0
LINE
  8
104
  6
CONTINUOUS
 62
40
 10
5.4619764E+001
 20
2.4567607E+002
 11
5.4619764E+001
 21
2.4767613E+002
  0
LINE
  8
104
  6
CONTINUOUS
 62
40
 10
5.8144789E+001
 20
2.4512614E+002
 11
5.8144789E+001
 21
2.4567607E+002
  0
LINE
  8
104
  6
CONTINUOUS
 62
40
 10
5.8144789E+001
 20
2.4567607E+002
 11
5.8144789E+001
 21
2.4417609E+002
  0
LINE
  8
104
  6
CONTINUOUS
 62
40
 10
6.8094862E+001
 20
2.4512614E+002
 11
6.8094862E+001
 21
2.4567607E+002
  0
LINE
  8
104
  6
CONTINUOUS
 62
40
 10
6.8094862E+001
 20
2.4567607E+002
 11
6.8094816E+001
 21
2.4417609E+002
  0
LINE
  8
99
  6
CONTINUOUS
 62
1
 10
4.7619825E+001
 20
2.6217611E+002
 11
4.9619825E+001
 21
2.6017613E+002
  0
LINE
  8
99
  6
CONTINUOUS
 62
1
 10
4.9619825E+001
 20
2.6017613E+002
 11
4.9619825E+001
 21
2.551761E+002
  0
LINE
  8
99
  6
CONTINUOUS
 62
1
 10
4.9619825E+001
 20
2.551761E+002
 11
4.7619825E+001
 21
2.5317612E+002
  0
LINE
  8
99
  6
CONTINUOUS
 62
1
 10
4.9619841E+001
 20
2.5517613E+002
 11
7.8603788E+001
 21
2.5517613E+002
  0
LINE
  8
105
  6
HIDDEN
 62
1
 10
7.8619825E+001
 20
2.6017613E+002
 11
4.9619825E+001
 21
2.6017613E+002
  0
LINE
  8
105
  6
HIDDEN
 62
1
 10
5.4619825E+001
 20
2.4767613E+002
 11
5.4619825E+001
 21
2.5067613E+002
  0
LINE
  8
105
  6
HIDDEN
 62
1
 10
5.4619825E+001
 20
2.5067613E+002
 11
5.0619825E+001
 21
2.5067613E+002
  0
LINE
  8
105
  6
HIDDEN
 62
1
 10
5.0619825E+001
 20
2.5067613E+002
 11
5.0619825E+001
 21
2.6067613E+002
  0
LINE
  8
105
  6
HIDDEN
 62
1
 10
5.0619825E+001
 20
2.6067613E+002
 11
5.4619825E+001
 21
2.6067613E+002
  0
LINE
  8
105
  6
HIDDEN
 62
1
 10
5.4619825E+001
 20
2.6067613E+002
 11
5.4619825E+001
 21
2.6267613E+002
  0
LINE
  8
105
  6
HIDDEN
 62
1
 10
5.4619825E+001
 20
2.6267613E+002
 11
5.0619825E+001
 21
2.6267613E+002
  0
LINE
  8
105
  6
HIDDEN
 62
1
 10
5.0619825E+001
 20
2.6267613E+002
 11
5.0619825E+001
 21
2.6467613E+002
  0
LINE
  8
105
  6
HIDDEN
 62
1
 10
5.0619825E+001
 20
2.6467613E+002
 11
7.5619825E+001
 21
2.6467613E+002
  0
LINE
  8
105
  6
HIDDEN
 62
1
 10
7.5619825E+001
 20
2.6467613E+002
 11
7.5619825E+001
 21
2.6267613E+002
  0
LINE
  8
105
  6
HIDDEN
 62
1
 10
7.5619825E+001
 20
2.6267613E+002
 11
7.1619825E+001
 21
2.6267613E+002
  0
LINE
  8
105
  6
HIDDEN
 62
1
 10
7.1619825E+001
 20
2.6267613E+002
 11
7.1619825E+001
 21
2.6067613E+002
  0
LINE
  8
105
  6
HIDDEN
 62
1
 10
7.1619825E+001
 20
2.6067613E+002
 11
7.5619825E+001
 21
2.6067613E+002
  0
LINE
  8
105
  6
HIDDEN
 62
1
 10
7.5619825E+001
 20
2.6067613E+002
 11
7.5619825E+001
 21
2.5067613E+002
  0
LINE
  8
105
  6
HIDDEN
 62
1
 10
7.5619825E+001
 20
2.5067613E+002
 11
7.1619825E+001
 21
2.5067613E+002
  0
LINE
  8
105
  6
HIDDEN
 62
1
 10
7.1619825E+001
 20
2.5067613E+002
 11
7.1619825E+001
 21
2.4767613E+002
  0
ARC
  8
104
  6
CONTINUOUS
 62
40
 10
4.9619843E+001
 20
2.4967615E+002
 40
2.0000177
 50
1.8000051E+002
 51
2.6999949E+002
  0
LINE
  8
104
  6
CONTINUOUS
 62
40
 10
4.7619825E+001
 20
2.4967613E+002
 11
4.7619825E+001
 21
2.6567613E+002
  0
ARC
  8
104
  6
CONTINUOUS
 62
40
 10
4.9619798E+001
 20
2.6567616E+002
 40
1.9999728
 50
8.9999222E+001
 51
1.8000078E+002
  0
LINE
  8
104
  6
CONTINUOUS
 62
40
 10
4.9619825E+001
 20
2.6767613E+002
 11
7.8619825E+001
 21
2.6767613E+002
  0
LINE
  8
104
  6
CONTINUOUS
 62
40
 10
7.8619825E+001
 20
2.6767613E+002
 11
7.8619825E+001
 21
2.4767613E+002
  0
LINE
  8
104
  6
CONTINUOUS
 62
40
 10
7.8619825E+001
 20
2.4767613E+002
 11
4.9619825E+001
 21
2.4767613E+002
  0
LINE
  8
98
  6
CONTINUOUS
 62
1
 10
2.1195918E+002
 20
1.9017613E+002
 11
2.0095918E+002
 21
1.9017613E+002
  0
LINE
  8
98
  6
CONTINUOUS
 62
1
 10
2.0095918E+002
 20
1.9017613E+002
 11
2.0095918E+002
 21
1.9517613E+002
  0
LINE
  8
98
  6
CONTINUOUS
 62
1
 10
2.0095918E+002
 20
1.9517613E+002
 11
2.1195918E+002
 21
1.9517613E+002
  0
LINE
  8
98
  6
CONTINUOUS
 62
1
 10
2.1195918E+002
 20
1.9517613E+002
 11
2.1195918E+002
 21
1.9017613E+002
  0
LINE
  8
99
  6
CONTINUOUS
 62
1
 10
2.0095919E+002
 20
1.9417613E+002
 11
2.1195919E+002
 21
1.9417613E+002
  0
LINE
  8
99
  6
CONTINUOUS
 62
1
 10
2.1195919E+002
 20
1.9117613E+002
 11
2.0095919E+002
 21
1.9117613E+002
  0
LINE
  8
106
  6
CENTERLINE
 62
1
 10
1.9328146E+002
 20
1.9267613E+002
 11
2.1374104E+002
 21
1.9267613E+002
  0
LINE
  8
98
  6
CONTINUOUS
 62
1
 10
2.1195918E+002
 20
1.7417612E+002
 11
2.0095918E+002
 21
1.7417612E+002
  0
LINE
  8
98
  6
CONTINUOUS
 62
1
 10
2.0095918E+002
 20
1.7417612E+002
 11
2.0095918E+002
 21
1.7917612E+002
  0
LINE
  8
98
  6
CONTINUOUS
 62
1
 10
2.0095918E+002
 20
1.7917612E+002
 11
2.1195918E+002
 21
1.7917612E+002
  0
LINE
  8
98
  6
CONTINUOUS
 62
1
 10
2.1195918E+002
 20
1.7917612E+002
 11
2.1195918E+002
 21
1.7417612E+002
  0
LINE
  8
99
  6
CONTINUOUS
 62
1
 10
2.0095919E+002
 20
1.7817612E+002
 11
2.1195919E+002
 21
1.7817612E+002
  0
LINE
  8
99
  6
CONTINUOUS
 62
1
 10
2.1195919E+002
 20
1.7517612E+002
 11
2.0095919E+002
 21
1.7517612E+002
  0
LINE
  8
106
  6
CENTERLINE
 62
1
 10
1.9328146E+002
 20
1.7667612E+002
 11
2.1374104E+002
 21
1.7667612E+002
  0
LINE
  8
99
  6
CONTINUOUS
 62
1
 10
2.0095919E+002
 20
2.3092613E+002
 11
2.0095919E+002
 21
2.3467613E+002
  0
LINE
  8
99
  6
CONTINUOUS
 62
1
 10
2.0095919E+002
 20
2.3467613E+002
 11
2.0804951E+002
 21
2.3467613E+002
  0
LINE
  8
106
  6
CENTERLINE
 62
1
 10
1.7295918E+002
 20
2.2754437E+002
 11
1.7295912E+002
 21
2.4792612E+002
  0
LINE
  8
104
  6
CONTINUOUS
 62
40
 10
1.8395919E+002
 20
2.3917609E+002
 11
1.8395919E+002
 21
2.3092613E+002
  0
LINE
  8
104
  6
CONTINUOUS
 62
40
 10
1.6195918E+002
 20
2.3092613E+002
 11
1.6195918E+002
 21
2.441761E+002
  0
LINE
  8
104
  6
CONTINUOUS
 62
40
 10
1.6195918E+002
 20
2.441761E+002
 11
1.8048414E+002
 21
2.441761E+002
  0
LINE
  8
104
  6
CONTINUOUS
 62
40
 10
1.6195918E+002
 20
2.3917609E+002
 11
1.8040498E+002
 21
2.3917609E+002
  0
LINE
  8
104
  6
CONTINUOUS
 62
40
 10
1.8395919E+002
 20
2.3917609E+002
 11
1.8395919E+002
 21
2.3092612E+002
  0
LINE
  8
99
  6
CONTINUOUS
 62
1
 10
2.0095919E+002
 20
2.0092609E+002
 11
2.0095919E+002
 21
2.2867609E+002
  0
ARC
  8
99
  6
CONTINUOUS
 62
1
 10
2.0045922E+002
 20
2.2867611E+002
 40
4.9997021E-001
 50
3.5999659E+002
 51
4.5000341E+002
  0
LINE
  8
99
  6
CONTINUOUS
 62
1
 10
2.0045919E+002
 20
2.2917609E+002
 11
1.988663E+002
 21
2.2917609E+002
  0
ARC
  8
99
  6
CONTINUOUS
 62
1
 10
1.9886619E+002
 20
2.2967575E+002
 40
4.9966033E-001
 50
2.2498526E+002
 51
2.7001283E+002
  0
LINE
  8
99
  6
CONTINUOUS
 62
1
 10
1.9851278E+002
 20
2.2932252E+002
 11
1.9780563E+002
 21
2.3002963E+002
  0
ARC
  8
99
  6
CONTINUOUS
 62
1
 10
1.9745219E+002
 20
2.2967637E+002
 40
4.9971322E-001
 50
4.4985183E+001
 51
9.0008373E+001
  0
LINE
  8
99
  6
CONTINUOUS
 62
1
 10
1.9745211E+002
 20
2.3017609E+002
 11
1.9726632E+002
 21
2.3017609E+002
  0
ARC
  8
99
  6
CONTINUOUS
 62
1
 10
1.9726624E+002
 20
2.2967625E+002
 40
4.9983993E-001
 50
8.999054E+001
 51
1.350088E+002
  0
LINE
  8
99
  6
CONTINUOUS
 62
1
 10
1.9691275E+002
 20
2.3002963E+002
 11
1.9610568E+002
 21
2.2922255E+002
  0
ARC
  8
99
  6
CONTINUOUS
 62
1
 10
1.9645919E+002
 20
2.2886896E+002
 40
4.9999772E-001
 50
1.3499383E+002
 51
1.7999681E+002
  0
LINE
  8
99
  6
CONTINUOUS
 62
1
 10
1.9595919E+002
 20
2.2886899E+002
 11
1.9595919E+002
 21
1.7298318E+002
  0
ARC
  8
99
  6
CONTINUOUS
 62
1
 10
1.9645932E+002
 20
1.7298326E+002
 40
5.0012339E-001
 50
1.8000915E+002
 51
2.250002E+002
  0
LINE
  8
99
  6
CONTINUOUS
 62
1
 10
1.9610568E+002
 20
1.7262962E+002
 11
1.9691275E+002
 21
1.7182254E+002
  0
ARC
  8
99
  6
CONTINUOUS
 62
1
 10
1.9726636E+002
 20
1.7217622E+002
 40
5.0013314E-001
 50
2.2500528E+002
 51
2.6999566E+002
  0
LINE
  8
99
  6
CONTINUOUS
 62
1
 10
1.9726632E+002
 20
1.7167609E+002
 11
1.9745211E+002
 21
1.7167609E+002
  0
ARC
  8
99
  6
CONTINUOUS
 62
1
 10
1.9745213E+002
 20
1.7217594E+002
 40
4.9985717E-001
 50
2.6999835E+002
 51
3.1500782E+002
  0
LINE
  8
99
  6
CONTINUOUS
 62
1
 10
1.9780563E+002
 20
1.7182254E+002
 11
1.9851278E+002
 21
1.7252965E+002
  0
ARC
  8
99
  6
CONTINUOUS
 62
1
 10
1.9886636E+002
 20
1.7217601E+002
 40
5.0007344E-001
 50
9.0006897E+001
 51
1.3499528E+002
  0
LINE
  8
99
  6
CONTINUOUS
 62
1
 10
1.988663E+002
 20
1.7267609E+002
 11
2.0045919E+002
 21
1.7267609E+002
  0
ARC
  8
99
  6
CONTINUOUS
 62
1
 10
2.004592E+002
 20
1.7317608E+002
 40
4.9999466E-001
 50
2.6999939E+002
 51
3.6000061E+002
  0
LINE
  8
99
  6
CONTINUOUS
 62
1
 10
2.0095919E+002
 20
1.7317609E+002
 11
2.0095919E+002
 21
2.0092609E+002
  0
LINE
  8
106
  6
CENTERLINE
 62
1
 10
1.9341818E+002
 20
2.1967613E+002
 11
2.0391E+002
 21
2.1967613E+002
  0
LINE
  8
106
  6
CENTERLINE
 62
1
 10
1.9369162E+002
 20
2.0367613E+002
 11
2.0372146E+002
 21
2.0367613E+002
  0
LINE
  8
106
  6
CENTERLINE
 62
1
 10
1.9328146E+002
 20
1.9267613E+002
 11
2.0329251E+002
 21
1.9267613E+002
  0
LINE
  8
106
  6
CENTERLINE
 62
1
 10
1.9328146E+002
 20
1.7667613E+002
 11
2.036799E+002
 21
1.7667612E+002
  0
LINE
  8
99
  6
CONTINUOUS
 62
1
 10
1.9595919E+002
 20
1.8217612E+002
 11
1.9895919E+002
 21
1.7917612E+002
  0
LINE
  8
99
  6
CONTINUOUS
 62
1
 10
1.9895919E+002
 20
1.7917612E+002
 11
1.9895919E+002
 21
1.7417612E+002
  0
LINE
  8
99
  6
CONTINUOUS
 62
1
 10
1.9895919E+002
 20
1.7417612E+002
 11
1.9675924E+002
 21
1.719761E+002
  0
LINE
  8
99
  6
CONTINUOUS
 62
1
 10
1.9595919E+002
 20
1.9817613E+002
 11
1.9895919E+002
 21
1.9517613E+002
  0
LINE
  8
99
  6
CONTINUOUS
 62
1
 10
1.9895919E+002
 20
1.9517613E+002
 11
1.9895919E+002
 21
1.9017613E+002
  0
LINE
  8
99
  6
CONTINUOUS
 62
1
 10
1.9895919E+002
 20
1.9017613E+002
 11
1.9595919E+002
 21
1.8717613E+002
  0
LINE
  8
99
  6
CONTINUOUS
 62
1
 10
1.9895919E+002
 20
1.9017613E+002
 11
2.0095919E+002
 21
1.9017613E+002
  0
LINE
  8
99
  6
CONTINUOUS
 62
1
 10
2.0095919E+002
 20
1.9517613E+002
 11
1.9895919E+002
 21
1.9517613E+002
  0
LINE
  8
99
  6
CONTINUOUS
 62
1
 10
1.9895919E+002
 20
1.7917613E+002
 11
2.0095919E+002
 21
1.7917613E+002
  0
LINE
  8
99
  6
CONTINUOUS
 62
1
 10
2.0095919E+002
 20
1.7417613E+002
 11
1.9895919E+002
 21
1.7417613E+002
  0
LINE
  8
99
  6
CONTINUOUS
 62
1
 10
1.9595919E+002
 20
2.2517613E+002
 11
1.9895919E+002
 21
2.2217613E+002
  0
LINE
  8
99
  6
CONTINUOUS
 62
1
 10
1.9895919E+002
 20
2.2217613E+002
 11
1.9895919E+002
 21
2.1717613E+002
  0
LINE
  8
99
  6
CONTINUOUS
 62
1
 10
1.9895919E+002
 20
2.1717613E+002
 11
1.9595919E+002
 21
2.1417613E+002
  0
LINE
  8
99
  6
CONTINUOUS
 62
1
 10
1.9895919E+002
 20
2.2217613E+002
 11
2.0095919E+002
 21
2.2217613E+002
  0
LINE
  8
99
  6
CONTINUOUS
 62
1
 10
2.0095919E+002
 20
2.1717613E+002
 11
1.9895919E+002
 21
2.1717613E+002
  0
LINE
  8
99
  6
CONTINUOUS
 62
1
 10
1.9595919E+002
 20
2.0917613E+002
 11
1.9895919E+002
 21
2.0617613E+002
  0
LINE
  8
99
  6
CONTINUOUS
 62
1
 10
1.9895919E+002
 20
2.0617613E+002
 11
1.9895919E+002
 21
2.0117613E+002
  0
LINE
  8
99
  6
CONTINUOUS
 62
1
 10
1.9895919E+002
 20
2.0117613E+002
 11
1.9595919E+002
 21
1.9817613E+002
  0
LINE
  8
99
  6
CONTINUOUS
 62
1
 10
1.9895919E+002
 20
2.0617613E+002
 11
2.0095919E+002
 21
2.0617613E+002
  0
LINE
  8
99
  6
CONTINUOUS
 62
1
 10
2.0095919E+002
 20
2.0117613E+002
 11
1.9895919E+002
 21
2.0117613E+002
  0
LINE
  8
104
  6
CONTINUOUS
 62
40
 10
2.0095919E+002
 20
1.7092612E+002
 11
2.0095919E+002
 21
2.3092613E+002
  0
LINE
  8
104
  6
CONTINUOUS
 62
40
 10
2.0095919E+002
 20
2.3092613E+002
 11
1.5099606E+002
 21
2.3092613E+002
  0
ARC
  8
104
  6
CONTINUOUS
 62
40
 10
1.5099608E+002
 20
2.2792611E+002
 40
3.0000234
 50
9.0000436E+001
 51
1.7996283E+002
  0
LINE
  8
104
  6
CONTINUOUS
 62
40
 10
1.4799606E+002
 20
2.2792805E+002
 11
1.4796115E+002
 21
1.7392805E+002
  0
ARC
  8
104
  6
CONTINUOUS
 62
40
 10
1.5096117E+002
 20
1.7392612E+002
 40
3.000024
 50
1.7996316E+002
 51
2.6999955E+002
  0
LINE
  8
104
  6
CONTINUOUS
 62
40
 10
1.5096115E+002
 20
1.709261E+002
 11
2.0095919E+002
 21
1.7092612E+002
  0
LINE
  8
104
  6
CONTINUOUS
 62
40
 10
1.8048414E+002
 20
2.4417609E+002
 11
1.9394316E+002
 21
2.4417609E+002
  0
LINE
  8
104
  6
CONTINUOUS
 62
40
 10
1.9394316E+002
 20
2.4417609E+002
 11
1.9394316E+002
 21
2.3917607E+002
  0
LINE
  8
104
  6
CONTINUOUS
 62
40
 10
1.9394316E+002
 20
2.3917607E+002
 11
1.8040497E+002
 21
2.3917607E+002
  0
LINE
  8
98
  6
CONTINUOUS
 62
1
 10
2.1494314E+002
 20
2.6017613E+002
 11
2.0095918E+002
 21
2.6017613E+002
  0
LINE
  8
98
  6
CONTINUOUS
 62
1
 10
2.0095918E+002
 20
2.6017613E+002
 11
2.0095918E+002
 21
2.5517613E+002
  0
LINE
  8
98
  6
CONTINUOUS
 62
1
 10
2.0095918E+002
 20
2.5517613E+002
 11
2.1494314E+002
 21
2.5517613E+002
  0
LINE
  8
98
  6
CONTINUOUS
 62
1
 10
2.1494314E+002
 20
2.5517613E+002
 11
2.1494314E+002
 21
2.6017613E+002
  0
LINE
  8
99
  6
CONTINUOUS
 62
1
 10
2.0095919E+002
 20
2.5942613E+002
 11
2.1494316E+002
 21
2.5942613E+002
  0
LINE
  8
99
  6
CONTINUOUS
 62
1
 10
2.0095919E+002
 20
2.5592613E+002
 11
2.1494316E+002
 21
2.5592613E+002
  0
LINE
  8
106
  6
CENTERLINE
 62
1
 10
1.9743339E+002
 20
2.5767613E+002
 11
2.179412E+002
 21
2.5767613E+002
  0
LINE
  8
106
  6
CENTERLINE
 62
1
 10
1.8294316E+002
 20
2.5123761E+002
 11
1.8294316E+002
 21
2.380314E+002
  0
LINE
  8
104
  6
CONTINUOUS
 62
40
 10
1.7594316E+002
 20
2.441761E+002
 11
1.7594316E+002
 21
2.4667613E+002
  0
LINE
  8
104
  6
CONTINUOUS
 62
40
 10
1.7594316E+002
 20
2.4667613E+002
 11
1.8994316E+002
 21
2.4667613E+002
  0
LINE
  8
104
  6
CONTINUOUS
 62
40
 10
1.8994316E+002
 20
2.4667613E+002
 11
1.8994316E+002
 21
2.441761E+002
  0
LINE
  8
104
  6
CONTINUOUS
 62
40
 10
1.8994316E+002
 20
2.441761E+002
 11
1.7594316E+002
 21
2.441761E+002
  0
LINE
  8
104
  6
CONTINUOUS
 62
40
 10
1.8794316E+002
 20
2.4667613E+002
 11
1.8794316E+002
 21
2.4767615E+002
  0
LINE
  8
104
  6
CONTINUOUS
 62
40
 10
1.7794316E+002
 20
2.4667613E+002
 11
1.7794316E+002
 21
2.4767615E+002
  0
LINE
  8
104
  6
CONTINUOUS
 62
40
 10
2.0095918E+002
 20
2.7767611E+002
 11
1.6545918E+002
 21
2.7767611E+002
  0
ARC
  8
104
  6
CONTINUOUS
 62
40
 10
1.6545917E+002
 20
2.7567613E+002
 40
1.9999864
 50
8.9999609E+001
 51
1.7999996E+002
  0
LINE
  8
104
  6
CONTINUOUS
 62
40
 10
1.6345918E+002
 20
2.7567613E+002
 11
1.6345918E+002
 21
2.4967613E+002
  0
ARC
  8
104
  6
CONTINUOUS
 62
40
 10
1.6545918E+002
 20
2.4967615E+002
 40
2.0000006
 50
1.8000048E+002
 51
2.6999998E+002
  0
LINE
  8
104
  6
CONTINUOUS
 62
40
 10
1.6545918E+002
 20
2.4767615E+002
 11
2.0095918E+002
 21
2.4767615E+002
  0
LINE
  8
104
  6
CONTINUOUS
 62
40
 10
2.0095918E+002
 20
2.4767615E+002
 11
2.0095918E+002
 21
2.7767611E+002
  0
ARC
  8
105
  6
HIDDEN
 62
1
 10
1.7270919E+002
 20
2.7187612E+002
 40
9.9999302E-001
 50
8.99996E+001
 51
1.800004E+002
  0
LINE
  8
105
  6
HIDDEN
 62
1
 10
1.7170919E+002
 20
2.7187611E+002
 11
1.7170919E+002
 21
2.6722612E+002
  0
LINE
  8
105
  6
HIDDEN
 62
1
 10
1.7170919E+002
 20
2.6722612E+002
 11
1.7295919E+002
 21
2.6722612E+002
  0
LINE
  8
105
  6
HIDDEN
 62
1
 10
1.7295919E+002
 20
2.6722612E+002
 11
1.7295919E+002
 21
2.6469612E+002
  0
LINE
  8
105
  6
HIDDEN
 62
1
 10
1.7295919E+002
 20
2.6469612E+002
 11
1.7089921E+002
 21
2.6469612E+002
  0
ARC
  8
105
  6
HIDDEN
 62
1
 10
1.7089921E+002
 20
2.6419612E+002
 40
4.9999812E-001
 50
8.9999784E+001
 51
1.8000193E+002
  0
LINE
  8
105
  6
HIDDEN
 62
1
 10
1.7039921E+002
 20
2.641961E+002
 11
1.7039921E+002
 21
2.6042613E+002
  0
LINE
  8
105
  6
HIDDEN
 62
1
 10
1.7039921E+002
 20
2.6042613E+002
 11
1.7039921E+002
 21
2.5492613E+002
  0
LINE
  8
105
  6
HIDDEN
 62
1
 10
1.7039921E+002
 20
2.5492613E+002
 11
1.7039921E+002
 21
2.5137608E+002
  0
ARC
  8
105
  6
HIDDEN
 62
1
 10
1.7089921E+002
 20
2.513761E+002
 40
4.9999837E-001
 50
1.8000165E+002
 51
2.6999847E+002
  0
LINE
  8
105
  6
HIDDEN
 62
1
 10
1.708992E+002
 20
2.508761E+002
 11
1.7395919E+002
 21
2.508761E+002
  0
LINE
  8
105
  6
HIDDEN
 62
1
 10
1.7395919E+002
 20
2.508761E+002
 11
1.7395919E+002
 21
2.4967613E+002
  0
LINE
  8
105
  6
HIDDEN
 62
1
 10
1.7395919E+002
 20
2.4967613E+002
 11
1.7245919E+002
 21
2.4967613E+002
  0
LINE
  8
105
  6
HIDDEN
 62
1
 10
1.7245919E+002
 20
2.4967613E+002
 11
1.7145919E+002
 21
2.4867613E+002
  0
LINE
  8
105
  6
HIDDEN
 62
1
 10
1.7145919E+002
 20
2.4867613E+002
 11
1.6745918E+002
 21
2.4867613E+002
  0
LINE
  8
105
  6
HIDDEN
 62
1
 10
1.6745918E+002
 20
2.4867613E+002
 11
1.6645919E+002
 21
2.4967612E+002
  0
LINE
  8
105
  6
HIDDEN
 62
1
 10
1.6645919E+002
 20
2.4967612E+002
 11
1.6545919E+002
 21
2.4967612E+002
  0
ARC
  8
105
  6
HIDDEN
 62
1
 10
1.6545922E+002
 20
2.5017614E+002
 40
5.0002643E-001
 50
1.8000303E+002
 51
2.6999697E+002
  0
LINE
  8
105
  6
HIDDEN
 62
1
 10
1.6495919E+002
 20
2.5017612E+002
 11
1.6495919E+002
 21
2.5242613E+002
  0
LINE
  8
105
  6
HIDDEN
 62
1
 10
1.6495919E+002
 20
2.5242613E+002
 11
1.6745919E+002
 21
2.5242613E+002
  0
LINE
  8
105
  6
HIDDEN
 62
1
 10
1.6745919E+002
 20
2.5242613E+002
 11
1.6745919E+002
 21
2.6292613E+002
  0
LINE
  8
105
  6
HIDDEN
 62
1
 10
1.6745919E+002
 20
2.6292613E+002
 11
1.6495919E+002
 21
2.6292613E+002
  0
LINE
  8
105
  6
HIDDEN
 62
1
 10
1.6495919E+002
 20
2.6292613E+002
 11
1.6495919E+002
 21
2.6747545E+002
  0
ARC
  8
105
  6
HIDDEN
 62
1
 10
1.6525919E+002
 20
2.6747545E+002
 40
2.9999605E-001
 50
4.8187996E+001
 51
1.8000077E+002
  0
ARC
  8
105
  6
HIDDEN
 62
1
 10
1.6695919E+002
 20
2.693761E+002
 40
2.2500027
 50
2.2818975E+002
 51
4.918108E+002
  0
ARC
  8
105
  6
HIDDEN
 62
1
 10
1.6525918E+002
 20
2.7127675E+002
 40
2.9999908E-001
 50
1.8000033E+002
 51
3.1181071E+002
  0
LINE
  8
105
  6
HIDDEN
 62
1
 10
1.6495918E+002
 20
2.7127675E+002
 11
1.6495918E+002
 21
2.7517615E+002
  0
ARC
  8
105
  6
HIDDEN
 62
1
 10
1.6545918E+002
 20
2.7517615E+002
 40
4.999968E-001
 50
8.99978E+001
 51
1.8000037E+002
  0
LINE
  8
105
  6
HIDDEN
 62
1
 10
1.6545919E+002
 20
2.7567615E+002
 11
1.6645919E+002
 21
2.7567615E+002
  0
LINE
  8
105
  6
HIDDEN
 62
1
 10
1.6645919E+002
 20
2.7567615E+002
 11
1.6745919E+002
 21
2.7667615E+002
  0
LINE
  8
105
  6
HIDDEN
 62
1
 10
1.6745919E+002
 20
2.7667615E+002
 11
1.7145919E+002
 21
2.7667615E+002
  0
LINE
  8
105
  6
HIDDEN
 62
1
 10
1.7145919E+002
 20
2.7667615E+002
 11
1.7245919E+002
 21
2.7567615E+002
  0
LINE
  8
105
  6
HIDDEN
 62
1
 10
1.7245919E+002
 20
2.7567615E+002
 11
1.7375209E+002
 21
2.7567613E+002
  0
ARC
  8
105
  6
HIDDEN
 62
1
 10
1.7375208E+002
 20
2.761761E+002
 40
4.9997239E-001
 50
2.7000038E+002
 51
3.1500251E+002
  0
LINE
  8
105
  6
HIDDEN
 62
1
 10
1.7410563E+002
 20
2.7582258E+002
 11
1.746663E+002
 21
2.7638324E+002
  0
ARC
  8
105
  6
HIDDEN
 62
1
 10
1.7537345E+002
 20
2.7567607E+002
 40
1.0000752
 50
9.0002561E+001
 51
1.3499941E+002
  0
LINE
  8
105
  6
HIDDEN
 62
1
 10
1.7537341E+002
 20
2.7667615E+002
 11
1.9054496E+002
 21
2.7667615E+002
  0
ARC
  8
105
  6
HIDDEN
 62
1
 10
1.9054506E+002
 20
2.7567642E+002
 40
9.9972348E-001
 50
4.4992238E+001
 51
9.0005788E+001
  0
LINE
  8
105
  6
HIDDEN
 62
1
 10
1.9125207E+002
 20
2.7638324E+002
 11
1.9181274E+002
 21
2.7582258E+002
  0
ARC
  8
105
  6
HIDDEN
 62
1
 10
1.9216638E+002
 20
2.7617632E+002
 40
5.0019419E-001
 50
2.2500802E+002
 51
2.6998909E+002
  0
LINE
  8
105
  6
HIDDEN
 62
1
 10
1.9216629E+002
 20
2.7567613E+002
 11
1.9345919E+002
 21
2.7567615E+002
  0
LINE
  8
105
  6
HIDDEN
 62
1
 10
1.9345919E+002
 20
2.7567615E+002
 11
1.9445918E+002
 21
2.7667615E+002
  0
LINE
  8
105
  6
HIDDEN
 62
1
 10
1.9445918E+002
 20
2.7667615E+002
 11
1.9845918E+002
 21
2.7667615E+002
  0
LINE
  8
105
  6
HIDDEN
 62
1
 10
1.9845918E+002
 20
2.7667615E+002
 11
1.9945918E+002
 21
2.7567615E+002
  0
LINE
  8
105
  6
HIDDEN
 62
1
 10
1.9945918E+002
 20
2.7567615E+002
 11
2.0045918E+002
 21
2.7567615E+002
  0
ARC
  8
105
  6
HIDDEN
 62
1
 10
2.004592E+002
 20
2.7517617E+002
 40
4.9997828E-001
 50
3.5999751E+002
 51
4.5000249E+002
  0
LINE
  8
105
  6
HIDDEN
 62
1
 10
2.0095918E+002
 20
2.7517615E+002
 11
2.0095918E+002
 21
2.7127676E+002
  0
ARC
  8
105
  6
HIDDEN
 62
1
 10
2.0065918E+002
 20
2.7127676E+002
 40
3.0000236E-001
 50
2.2798718E+002
 51
3.5999995E+002
  0
ARC
  8
105
  6
HIDDEN
 62
1
 10
1.9895918E+002
 20
2.693761E+002
 40
2.2500008
 50
4.821679E+001
 51
3.118103E+002
  0
ARC
  8
105
  6
HIDDEN
 62
1
 10
2.0065918E+002
 20
2.6747545E+002
 40
2.9999871E-001
 50
3.662431E-004
 51
1.3181086E+002
  0
LINE
  8
105
  6
HIDDEN
 62
1
 10
2.0095918E+002
 20
2.6747545E+002
 11
2.0095918E+002
 21
2.6292613E+002
  0
LINE
  8
105
  6
HIDDEN
 62
1
 10
2.0095918E+002
 20
2.6292613E+002
 11
1.9845918E+002
 21
2.6292613E+002
  0
LINE
  8
105
  6
HIDDEN
 62
1
 10
1.9845918E+002
 20
2.6292613E+002
 11
1.9845918E+002
 21
2.5242613E+002
  0
LINE
  8
105
  6
HIDDEN
 62
1
 10
1.9845918E+002
 20
2.5242613E+002
 11
2.0095918E+002
 21
2.5242613E+002
  0
LINE
  8
105
  6
HIDDEN
 62
1
 10
2.0095918E+002
 20
2.5242613E+002
 11
2.0095918E+002
 21
2.5017612E+002
  0
ARC
  8
105
  6
HIDDEN
 62
1
 10
2.0045918E+002
 20
2.5017612E+002
 40
5.0000247E-001
 50
2.7000028E+002
 51
3.5999972E+002
  0
LINE
  8
105
  6
HIDDEN
 62
1
 10
2.0045918E+002
 20
2.4967612E+002
 11
1.9945918E+002
 21
2.4967612E+002
  0
LINE
  8
105
  6
HIDDEN
 62
1
 10
1.9945918E+002
 20
2.4967612E+002
 11
1.9845918E+002
 21
2.4867613E+002
  0
LINE
  8
105
  6
HIDDEN
 62
1
 10
1.9845918E+002
 20
2.4867613E+002
 11
1.9445918E+002
 21
2.4867613E+002
  0
LINE
  8
105
  6
HIDDEN
 62
1
 10
1.9445918E+002
 20
2.4867613E+002
 11
1.9345919E+002
 21
2.4967613E+002
  0
LINE
  8
105
  6
HIDDEN
 62
1
 10
1.9345919E+002
 20
2.4967613E+002
 11
1.9195919E+002
 21
2.4967613E+002
  0
LINE
  8
105
  6
HIDDEN
 62
1
 10
1.9195919E+002
 20
2.4967613E+002
 11
1.9195919E+002
 21
2.5087611E+002
  0
LINE
  8
105
  6
HIDDEN
 62
1
 10
1.9195919E+002
 20
2.5087611E+002
 11
1.9501918E+002
 21
2.5087611E+002
  0
ARC
  8
105
  6
HIDDEN
 62
1
 10
1.9501919E+002
 20
2.5137611E+002
 40
5.0000178E-001
 50
2.6999848E+002
 51
3.5999624E+002
  0
LINE
  8
105
  6
HIDDEN
 62
1
 10
1.9551919E+002
 20
2.5137608E+002
 11
1.9551919E+002
 21
2.641961E+002
  0
ARC
  8
105
  6
HIDDEN
 62
1
 10
1.9501921E+002
 20
2.6419612E+002
 40
4.9998652E-001
 50
3.5999846E+002
 51
4.5000154E+002
  0
LINE
  8
105
  6
HIDDEN
 62
1
 10
1.9501919E+002
 20
2.646961E+002
 11
1.9295919E+002
 21
2.646961E+002
  0
LINE
  8
105
  6
HIDDEN
 62
1
 10
1.9295919E+002
 20
2.646961E+002
 11
1.9295919E+002
 21
2.6722612E+002
  0
LINE
  8
105
  6
HIDDEN
 62
1
 10
1.9295919E+002
 20
2.6722612E+002
 11
1.9420918E+002
 21
2.6722612E+002
  0
LINE
  8
105
  6
HIDDEN
 62
1
 10
1.9420918E+002
 20
2.6722612E+002
 11
1.9420918E+002
 21
2.7187611E+002
  0
ARC
  8
105
  6
HIDDEN
 62
1
 10
1.9320921E+002
 20
2.7187615E+002
 40
9.9996651E-001
 50
3.5999808E+002
 51
4.50001E+002
  0
LINE
  8
105
  6
HIDDEN
 62
1
 10
1.9320919E+002
 20
2.7287611E+002
 11
1.8882521E+002
 21
2.7287611E+002
  0
ARC
  8
105
  6
HIDDEN
 62
1
 10
1.8882522E+002
 20
2.7387611E+002
 40
9.999942E-001
 50
2.0999981E+002
 51
2.6999942E+002
  0
ARC
  8
105
  6
HIDDEN
 62
1
 10
1.8709317E+002
 20
2.7287611E+002
 40
1.0000011
 50
3.0000037E+001
 51
9.0000112E+001
  0
LINE
  8
105
  6
HIDDEN
 62
1
 10
1.8709317E+002
 20
2.7387611E+002
 11
1.7882522E+002
 21
2.7387611E+002
  0
ARC
  8
105
  6
HIDDEN
 62
1
 10
1.7882522E+002
 20
2.7287611E+002
 40
1.0000007
 50
8.9999931E+001
 51
1.4999998E+002
  0
ARC
  8
105
  6
HIDDEN
 62
1
 10
1.7709317E+002
 20
2.7387611E+002
 40
1.0000011
 50
2.6999989E+002
 51
3.2999996E+002
  0
LINE
  8
105
  6
HIDDEN
 62
1
 10
1.7709317E+002
 20
2.7287611E+002
 11
1.7270919E+002
 21
2.7287611E+002
  0
LINE
  8
105
  6
HIDDEN
 62
1
 10
1.7270919E+002
 20
2.7287611E+002
 11
1.7270919E+002
 21
2.7287611E+002
  0
LINE
  8
105
  6
HIDDEN
 62
1
 10
2.0095918E+002
 20
2.5517612E+002
 11
1.6994316E+002
 21
2.5517612E+002
  0
LINE
  8
105
  6
HIDDEN
 62
1
 10
1.6994316E+002
 20
2.5517612E+002
 11
1.6744316E+002
 21
2.5267613E+002
  0
LINE
  8
105
  6
HIDDEN
 62
1
 10
1.6744316E+002
 20
2.5267613E+002
 11
1.6744316E+002
 21
2.6267613E+002
  0
LINE
  8
105
  6
HIDDEN
 62
1
 10
1.6744316E+002
 20
2.6267613E+002
 11
1.6994316E+002
 21
2.6017613E+002
  0
LINE
  8
105
  6
HIDDEN
 62
1
 10
1.6994316E+002
 20
2.6017613E+002
 11
1.7044316E+002
 21
2.6017613E+002
  0
LINE
  8
105
  6
HIDDEN
 62
1
 10
1.7044316E+002
 20
2.6017613E+002
 11
2.0095918E+002
 21
2.6017613E+002
  0
LINE
  8
105
  6
HIDDEN
 62
1
 10
1.6994316E+002
 20
2.6017613E+002
 11
1.6994316E+002
 21
2.5517613E+002
  0
LINE
  8
106
  6
CENTERLINE
 62
1
 10
1.6693339E+002
 20
2.5767613E+002
 11
2.0095918E+002
 21
2.5767613E+002
  0
LINE
  8
98
  6
CONTINUOUS
 62
1
 10
3.6573559E+002
 20
1.9148702E+002
 11
3.5473559E+002
 21
1.9148702E+002
  0
LINE
  8
98
  6
CONTINUOUS
 62
1
 10
3.5473559E+002
 20
1.9148702E+002
 11
3.5473559E+002
 21
1.9648702E+002
  0
LINE
  8
98
  6
CONTINUOUS
 62
1
 10
3.5473559E+002
 20
1.9648702E+002
 11
3.6573559E+002
 21
1.9648702E+002
  0
LINE
  8
98
  6
CONTINUOUS
 62
1
 10
3.6573559E+002
 20
1.9648702E+002
 11
3.6573559E+002
 21
1.9148702E+002
  0
LINE
  8
99
  6
CONTINUOUS
 62
1
 10
3.5473562E+002
 20
1.9548702E+002
 11
3.6573562E+002
 21
1.9548702E+002
  0
LINE
  8
99
  6
CONTINUOUS
 62
1
 10
3.6573562E+002
 20
1.9248702E+002
 11
3.5473562E+002
 21
1.9248702E+002
  0
LINE
  8
106
  6
CENTERLINE
 62
1
 10
3.4705789E+002
 20
1.9398702E+002
 11
3.6751745E+002
 21
1.9398702E+002
  0
LINE
  8
98
  6
CONTINUOUS
 62
1
 10
3.6573559E+002
 20
1.7548701E+002
 11
3.5473559E+002
 21
1.7548701E+002
  0
LINE
  8
98
  6
CONTINUOUS
 62
1
 10
3.5473559E+002
 20
1.7548701E+002
 11
3.5473559E+002
 21
1.8048701E+002
  0
LINE
  8
98
  6
CONTINUOUS
 62
1
 10
3.5473559E+002
 20
1.8048701E+002
 11
3.6573559E+002
 21
1.8048701E+002
  0
LINE
  8
98
  6
CONTINUOUS
 62
1
 10
3.6573559E+002
 20
1.8048701E+002
 11
3.6573559E+002
 21
1.7548701E+002
  0
LINE
  8
99
  6
CONTINUOUS
 62
1
 10
3.5473559E+002
 20
1.7948701E+002
 11
3.6573559E+002
 21
1.7948701E+002
  0
LINE
  8
99
  6
CONTINUOUS
 62
1
 10
3.6573559E+002
 20
1.7648701E+002
 11
3.5473559E+002
 21
1.7648701E+002
  0
LINE
  8
106
  6
CENTERLINE
 62
1
 10
3.4705786E+002
 20
1.7798701E+002
 11
3.6751745E+002
 21
1.7798701E+002
  0
LINE
  8
99
  6
CONTINUOUS
 62
1
 10
3.5473562E+002
 20
2.3223702E+002
 11
3.5473562E+002
 21
2.3598702E+002
  0
LINE
  8
99
  6
CONTINUOUS
 62
1
 10
3.5473562E+002
 20
2.3598702E+002
 11
3.6182592E+002
 21
2.3598702E+002
  0
LINE
  8
106
  6
CENTERLINE
 62
1
 10
3.2673559E+002
 20
2.2885527E+002
 11
3.2673553E+002
 21
2.49237E+002
  0
LINE
  8
104
  6
CONTINUOUS
 62
40
 10
3.3773559E+002
 20
2.4048696E+002
 11
3.3773559E+002
 21
2.3223702E+002
  0
LINE
  8
104
  6
CONTINUOUS
 62
40
 10
3.1573559E+002
 20
2.3223702E+002
 11
3.1573559E+002
 21
2.4548698E+002
  0
LINE
  8
104
  6
CONTINUOUS
 62
40
 10
3.1573559E+002
 20
2.4548698E+002
 11
3.3426055E+002
 21
2.4548698E+002
  0
LINE
  8
104
  6
CONTINUOUS
 62
40
 10
3.1573559E+002
 20
2.4048696E+002
 11
3.3418139E+002
 21
2.4048696E+002
  0
LINE
  8
104
  6
CONTINUOUS
 62
40
 10
3.3773559E+002
 20
2.4048698E+002
 11
3.3773559E+002
 21
2.3223701E+002
  0
LINE
  8
99
  6
CONTINUOUS
 62
1
 10
3.5473559E+002
 20
2.0223698E+002
 11
3.5473559E+002
 21
2.2998698E+002
  0
ARC
  8
99
  6
CONTINUOUS
 62
1
 10
3.5423561E+002
 20
2.29987E+002
 40
4.9997938E-001
 50
3.5999764E+002
 51
4.5000236E+002
  0
LINE
  8
99
  6
CONTINUOUS
 62
1
 10
3.5423559E+002
 20
2.3048698E+002
 11
3.5264269E+002
 21
2.3048698E+002
  0
ARC
  8
99
  6
CONTINUOUS
 62
1
 10
3.5264278E+002
 20
2.3098712E+002
 40
5.0013882E-001
 50
2.2500798E+002
 51
2.6999012E+002
  0
LINE
  8
99
  6
CONTINUOUS
 62
1
 10
3.5228918E+002
 20
2.3063342E+002
 11
3.5158202E+002
 21
2.3134053E+002
  0
ARC
  8
99
  6
CONTINUOUS
 62
1
 10
3.5122855E+002
 20
2.3098719E+002
 40
4.9978772E-001
 50
4.4988722E+001
 51
9.0004948E+001
  0
LINE
  8
99
  6
CONTINUOUS
 62
1
 10
3.5122851E+002
 20
2.3148698E+002
 11
3.5104272E+002
 21
2.3148698E+002
  0
ARC
  8
99
  6
CONTINUOUS
 62
1
 10
3.510426E+002
 20
2.3098723E+002
 40
4.9975134E-001
 50
8.9986446E+001
 51
1.3501301E+002
  0
LINE
  8
99
  6
CONTINUOUS
 62
1
 10
3.5068914E+002
 20
2.3134053E+002
 11
3.4988207E+002
 21
2.3053344E+002
  0
ARC
  8
99
  6
CONTINUOUS
 62
1
 10
3.5023555E+002
 20
2.3017987E+002
 40
4.9996424E-001
 50
1.3499208E+002
 51
1.7999829E+002
  0
LINE
  8
99
  6
CONTINUOUS
 62
1
 10
3.4973559E+002
 20
2.3017988E+002
 11
3.4973559E+002
 21
1.7429408E+002
  0
ARC
  8
99
  6
CONTINUOUS
 62
1
 10
3.502357E+002
 20
1.7429415E+002
 40
5.0010768E-001
 50
1.8000864E+002
 51
2.2500111E+002
  0
LINE
  8
99
  6
CONTINUOUS
 62
1
 10
3.4988207E+002
 20
1.7394052E+002
 11
3.5068914E+002
 21
1.7313343E+002
  0
ARC
  8
99
  6
CONTINUOUS
 62
1
 10
3.5104272E+002
 20
1.7348702E+002
 40
5.000426E-001
 50
2.2500082E+002
 51
2.6999972E+002
  0
LINE
  8
99
  6
CONTINUOUS
 62
1
 10
3.5104272E+002
 20
1.7298698E+002
 11
3.5122851E+002
 21
1.7298698E+002
  0
ARC
  8
99
  6
CONTINUOUS
 62
1
 10
3.512285E+002
 20
1.734869E+002
 40
4.9992351E-001
 50
2.700015E+002
 51
3.1500483E+002
  0
LINE
  8
99
  6
CONTINUOUS
 62
1
 10
3.5158202E+002
 20
1.7313343E+002
 11
3.5228918E+002
 21
1.7384054E+002
  0
ARC
  8
99
  6
CONTINUOUS
 62
1
 10
3.5264275E+002
 20
1.7348692E+002
 40
5.0005725E-001
 50
9.0006129E+001
 51
1.3499605E+002
  0
LINE
  8
99
  6
CONTINUOUS
 62
1
 10
3.5264269E+002
 20
1.7398698E+002
 11
3.5423559E+002
 21
1.7398698E+002
  0
ARC
  8
99
  6
CONTINUOUS
 62
1
 10
3.5423559E+002
 20
1.7448698E+002
 40
5.0000344E-001
 50
2.7000039E+002
 51
3.5999961E+002
  0
LINE
  8
99
  6
CONTINUOUS
 62
1
 10
3.5473559E+002
 20
1.7448698E+002
 11
3.5473559E+002
 21
2.0223698E+002
  0
LINE
  8
106
  6
CENTERLINE
 62
1
 10
3.471946E+002
 20
2.2098702E+002
 11
3.5768642E+002
 21
2.2098702E+002
  0
LINE
  8
106
  6
CENTERLINE
 62
1
 10
3.4746804E+002
 20
2.0498702E+002
 11
3.5749789E+002
 21
2.0498702E+002
  0
LINE
  8
106
  6
CENTERLINE
 62
1
 10
3.4705789E+002
 20
1.9398702E+002
 11
3.5706893E+002
 21
1.9398702E+002
  0
LINE
  8
106
  6
CENTERLINE
 62
1
 10
3.4705789E+002
 20
1.7798702E+002
 11
3.5745632E+002
 21
1.7798701E+002
  0
LINE
  8
99
  6
CONTINUOUS
 62
1
 10
3.4973562E+002
 20
1.8348701E+002
 11
3.5273562E+002
 21
1.8048701E+002
  0
LINE
  8
99
  6
CONTINUOUS
 62
1
 10
3.5273562E+002
 20
1.8048701E+002
 11
3.5273562E+002
 21
1.7548701E+002
  0
LINE
  8
99
  6
CONTINUOUS
 62
1
 10
3.5273562E+002
 20
1.7548701E+002
 11
3.5053567E+002
 21
1.73287E+002
  0
LINE
  8
99
  6
CONTINUOUS
 62
1
 10
3.4973562E+002
 20
1.9948702E+002
 11
3.5273562E+002
 21
1.9648702E+002
  0
LINE
  8
99
  6
CONTINUOUS
 62
1
 10
3.5273562E+002
 20
1.9648702E+002
 11
3.5273562E+002
 21
1.9148702E+002
  0
LINE
  8
99
  6
CONTINUOUS
 62
1
 10
3.5273562E+002
 20
1.9148702E+002
 11
3.4973562E+002
 21
1.8848702E+002
  0
LINE
  8
99
  6
CONTINUOUS
 62
1
 10
3.5273562E+002
 20
1.9148702E+002
 11
3.5473562E+002
 21
1.9148702E+002
  0
LINE
  8
99
  6
CONTINUOUS
 62
1
 10
3.5473562E+002
 20
1.9648702E+002
 11
3.5273562E+002
 21
1.9648702E+002
  0
LINE
  8
99
  6
CONTINUOUS
 62
1
 10
3.5273562E+002
 20
1.8048702E+002
 11
3.5473562E+002
 21
1.8048702E+002
  0
LINE
  8
99
  6
CONTINUOUS
 62
1
 10
3.5473562E+002
 20
1.7548702E+002
 11
3.5273562E+002
 21
1.7548702E+002
  0
LINE
  8
99
  6
CONTINUOUS
 62
1
 10
3.4973562E+002
 20
2.2648702E+002
 11
3.5273562E+002
 21
2.2348702E+002
  0
LINE
  8
99
  6
CONTINUOUS
 62
1
 10
3.5273562E+002
 20
2.2348702E+002
 11
3.5273562E+002
 21
2.1848702E+002
  0
LINE
  8
99
  6
CONTINUOUS
 62
1
 10
3.5273562E+002
 20
2.1848702E+002
 11
3.4973562E+002
 21
2.1548702E+002
  0
LINE
  8
99
  6
CONTINUOUS
 62
1
 10
3.5273562E+002
 20
2.2348702E+002
 11
3.5473562E+002
 21
2.2348702E+002
  0
LINE
  8
99
  6
CONTINUOUS
 62
1
 10
3.5473562E+002
 20
2.1848702E+002
 11
3.5273562E+002
 21
2.1848702E+002
  0
LINE
  8
99
  6
CONTINUOUS
 62
1
 10
3.4973562E+002
 20
2.1048702E+002
 11
3.5273562E+002
 21
2.0748702E+002
  0
LINE
  8
99
  6
CONTINUOUS
 62
1
 10
3.5273562E+002
 20
2.0748702E+002
 11
3.5273562E+002
 21
2.0248702E+002
  0
LINE
  8
99
  6
CONTINUOUS
 62
1
 10
3.5273562E+002
 20
2.0248702E+002
 11
3.4973562E+002
 21
1.9948702E+002
  0
LINE
  8
99
  6
CONTINUOUS
 62
1
 10
3.5273562E+002
 20
2.0748702E+002
 11
3.5473562E+002
 21
2.0748702E+002
  0
LINE
  8
99
  6
CONTINUOUS
 62
1
 10
3.5473562E+002
 20
2.0248702E+002
 11
3.5273562E+002
 21
2.0248702E+002
  0
LINE
  8
104
  6
CONTINUOUS
 62
40
 10
3.5473562E+002
 20
1.7223701E+002
 11
3.5473562E+002
 21
2.3223702E+002
  0
LINE
  8
104
  6
CONTINUOUS
 62
40
 10
3.5473562E+002
 20
2.3223702E+002
 11
3.0477249E+002
 21
2.3223702E+002
  0
ARC
  8
104
  6
CONTINUOUS
 62
40
 10
3.047738E+002
 20
2.2921628E+002
 40
3.0207443
 50
9.0024943E+001
 51
1.1241279E+002
  0
ARC
  8
104
  6
CONTINUOUS
 62
40
 10
3.0478434E+002
 20
2.2918872E+002
 40
3.0502385
 50
1.1239836E+002
 51
1.3464164E+002
  0
ARC
  8
104
  6
CONTINUOUS
 62
40
 10
3.0478375E+002
 20
2.2918779E+002
 40
3.0504888
 50
1.3462157E+002
 51
1.5686364E+002
  0
ARC
  8
104
  6
CONTINUOUS
 62
40
 10
3.0475665E+002
 20
2.2919854E+002
 40
3.0213464
 50
1.5684905E+002
 51
1.7923392E+002
  0
LINE
  8
104
  6
CONTINUOUS
 62
40
 10
3.0173557E+002
 20
2.2923893E+002
 11
3.0173757E+002
 21
1.7523895E+002
  0
ARC
  8
104
  6
CONTINUOUS
 62
40
 10
3.047376E+002
 20
1.7523702E+002
 40
3.0000275
 50
1.7996323E+002
 51
2.6999949E+002
  0
LINE
  8
104
  6
CONTINUOUS
 62
40
 10
3.0473757E+002
 20
1.72237E+002
 11
3.5473562E+002
 21
1.7223701E+002
  0
ARC
  8
104
  6
CONTINUOUS
 62
40
 10
3.1203561E+002
 20
2.5098703E+002
 40
2.0000038
 50
1.8000054E+002
 51
2.6999989E+002
  0
LINE
  8
104
  6
CONTINUOUS
 62
40
 10
3.1203561E+002
 20
2.4898702E+002
 11
3.5473562E+002
 21
2.4898702E+002
  0
LINE
  8
104
  6
CONTINUOUS
 62
40
 10
3.5473562E+002
 20
2.4898702E+002
 11
3.5473562E+002
 21
2.7948703E+002
  0
LINE
  8
104
  6
CONTINUOUS
 62
40
 10
3.5473562E+002
 20
2.7948703E+002
 11
3.1203561E+002
 21
2.7948703E+002
  0
ARC
  8
104
  6
CONTINUOUS
 62
40
 10
3.120356E+002
 20
2.7748704E+002
 40
1.9999879
 50
8.9999654E+001
 51
1.8000035E+002
  0
LINE
  8
104
  6
CONTINUOUS
 62
40
 10
3.1003561E+002
 20
2.7748703E+002
 11
3.1003561E+002
 21
2.5098701E+002
  0
LINE
  8
104
  6
CONTINUOUS
 62
40
 10
3.3426055E+002
 20
2.4548698E+002
 11
3.5023559E+002
 21
2.4548698E+002
  0
LINE
  8
104
  6
CONTINUOUS
 62
40
 10
3.5023559E+002
 20
2.4548698E+002
 11
3.5023559E+002
 21
2.4048696E+002
  0
LINE
  8
104
  6
CONTINUOUS
 62
40
 10
3.5023559E+002
 20
2.4048696E+002
 11
3.3418139E+002
 21
2.4048696E+002
  0
LINE
  8
98
  6
CONTINUOUS
 62
1
 10
3.6871957E+002
 20
2.6148703E+002
 11
3.5473559E+002
 21
2.6148703E+002
  0
LINE
  8
98
  6
CONTINUOUS
 62
1
 10
3.5473559E+002
 20
2.6148703E+002
 11
3.5473559E+002
 21
2.5648703E+002
  0
LINE
  8
98
  6
CONTINUOUS
 62
1
 10
3.5473559E+002
 20
2.5648703E+002
 11
3.6871957E+002
 21
2.5648703E+002
  0
LINE
  8
98
  6
CONTINUOUS
 62
1
 10
3.6871957E+002
 20
2.5648703E+002
 11
3.6871957E+002
 21
2.6148703E+002
  0
LINE
  8
99
  6
CONTINUOUS
 62
1
 10
3.5473559E+002
 20
2.6073703E+002
 11
3.6871957E+002
 21
2.6073703E+002
  0
LINE
  8
99
  6
CONTINUOUS
 62
1
 10
3.5473559E+002
 20
2.5723703E+002
 11
3.6871957E+002
 21
2.5723703E+002
  0
LINE
  8
106
  6
CENTERLINE
 62
1
 10
3.512098E+002
 20
2.5898703E+002
 11
3.7171761E+002
 21
2.5898703E+002
  0
LINE
  8
106
  6
CENTERLINE
 62
1
 10
3.3923559E+002
 20
2.525485E+002
 11
3.3923559E+002
 21
2.393423E+002
  0
LINE
  8
106
  6
CENTERLINE
 62
1
 10
3.5729534E+002
 20
2.5898703E+002
 11
3.0753262E+002
 21
2.5898703E+002
  0
LINE
  8
104
  6
CONTINUOUS
 62
40
 10
3.4773553E+002
 20
2.4898702E+002
 11
3.4773553E+002
 21
2.4698696E+002
  0
LINE
  8
104
  6
CONTINUOUS
 62
40
 10
3.4773553E+002
 20
2.4698696E+002
 11
3.3073553E+002
 21
2.4698696E+002
  0
LINE
  8
104
  6
CONTINUOUS
 62
40
 10
3.3073553E+002
 20
2.4698696E+002
 11
3.3073553E+002
 21
2.4898702E+002
  0
LINE
  8
104
  6
CONTINUOUS
 62
40
 10
3.3426055E+002
 20
2.4643704E+002
 11
3.3426055E+002
 21
2.4698696E+002
  0
LINE
  8
104
  6
CONTINUOUS
 62
40
 10
3.3426055E+002
 20
2.4698696E+002
 11
3.3426055E+002
 21
2.4548698E+002
  0
LINE
  8
104
  6
CONTINUOUS
 62
40
 10
3.4421063E+002
 20
2.4643704E+002
 11
3.4421063E+002
 21
2.4698696E+002
  0
LINE
  8
104
  6
CONTINUOUS
 62
40
 10
3.4421063E+002
 20
2.4698696E+002
 11
3.442106E+002
 21
2.4548698E+002
  0
LINE
  8
98
  6
CONTINUOUS
 62
1
 10
5.0
 20
5.0
 11
4.15E+002
 21
5.0
  0
LINE
  8
98
  6
CONTINUOUS
 62
1
 10
4.15E+002
 20
5.0
 11
4.15E+002
 21
2.92E+002
  0
LINE
  8
98
  6
CONTINUOUS
 62
1
 10
4.15E+002
 20
2.92E+002
 11
5.0
 21
2.92E+002
  0
LINE
  8
98
  6
CONTINUOUS
 62
1
 10
5.0
 20
2.92E+002
 11
5.0
 21
5.0
  0
TEXT
  8
103
  6
CONTINUOUS
 62
150
 10
1.6370449E+002
 20
4.7129425E+001
 40
3.5
  1
G93EMF-DR
 41
6.5000002E-001
 72
1
 11
1.5346699E+002
 21
4.5379425E+001
 73
2
  0
TEXT
  8
103
  6
CONTINUOUS
 62
150
 10
2.1948816E+002
 20
1.0038173E+002
 40
3.5
  1
G93EMF-DL
 41
6.5000002E-001
 72
1
 11
2.0925066E+002
 21
9.8631728E+001
 73
2
  0
TEXT
  8
103
  6
CONTINUOUS
 62
150
 10
3.64141E+002
 20
1.0176384E+002
 40
3.5
  1
G93EMR-DL
 41
6.5000002E-001
 72
1
 11
3.539035E+002
 21
1.0001384E+002
 73
2
  0
TEXT
  8
103
  6
CONTINUOUS
 62
150
 10
3.1566691E+002
 20
4.7686674E+001
 40
3.5
  1
G93EMR-DR
 41
6.5000002E-001
 72
1
 11
3.0542941E+002
 21
4.5936674E+001
 73
2
  0
TEXT
  8
103
  6
CONTINUOUS
 62
150
 10
4.295819E+001
 20
4.8550152E+001
 40
3.5
  1
G93N(RF)-DR
 41
6.5454547E-001
 72
1
 11
3.0358189E+001
 21
4.6800152E+001
 73
2
  0
TEXT
  8
103
  6
CONTINUOUS
 62
150
 10
9.7972435E+001
 20
9.984027E+001
 40
3.5
  1
G93N(RF)-DL
 41
6.5454547E-001
 72
1
 11
8.5372434E+001
 21
9.809027E+001
 73
2
  0
CIRCLE
  8
99
  6
CONTINUOUS
 62
1
 10
2.1996155E+002
 20
5.8766849E+001
 40
5.99999E-001
  0
LINE
  8
106
  6
CENTERLINE
 62
1
 10
2.2116155E+002
 20
5.8766849E+001
 11
2.1888595E+002
 21
5.8766849E+001
  0
LINE
  8
106
  6
CENTERLINE
 62
1
 10
2.1996155E+002
 20
5.9739772E+001
 11
2.1996155E+002
 21
5.766801E+001
  0
CIRCLE
  8
99
  6
CONTINUOUS
 62
1
 10
1.3436155E+002
 20
5.8764133E+001
 40
5.99998E-001
  0
LINE
  8
104
  6
CONTINUOUS
 62
40
 10
1.3316155E+002
 20
6.2764125E+001
 11
1.3066155E+002
 21
6.2764125E+001
  0
LINE
  8
104
  6
CONTINUOUS
 62
40
 10
1.3066155E+002
 20
6.2764125E+001
 11
1.3066155E+002
 21
5.6764133E+001
  0
LINE
  8
104
  6
CONTINUOUS
 62
40
 10
1.3066155E+002
 20
5.6764133E+001
 11
1.3316155E+002
 21
5.6764133E+001
  0
LINE
  8
104
  6
CONTINUOUS
 62
40
 10
1.3316155E+002
 20
5.6764133E+001
 11
2.2116155E+002
 21
5.6764133E+001
  0
LINE
  8
104
  6
CONTINUOUS
 62
40
 10
2.2116155E+002
 20
5.6764133E+001
 11
2.2116155E+002
 21
6.2764125E+001
  0
LINE
  8
104
  6
CONTINUOUS
 62
40
 10
2.2116155E+002
 20
6.2764125E+001
 11
1.3316155E+002
 21
6.2764125E+001
  0
LINE
  8
104
  6
CONTINUOUS
 62
40
 10
1.3316155E+002
 20
6.2764125E+001
 11
1.3316155E+002
 21
5.6764133E+001
  0
LINE
  8
104
  6
CONTINUOUS
 62
40
 10
2.2366155E+002
 20
5.6764133E+001
 11
2.2116155E+002
 21
5.6764133E+001
  0
LINE
  8
104
  6
CONTINUOUS
 62
40
 10
2.2116155E+002
 20
5.6764133E+001
 11
2.2116155E+002
 21
6.2764125E+001
  0
LINE
  8
104
  6
CONTINUOUS
 62
40
 10
2.2116155E+002
 20
6.2764125E+001
 11
2.2366155E+002
 21
6.2764125E+001
  0
LINE
  8
104
  6
CONTINUOUS
 62
40
 10
2.2366155E+002
 20
6.2764125E+001
 11
2.2366155E+002
 21
5.6764133E+001
  0
LINE
  8
99
  6
CONTINUOUS
 62
1
 10
1.3596919E+002
 20
5.8764133E+001
 11
1.3271546E+002
 21
5.8764133E+001
  0
LINE
  8
99
  6
CONTINUOUS
 62
1
 10
1.3436155E+002
 20
6.0248874E+001
 11
1.3436155E+002
 21
5.7353053E+001
  0
LINE
  8
104
  6
CONTINUOUS
 62
40
 10
2.1596154E+002
 20
5.6064136E+001
 11
2.1596154E+002
 21
5.6164134E+001
  0
ARC
  8
104
  6
CONTINUOUS
 62
40
 10
2.1586154E+002
 20
5.6164129E+001
 40
1.0000363E-001
 50
2.995171E-003
 51
9.0001359E+001
  0
LINE
  8
104
  6
CONTINUOUS
 62
40
 10
2.1586154E+002
 20
5.6264133E+001
 11
2.1406154E+002
 21
5.6264133E+001
  0
ARC
  8
104
  6
CONTINUOUS
 62
40
 10
2.1406154E+002
 20
5.6164138E+001
 40
9.9995222E-002
 50
8.9998408E+001
 51
1.8000182E+002
  0
LINE
  8
104
  6
CONTINUOUS
 62
40
 10
2.1396154E+002
 20
5.6164134E+001
 11
2.1396154E+002
 21
5.6064136E+001
  0
LINE
  8
104
  6
CONTINUOUS
 62
40
 10
2.1716154E+002
 20
5.3414134E+001
 11
2.1716154E+002
 21
5.5064136E+001
  0
LINE
  8
104
  6
CONTINUOUS
 62
40
 10
2.1716154E+002
 20
5.5064136E+001
 11
2.1276154E+002
 21
5.5064136E+001
  0
LINE
  8
104
  6
CONTINUOUS
 62
40
 10
2.1276154E+002
 20
5.5064136E+001
 11
2.1276154E+002
 21
5.3414134E+001
  0
LINE
  8
104
  6
CONTINUOUS
 62
40
 10
2.1611654E+002
 20
5.2164134E+001
 11
2.1618154E+002
 21
5.2164134E+001
  0
LINE
  8
104
  6
CONTINUOUS
 62
40
 10
2.1561154E+002
 20
5.5064136E+001
 11
2.1431154E+002
 21
5.5064136E+001
  0
LINE
  8
104
  6
CONTINUOUS
 62
40
 10
1.3826155E+002
 20
5.6764133E+001
 11
1.3826155E+002
 21
5.6264133E+001
  0
LINE
  8
104
  6
CONTINUOUS
 62
40
 10
1.3826155E+002
 20
5.6264133E+001
 11
1.4166155E+002
 21
5.6264133E+001
  0
LINE
  8
104
  6
CONTINUOUS
 62
40
 10
1.4166155E+002
 20
5.6264133E+001
 11
1.4166155E+002
 21
5.6764133E+001
  0
LINE
  8
104
  6
CONTINUOUS
 62
40
 10
1.4096155E+002
 20
5.6264133E+001
 11
1.4096155E+002
 21
5.6064136E+001
  0
LINE
  8
104
  6
CONTINUOUS
 62
40
 10
1.3896155E+002
 20
5.6264133E+001
 11
1.3896155E+002
 21
5.6064136E+001
  0
LINE
  8
104
  6
CONTINUOUS
 62
40
 10
1.4125855E+002
 20
5.5064136E+001
 11
1.4125855E+002
 21
5.496413E+001
  0
ARC
  8
104
  6
CONTINUOUS
 62
40
 10
1.4115855E+002
 20
5.4964135E+001
 40
1.0000358E-001
 50
2.7000262E+002
 51
3.5999709E+002
  0
LINE
  8
104
  6
CONTINUOUS
 62
40
 10
1.4115855E+002
 20
5.4864131E+001
 11
1.3876456E+002
 21
5.4864131E+001
  0
ARC
  8
104
  6
CONTINUOUS
 62
40
 10
1.3876456E+002
 20
5.4964128E+001
 40
9.999649E-002
 50
1.7999885E+002
 51
2.7000144E+002
  0
LINE
  8
104
  6
CONTINUOUS
 62
40
 10
1.3866456E+002
 20
5.496413E+001
 11
1.3866456E+002
 21
5.5064136E+001
  0
LINE
  8
104
  6
CONTINUOUS
 62
40
 10
1.3866456E+002
 20
5.5064136E+001
 11
1.4125855E+002
 21
5.5064136E+001
  0
LINE
  8
99
  6
CONTINUOUS
 62
1
 10
1.3996156E+002
 20
5.4655612E+001
 11
1.3996156E+002
 21
5.7404186E+001
  0
LINE
  8
104
  6
CONTINUOUS
 62
40
 10
2.1614154E+002
 20
5.5064136E+001
 11
2.1378154E+002
 21
5.5064136E+001
  0
LINE
  8
104
  6
CONTINUOUS
 62
40
 10
1.3858834E+002
 20
5.6064136E+001
 11
1.3896656E+002
 21
5.6064136E+001
  0
LINE
  8
104
  6
CONTINUOUS
 62
40
 10
1.4095655E+002
 20
5.6064136E+001
 11
1.4133476E+002
 21
5.6064136E+001
  0
LINE
  8
104
  6
CONTINUOUS
 62
40
 10
1.3876155E+002
 20
5.5064136E+001
 11
1.3896656E+002
 21
5.5064136E+001
  0
LINE
  8
104
  6
CONTINUOUS
 62
40
 10
1.4095655E+002
 20
5.5064136E+001
 11
1.4116155E+002
 21
5.5064136E+001
  0
LINE
  8
104
  6
CONTINUOUS
 62
40
 10
1.3776155E+002
 20
5.5064136E+001
 11
1.3776155E+002
 21
5.6064136E+001
  0
LINE
  8
104
  6
CONTINUOUS
 62
40
 10
1.3776155E+002
 20
5.6064136E+001
 11
1.4133476E+002
 21
5.6064136E+001
  0
LINE
  8
104
  6
CONTINUOUS
 62
40
 10
1.4133476E+002
 20
5.6064136E+001
 11
2.1378154E+002
 21
5.6064136E+001
  0
LINE
  8
104
  6
CONTINUOUS
 62
40
 10
2.1378154E+002
 20
5.6064136E+001
 11
2.1716154E+002
 21
5.6064136E+001
  0
LINE
  8
104
  6
CONTINUOUS
 62
40
 10
2.1716154E+002
 20
5.6064136E+001
 11
2.1716154E+002
 21
5.5064136E+001
  0
LINE
  8
104
  6
CONTINUOUS
 62
40
 10
2.1716154E+002
 20
5.5064136E+001
 11
1.3776155E+002
 21
5.5064136E+001
  0
LINE
  8
106
  6
CENTERLINE
 62
1
 10
2.1496154E+002
 20
5.6623355E+001
 11
2.1496154E+002
 21
5.1955707E+001
  0
CIRCLE
  8
105
  6
HIDDEN
 62
1
 10
2.2156154E+002
 20
5.1164142E+001
 40
1.0
  0
CIRCLE
  8
105
  6
HIDDEN
 62
1
 10
1.9996155E+002
 20
4.9564136E+001
 40
1.0
  0
LINE
  8
106
  6
CENTERLINE
 62
1
 10
1.9996155E+002
 20
5.099747E+001
 11
1.9996155E+002
 21
4.811037E+001
  0
LINE
  8
106
  6
CENTERLINE
 62
1
 10
1.9856304E+002
 20
4.9564136E+001
 11
2.0141005E+002
 21
4.9564136E+001
  0
LINE
  8
106
  6
CENTERLINE
 62
1
 10
2.1116155E+002
 20
5.099747E+001
 11
2.1116155E+002
 21
4.811037E+001
  0
LINE
  8
106
  6
CENTERLINE
 62
1
 10
2.0976304E+002
 20
4.9564136E+001
 11
2.1261004E+002
 21
4.9564136E+001
  0
CIRCLE
  8
105
  6
HIDDEN
 62
1
 10
2.1116155E+002
 20
4.9564136E+001
 40
1.0
  0
CIRCLE
  8
105
  6
HIDDEN
 62
1
 10
1.8956155E+002
 20
4.2564136E+001
 40
1.0
  0
LINE
  8
99
  6
CONTINUOUS
 62
1
 10
2.2156154E+002
 20
4.1063571E+001
 11
2.2156154E+002
 21
5.2718921E+001
  0
LINE
  8
106
  6
CENTERLINE
 62
1
 10
2.2277335E+002
 20
5.1164142E+001
 11
2.200407E+002
 21
5.1164142E+001
  0
LINE
  8
106
  6
CENTERLINE
 62
1
 10
1.8834974E+002
 20
4.2564136E+001
 11
1.9108239E+002
 21
4.2564136E+001
  0
LINE
  8
106
  6
CENTERLINE
 62
1
 10
1.8956155E+002
 20
4.1063571E+001
 11
1.8956155E+002
 21
5.2662082E+001
  0
LINE
  8
106
  6
CENTERLINE
 62
1
 10
1.8834974E+002
 20
4.5764141E+001
 11
1.9108239E+002
 21
4.5764141E+001
  0
LINE
  8
106
  6
CENTERLINE
 62
1
 10
1.8834974E+002
 20
4.7964137E+001
 11
1.9108239E+002
 21
4.7964137E+001
  0
LINE
  8
106
  6
CENTERLINE
 62
1
 10
1.8834974E+002
 20
5.1164142E+001
 11
1.9108239E+002
 21
5.1164142E+001
  0
LINE
  8
106
  6
CENTERLINE
 62
1
 10
2.2277335E+002
 20
4.2564136E+001
 11
2.200407E+002
 21
4.2564136E+001
  0
LINE
  8
106
  6
CENTERLINE
 62
1
 10
2.2277335E+002
 20
4.5764141E+001
 11
2.200407E+002
 21
4.5764141E+001
  0
LINE
  8
106
  6
CENTERLINE
 62
1
 10
2.2277335E+002
 20
4.7964137E+001
 11
2.200407E+002
 21
4.7964137E+001
  0
CIRCLE
  8
105
  6
HIDDEN
 62
1
 10
1.8956155E+002
 20
4.5764141E+001
 40
1.0
  0
CIRCLE
  8
105
  6
HIDDEN
 62
1
 10
1.8956155E+002
 20
4.7964137E+001
 40
1.0
  0
CIRCLE
  8
105
  6
HIDDEN
 62
1
 10
1.8956155E+002
 20
5.1164142E+001
 40
1.0
  0
CIRCLE
  8
105
  6
HIDDEN
 62
1
 10
2.2156154E+002
 20
4.2564136E+001
 40
1.0
  0
CIRCLE
  8
105
  6
HIDDEN
 62
1
 10
2.2156154E+002
 20
4.5764141E+001
 40
1.0
  0
CIRCLE
  8
105
  6
HIDDEN
 62
1
 10
2.2156154E+002
 20
4.7964137E+001
 40
1.0
  0
LINE
  8
104
  6
CONTINUOUS
 62
40
 10
2.3096154E+002
 20
4.1414142E+001
 11
2.3106154E+002
 21
4.1414142E+001
  0
LINE
  8
104
  6
CONTINUOUS
 62
40
 10
2.3106154E+002
 20
4.1414142E+001
 11
2.3266154E+002
 21
4.1414142E+001
  0
ARC
  8
104
  6
CONTINUOUS
 62
40
 10
2.3266154E+002
 20
4.1814147E+001
 40
4.0000522E-001
 50
2.7000089E+002
 51
3.5999838E+002
  0
LINE
  8
104
  6
CONTINUOUS
 62
40
 10
2.3306154E+002
 20
4.1814136E+001
 11
2.3306154E+002
 21
5.3014141E+001
  0
ARC
  8
104
  6
CONTINUOUS
 62
40
 10
2.3266155E+002
 20
5.3014144E+001
 40
3.9999774E-001
 50
3.5999946E+002
 51
4.5000018E+002
  0
LINE
  8
104
  6
CONTINUOUS
 62
40
 10
2.3266154E+002
 20
5.3414142E+001
 11
2.3106154E+002
 21
5.3414142E+001
  0
LINE
  8
104
  6
CONTINUOUS
 62
40
 10
2.3106154E+002
 20
5.3414142E+001
 11
2.3096154E+002
 21
5.3414142E+001
  0
LINE
  8
104
  6
CONTINUOUS
 62
40
 10
2.3096154E+002
 20
5.3414142E+001
 11
1.8016155E+002
 21
5.3414142E+001
  0
LINE
  8
104
  6
CONTINUOUS
 62
40
 10
1.8016155E+002
 20
5.3414142E+001
 11
1.8006155E+002
 21
5.3414142E+001
  0
LINE
  8
104
  6
CONTINUOUS
 62
40
 10
1.8006155E+002
 20
5.3414142E+001
 11
1.7846155E+002
 21
5.3414142E+001
  0
ARC
  8
104
  6
CONTINUOUS
 62
40
 10
1.7846472E+002
 20
5.3010985E+001
 40
4.0316907E-001
 50
9.0450088E+001
 51
1.7999724E+002
  0
LINE
  8
104
  6
CONTINUOUS
 62
40
 10
1.7806155E+002
 20
5.3011005E+001
 11
1.7806155E+002
 21
4.1814136E+001
  0
ARC
  8
104
  6
CONTINUOUS
 62
40
 10
1.7846155E+002
 20
4.1814138E+001
 40
3.9999564E-001
 50
1.8000025E+002
 51
2.7000091E+002
  0
LINE
  8
104
  6
CONTINUOUS
 62
40
 10
1.7846155E+002
 20
4.1414142E+001
 11
1.8006155E+002
 21
4.1414142E+001
  0
LINE
  8
104
  6
CONTINUOUS
 62
40
 10
1.8006155E+002
 20
4.1414142E+001
 11
1.8016155E+002
 21
4.1414142E+001
  0
LINE
  8
104
  6
CONTINUOUS
 62
40
 10
1.8016155E+002
 20
4.1414142E+001
 11
2.3096154E+002
 21
4.1414142E+001
  0
LINE
  8
104
  6
CONTINUOUS
 62
40
 10
1.8006155E+002
 20
5.3414142E+001
 11
1.8006155E+002
 21
4.1514141E+001
  0
LINE
  8
104
  6
CONTINUOUS
 62
40
 10
1.8006155E+002
 20
4.1514141E+001
 11
1.8006155E+002
 21
4.1414142E+001
  0
LINE
  8
104
  6
CONTINUOUS
 62
40
 10
2.3106154E+002
 20
4.1414142E+001
 11
2.3106154E+002
 21
5.3414142E+001
  0
LINE
  8
106
  6
CENTERLINE
 62
1
 10
2.2156154E+002
 20
4.1063571E+001
 11
2.2156154E+002
 21
4.7268649E+001
  0
LINE
  8
106
  6
CENTERLINE
 62
1
 10
2.2156154E+002
 20
4.7268649E+001
 11
2.2156154E+002
 21
5.2006801E+001
  0
LINE
  8
106
  6
CENTERLINE
 62
1
 10
1.8956155E+002
 20
4.1063571E+001
 11
1.8956155E+002
 21
4.7460559E+001
  0
LINE
  8
106
  6
CENTERLINE
 62
1
 10
1.8956155E+002
 20
4.7460559E+001
 11
1.8956155E+002
 21
5.2115138E+001
  0
CIRCLE
  8
99
  6
CONTINUOUS
 62
1
 10
1.427561E+002
 20
1.1163444E+002
 40
5.99998E-001
  0
LINE
  8
106
  6
CENTERLINE
 62
1
 10
1.415561E+002
 20
1.1163444E+002
 11
1.438317E+002
 21
1.1163444E+002
  0
LINE
  8
106
  6
CENTERLINE
 62
1
 10
1.427561E+002
 20
1.1260736E+002
 11
1.427561E+002
 21
1.105356E+002
  0
CIRCLE
  8
99
  6
CONTINUOUS
 62
1
 10
2.283561E+002
 20
1.1163172E+002
 40
5.99999E-001
  0
LINE
  8
104
  6
CONTINUOUS
 62
40
 10
2.295561E+002
 20
1.1563171E+002
 11
2.320561E+002
 21
1.1563171E+002
  0
LINE
  8
104
  6
CONTINUOUS
 62
40
 10
2.320561E+002
 20
1.1563171E+002
 11
2.320561E+002
 21
1.0963172E+002
  0
LINE
  8
104
  6
CONTINUOUS
 62
40
 10
2.320561E+002
 20
1.0963172E+002
 11
2.295561E+002
 21
1.0963172E+002
  0
LINE
  8
104
  6
CONTINUOUS
 62
40
 10
2.295561E+002
 20
1.0963172E+002
 11
1.415561E+002
 21
1.0963172E+002
  0
LINE
  8
104
  6
CONTINUOUS
 62
40
 10
1.415561E+002
 20
1.0963172E+002
 11
1.4155611E+002
 21
1.1563171E+002
  0
LINE
  8
104
  6
CONTINUOUS
 62
40
 10
1.4155611E+002
 20
1.1563171E+002
 11
2.295561E+002
 21
1.1563171E+002
  0
LINE
  8
104
  6
CONTINUOUS
 62
40
 10
2.295561E+002
 20
1.1563171E+002
 11
2.295561E+002
 21
1.0963172E+002
  0
LINE
  8
104
  6
CONTINUOUS
 62
40
 10
1.390561E+002
 20
1.0963172E+002
 11
1.415561E+002
 21
1.0963172E+002
  0
LINE
  8
104
  6
CONTINUOUS
 62
40
 10
1.415561E+002
 20
1.0963172E+002
 11
1.4155611E+002
 21
1.1563171E+002
  0
LINE
  8
104
  6
CONTINUOUS
 62
40
 10
1.4155611E+002
 20
1.1563171E+002
 11
1.390561E+002
 21
1.1563171E+002
  0
LINE
  8
104
  6
CONTINUOUS
 62
40
 10
1.390561E+002
 20
1.1563171E+002
 11
1.390561E+002
 21
1.0963172E+002
  0
LINE
  8
99
  6
CONTINUOUS
 62
1
 10
2.2674847E+002
 20
1.1163172E+002
 11
2.3000219E+002
 21
1.1163172E+002
  0
LINE
  8
99
  6
CONTINUOUS
 62
1
 10
2.283561E+002
 20
1.1311646E+002
 11
2.283561E+002
 21
1.1022064E+002
  0
LINE
  8
104
  6
CONTINUOUS
 62
40
 10
1.4675611E+002
 20
1.0893172E+002
 11
1.4675611E+002
 21
1.0903172E+002
  0
ARC
  8
104
  6
CONTINUOUS
 62
40
 10
1.4685611E+002
 20
1.0903172E+002
 40
1.0000382E-001
 50
8.9998178E+001
 51
1.7999667E+002
  0
LINE
  8
104
  6
CONTINUOUS
 62
40
 10
1.4685611E+002
 20
1.0913172E+002
 11
1.4865611E+002
 21
1.0913172E+002
  0
ARC
  8
104
  6
CONTINUOUS
 62
40
 10
1.4865611E+002
 20
1.0903172E+002
 40
9.9995422E-002
 50
3.5999852E+002
 51
4.5000148E+002
  0
LINE
  8
104
  6
CONTINUOUS
 62
40
 10
1.4875611E+002
 20
1.0903172E+002
 11
1.4875611E+002
 21
1.0893172E+002
  0
LINE
  8
104
  6
CONTINUOUS
 62
40
 10
1.4555611E+002
 20
1.0628172E+002
 11
1.4555611E+002
 21
1.0793172E+002
  0
LINE
  8
104
  6
CONTINUOUS
 62
40
 10
1.4555611E+002
 20
1.0793172E+002
 11
1.4995611E+002
 21
1.0793172E+002
  0
LINE
  8
104
  6
CONTINUOUS
 62
40
 10
1.4995611E+002
 20
1.0793172E+002
 11
1.4995611E+002
 21
1.0628172E+002
  0
LINE
  8
104
  6
CONTINUOUS
 62
40
 10
1.4660111E+002
 20
1.0503172E+002
 11
1.4653611E+002
 21
1.0503172E+002
  0
LINE
  8
104
  6
CONTINUOUS
 62
40
 10
1.4710611E+002
 20
1.0793172E+002
 11
1.4840611E+002
 21
1.0793172E+002
  0
LINE
  8
104
  6
CONTINUOUS
 62
40
 10
2.244561E+002
 20
1.0963172E+002
 11
2.244561E+002
 21
1.0913172E+002
  0
LINE
  8
104
  6
CONTINUOUS
 62
40
 10
2.244561E+002
 20
1.0913172E+002
 11
2.210561E+002
 21
1.0913172E+002
  0
LINE
  8
104
  6
CONTINUOUS
 62
40
 10
2.210561E+002
 20
1.0913172E+002
 11
2.210561E+002
 21
1.0963172E+002
  0
LINE
  8
104
  6
CONTINUOUS
 62
40
 10
2.217561E+002
 20
1.0913172E+002
 11
2.217561E+002
 21
1.0893172E+002
  0
LINE
  8
104
  6
CONTINUOUS
 62
40
 10
2.237561E+002
 20
1.0913172E+002
 11
2.237561E+002
 21
1.0893172E+002
  0
LINE
  8
104
  6
CONTINUOUS
 62
40
 10
2.214591E+002
 20
1.0793172E+002
 11
2.214591E+002
 21
1.0783172E+002
  0
ARC
  8
104
  6
CONTINUOUS
 62
40
 10
2.215591E+002
 20
1.0783172E+002
 40
1.0000318E-001
 50
1.8000297E+002
 51
2.6999703E+002
  0
LINE
  8
104
  6
CONTINUOUS
 62
40
 10
2.215591E+002
 20
1.0773172E+002
 11
2.2395309E+002
 21
1.0773172E+002
  0
ARC
  8
104
  6
CONTINUOUS
 62
40
 10
2.239531E+002
 20
1.0783171E+002
 40
9.9995886E-002
 50
2.6999879E+002
 51
3.6000121E+002
  0
LINE
  8
104
  6
CONTINUOUS
 62
40
 10
2.2405309E+002
 20
1.0783172E+002
 11
2.2405309E+002
 21
1.0793172E+002
  0
LINE
  8
104
  6
CONTINUOUS
 62
40
 10
2.2405309E+002
 20
1.0793172E+002
 11
2.214591E+002
 21
1.0793172E+002
  0
LINE
  8
99
  6
CONTINUOUS
 62
1
 10
2.227561E+002
 20
1.075232E+002
 11
2.227561E+002
 21
1.1027177E+002
  0
LINE
  8
104
  6
CONTINUOUS
 62
40
 10
1.4657611E+002
 20
1.0793172E+002
 11
1.4893611E+002
 21
1.0793172E+002
  0
LINE
  8
104
  6
CONTINUOUS
 62
40
 10
2.2412931E+002
 20
1.0893172E+002
 11
2.2375109E+002
 21
1.0893172E+002
  0
LINE
  8
104
  6
CONTINUOUS
 62
40
 10
2.217611E+002
 20
1.0893172E+002
 11
2.2138289E+002
 21
1.0893172E+002
  0
LINE
  8
104
  6
CONTINUOUS
 62
40
 10
2.239561E+002
 20
1.0793172E+002
 11
2.2375109E+002
 21
1.0793172E+002
  0
LINE
  8
104
  6
CONTINUOUS
 62
40
 10
2.217611E+002
 20
1.0793172E+002
 11
2.215561E+002
 21
1.0793172E+002
  0
LINE
  8
104
  6
CONTINUOUS
 62
40
 10
2.249561E+002
 20
1.0793172E+002
 11
2.249561E+002
 21
1.0893172E+002
  0
LINE
  8
104
  6
CONTINUOUS
 62
40
 10
2.249561E+002
 20
1.0893172E+002
 11
2.2138289E+002
 21
1.0893172E+002
  0
LINE
  8
104
  6
CONTINUOUS
 62
40
 10
2.2138289E+002
 20
1.0893172E+002
 11
1.4893611E+002
 21
1.0893172E+002
  0
LINE
  8
104
  6
CONTINUOUS
 62
40
 10
1.4893611E+002
 20
1.0893172E+002
 11
1.4555611E+002
 21
1.0893172E+002
  0
LINE
  8
104
  6
CONTINUOUS
 62
40
 10
1.4555611E+002
 20
1.0893172E+002
 11
1.4555611E+002
 21
1.0793172E+002
  0
LINE
  8
104
  6
CONTINUOUS
 62
40
 10
1.4555611E+002
 20
1.0793172E+002
 11
2.249561E+002
 21
1.0793172E+002
  0
LINE
  8
106
  6
CENTERLINE
 62
1
 10
1.4775611E+002
 20
1.0949094E+002
 11
1.4775611E+002
 21
1.0482329E+002
  0
CIRCLE
  8
105
  6
HIDDEN
 62
1
 10
1.4115611E+002
 20
1.0403173E+002
 40
1.0
  0
CIRCLE
  8
105
  6
HIDDEN
 62
1
 10
1.627561E+002
 20
1.0243172E+002
 40
1.0
  0
LINE
  8
106
  6
CENTERLINE
 62
1
 10
1.627561E+002
 20
1.0386506E+002
 11
1.627561E+002
 21
1.0097796E+002
  0
LINE
  8
106
  6
CENTERLINE
 62
1
 10
1.6415461E+002
 20
1.0243172E+002
 11
1.6130761E+002
 21
1.0243172E+002
  0
LINE
  8
106
  6
CENTERLINE
 62
1
 10
1.5155611E+002
 20
1.0386506E+002
 11
1.5155611E+002
 21
1.0097796E+002
  0
LINE
  8
106
  6
CENTERLINE
 62
1
 10
1.5295461E+002
 20
1.0243172E+002
 11
1.5010761E+002
 21
1.0243172E+002
  0
CIRCLE
  8
105
  6
HIDDEN
 62
1
 10
1.5155611E+002
 20
1.0243172E+002
 40
1.0
  0
CIRCLE
  8
105
  6
HIDDEN
 62
1
 10
1.731561E+002
 20
9.5431723E+001
 40
1.0
  0
LINE
  8
99
  6
CONTINUOUS
 62
1
 10
1.4115611E+002
 20
9.3931159E+001
 11
1.4115611E+002
 21
1.0558651E+002
  0
LINE
  8
106
  6
CENTERLINE
 62
1
 10
1.399443E+002
 20
1.0403173E+002
 11
1.4267695E+002
 21
1.0403173E+002
  0
LINE
  8
106
  6
CENTERLINE
 62
1
 10
1.7436791E+002
 20
9.5431723E+001
 11
1.7163526E+002
 21
9.5431723E+001
  0
LINE
  8
106
  6
CENTERLINE
 62
1
 10
1.731561E+002
 20
9.3931159E+001
 11
1.731561E+002
 21
1.0552967E+002
  0
LINE
  8
106
  6
CENTERLINE
 62
1
 10
1.7436791E+002
 20
9.8631728E+001
 11
1.7163526E+002
 21
9.8631728E+001
  0
LINE
  8
106
  6
CENTERLINE
 62
1
 10
1.7436791E+002
 20
1.0083172E+002
 11
1.7163526E+002
 21
1.0083172E+002
  0
LINE
  8
106
  6
CENTERLINE
 62
1
 10
1.7436791E+002
 20
1.0403173E+002
 11
1.7163526E+002
 21
1.0403173E+002
  0
LINE
  8
106
  6
CENTERLINE
 62
1
 10
1.399443E+002
 20
9.5431723E+001
 11
1.4267695E+002
 21
9.5431723E+001
  0
LINE
  8
106
  6
CENTERLINE
 62
1
 10
1.399443E+002
 20
9.8631728E+001
 11
1.4267695E+002
 21
9.8631728E+001
  0
LINE
  8
106
  6
CENTERLINE
 62
1
 10
1.399443E+002
 20
1.0083172E+002
 11
1.4267695E+002
 21
1.0083172E+002
  0
CIRCLE
  8
105
  6
HIDDEN
 62
1
 10
1.731561E+002
 20
9.8631728E+001
 40
1.0
  0
CIRCLE
  8
105
  6
HIDDEN
 62
1
 10
1.731561E+002
 20
1.0083172E+002
 40
1.0
  0
CIRCLE
  8
105
  6
HIDDEN
 62
1
 10
1.731561E+002
 20
1.0403173E+002
 40
1.0
  0
CIRCLE
  8
105
  6
HIDDEN
 62
1
 10
1.4115611E+002
 20
9.5431723E+001
 40
1.0
  0
CIRCLE
  8
105
  6
HIDDEN
 62
1
 10
1.4115611E+002
 20
9.8631728E+001
 40
1.0
  0
CIRCLE
  8
105
  6
HIDDEN
 62
1
 10
1.4115611E+002
 20
1.0083172E+002
 40
1.0
  0
LINE
  8
104
  6
CONTINUOUS
 62
40
 10
1.3175611E+002
 20
9.4281729E+001
 11
1.3165611E+002
 21
9.4281729E+001
  0
LINE
  8
104
  6
CONTINUOUS
 62
40
 10
1.3165611E+002
 20
9.4281729E+001
 11
1.3005611E+002
 21
9.4281729E+001
  0
ARC
  8
104
  6
CONTINUOUS
 62
40
 10
1.3005611E+002
 20
9.4681734E+001
 40
4.0000512E-001
 50
1.8000159E+002
 51
2.6999927E+002
  0
LINE
  8
104
  6
CONTINUOUS
 62
40
 10
1.2965611E+002
 20
9.4681723E+001
 11
1.2965611E+002
 21
1.0588173E+002
  0
ARC
  8
104
  6
CONTINUOUS
 62
40
 10
1.3005611E+002
 20
1.0588173E+002
 40
3.9999784E-001
 50
8.9999691E+001
 51
1.8000045E+002
  0
LINE
  8
104
  6
CONTINUOUS
 62
40
 10
1.3005611E+002
 20
1.0628173E+002
 11
1.3165611E+002
 21
1.0628173E+002
  0
LINE
  8
104
  6
CONTINUOUS
 62
40
 10
1.3165611E+002
 20
1.0628173E+002
 11
1.3175611E+002
 21
1.0628173E+002
  0
LINE
  8
104
  6
CONTINUOUS
 62
40
 10
1.3175611E+002
 20
1.0628173E+002
 11
1.825561E+002
 21
1.0628173E+002
  0
LINE
  8
104
  6
CONTINUOUS
 62
40
 10
1.825561E+002
 20
1.0628173E+002
 11
1.826561E+002
 21
1.0628173E+002
  0
LINE
  8
104
  6
CONTINUOUS
 62
40
 10
1.826561E+002
 20
1.0628173E+002
 11
1.842561E+002
 21
1.0628173E+002
  0
ARC
  8
104
  6
CONTINUOUS
 62
40
 10
1.8425293E+002
 20
1.0587857E+002
 40
4.0316797E-001
 50
2.6328994E-003
 51
8.9549926E+001
  0
LINE
  8
104
  6
CONTINUOUS
 62
40
 10
1.846561E+002
 20
1.0587859E+002
 11
1.846561E+002
 21
9.4681723E+001
  0
ARC
  8
104
  6
CONTINUOUS
 62
40
 10
1.8425611E+002
 20
9.4681724E+001
 40
3.999952E-001
 50
2.6999917E+002
 51
3.5999983E+002
  0
LINE
  8
104
  6
CONTINUOUS
 62
40
 10
1.842561E+002
 20
9.4281729E+001
 11
1.826561E+002
 21
9.4281729E+001
  0
LINE
  8
104
  6
CONTINUOUS
 62
40
 10
1.826561E+002
 20
9.4281729E+001
 11
1.825561E+002
 21
9.4281729E+001
  0
LINE
  8
104
  6
CONTINUOUS
 62
40
 10
1.825561E+002
 20
9.4281729E+001
 11
1.3175611E+002
 21
9.4281729E+001
  0
LINE
  8
104
  6
CONTINUOUS
 62
40
 10
1.826561E+002
 20
1.0628173E+002
 11
1.826561E+002
 21
9.4381728E+001
  0
LINE
  8
104
  6
CONTINUOUS
 62
40
 10
1.826561E+002
 20
9.4381728E+001
 11
1.826561E+002
 21
9.4281729E+001
  0
LINE
  8
104
  6
CONTINUOUS
 62
40
 10
1.3165611E+002
 20
9.4281729E+001
 11
1.3165611E+002
 21
1.0628173E+002
  0
LINE
  8
106
  6
CENTERLINE
 62
1
 10
1.4115611E+002
 20
9.3931159E+001
 11
1.4115611E+002
 21
1.0013624E+002
  0
LINE
  8
106
  6
CENTERLINE
 62
1
 10
1.4115611E+002
 20
1.0013624E+002
 11
1.4115611E+002
 21
1.0487439E+002
  0
LINE
  8
106
  6
CENTERLINE
 62
1
 10
1.731561E+002
 20
9.3931159E+001
 11
1.731561E+002
 21
1.0032815E+002
  0
LINE
  8
106
  6
CENTERLINE
 62
1
 10
1.731561E+002
 20
1.0032815E+002
 11
1.731561E+002
 21
1.0498273E+002
  0
LINE
  8
106
  6
CENTERLINE
 62
1
 10
2.7021896E+001
 20
1.0949095E+002
 11
2.7021896E+001
 21
1.0482329E+002
  0
CIRCLE
  8
105
  6
HIDDEN
 62
1
 10
2.0421897E+001
 20
1.0403173E+002
 40
1.0
  0
CIRCLE
  8
105
  6
HIDDEN
 62
1
 10
4.2021896E+001
 20
1.0243173E+002
 40
1.0
  0
LINE
  8
106
  6
CENTERLINE
 62
1
 10
4.2021896E+001
 20
1.0386506E+002
 11
4.2021896E+001
 21
1.0097796E+002
  0
LINE
  8
106
  6
CENTERLINE
 62
1
 10
4.3420398E+001
 20
1.0243173E+002
 11
4.0573394E+001
 21
1.0243173E+002
  0
LINE
  8
106
  6
CENTERLINE
 62
1
 10
3.0821899E+001
 20
1.0386506E+002
 11
3.0821899E+001
 21
1.0097796E+002
  0
LINE
  8
106
  6
CENTERLINE
 62
1
 10
3.2220401E+001
 20
1.0243173E+002
 11
2.9373397E+001
 21
1.0243173E+002
  0
CIRCLE
  8
105
  6
HIDDEN
 62
1
 10
3.0821899E+001
 20
1.0243173E+002
 40
1.0
  0
CIRCLE
  8
105
  6
HIDDEN
 62
1
 10
5.2421894E+001
 20
9.5431731E+001
 40
1.0
  0
LINE
  8
99
  6
CONTINUOUS
 62
1
 10
2.0421897E+001
 20
9.3931166E+001
 11
2.0421897E+001
 21
1.0558651E+002
  0
LINE
  8
106
  6
CENTERLINE
 62
1
 10
1.9210094E+001
 20
1.0403173E+002
 11
2.1942741E+001
 21
1.0403173E+002
  0
LINE
  8
106
  6
CENTERLINE
 62
1
 10
5.3633697E+001
 20
9.5431731E+001
 11
5.090105E+001
 21
9.5431731E+001
  0
LINE
  8
106
  6
CENTERLINE
 62
1
 10
5.242189E+001
 20
9.3931166E+001
 11
5.242189E+001
 21
1.0552968E+002
  0
LINE
  8
106
  6
CENTERLINE
 62
1
 10
5.3633697E+001
 20
9.8631735E+001
 11
5.090105E+001
 21
9.8631735E+001
  0
LINE
  8
106
  6
CENTERLINE
 62
1
 10
5.3633697E+001
 20
1.0083173E+002
 11
5.090105E+001
 21
1.0083173E+002
  0
LINE
  8
106
  6
CENTERLINE
 62
1
 10
5.3633697E+001
 20
1.0403173E+002
 11
5.090105E+001
 21
1.0403173E+002
  0
LINE
  8
106
  6
CENTERLINE
 62
1
 10
1.9210094E+001
 20
9.5431731E+001
 11
2.1942741E+001
 21
9.5431731E+001
  0
LINE
  8
106
  6
CENTERLINE
 62
1
 10
1.9210094E+001
 20
9.8631735E+001
 11
2.1942741E+001
 21
9.8631735E+001
  0
LINE
  8
106
  6
CENTERLINE
 62
1
 10
1.9210094E+001
 20
1.0083173E+002
 11
2.1942741E+001
 21
1.0083173E+002
  0
CIRCLE
  8
105
  6
HIDDEN
 62
1
 10
5.2421894E+001
 20
9.8631735E+001
 40
1.0
  0
CIRCLE
  8
105
  6
HIDDEN
 62
1
 10
5.2421894E+001
 20
1.0083173E+002
 40
1.0
  0
CIRCLE
  8
105
  6
HIDDEN
 62
1
 10
5.2421894E+001
 20
1.0403173E+002
 40
1.0
  0
CIRCLE
  8
105
  6
HIDDEN
 62
1
 10
2.0421897E+001
 20
9.5431731E+001
 40
1.0
  0
CIRCLE
  8
105
  6
HIDDEN
 62
1
 10
2.0421897E+001
 20
9.8631735E+001
 40
1.0
  0
CIRCLE
  8
105
  6
HIDDEN
 62
1
 10
2.0421897E+001
 20
1.0083173E+002
 40
1.0
  0
LINE
  8
104
  6
CONTINUOUS
 62
40
 10
1.10219E+001
 20
9.4281729E+001
 11
1.0921901E+001
 21
9.4281729E+001
  0
LINE
  8
104
  6
CONTINUOUS
 62
40
 10
1.0921901E+001
 20
9.4281729E+001
 11
9.3219009
 21
9.4281729E+001
  0
ARC
  8
104
  6
CONTINUOUS
 62
40
 10
9.3219024
 20
9.468173E+001
 40
4.0000118E-001
 50
1.7999988E+002
 51
2.6999979E+002
  0
LINE
  8
104
  6
CONTINUOUS
 62
40
 10
8.9219012
 20
9.4681731E+001
 11
8.9219012
 21
1.0588173E+002
  0
ARC
  8
104
  6
CONTINUOUS
 62
40
 10
9.3219004
 20
1.0588173E+002
 40
3.9999917E-001
 50
8.9999924E+001
 51
1.7999926E+002
  0
LINE
  8
104
  6
CONTINUOUS
 62
40
 10
9.3219009
 20
1.0628173E+002
 11
1.0921901E+001
 21
1.0628173E+002
  0
LINE
  8
104
  6
CONTINUOUS
 62
40
 10
1.0921901E+001
 20
1.0628173E+002
 11
1.10219E+001
 21
1.0628173E+002
  0
LINE
  8
104
  6
CONTINUOUS
 62
40
 10
1.10219E+001
 20
1.0628173E+002
 11
6.1821891E+001
 21
1.0628173E+002
  0
LINE
  8
104
  6
CONTINUOUS
 62
40
 10
6.1821891E+001
 20
1.0628173E+002
 11
6.192189E+001
 21
1.0628173E+002
  0
LINE
  8
104
  6
CONTINUOUS
 62
40
 10
6.192189E+001
 20
1.0628173E+002
 11
6.3521892E+001
 21
1.0628173E+002
  0
ARC
  8
104
  6
CONTINUOUS
 62
40
 10
6.3518728E+001
 20
1.0587858E+002
 40
4.0316232E-001
 50
1.8331633E-003
 51
8.9550253E+001
  0
LINE
  8
104
  6
CONTINUOUS
 62
40
 10
6.392189E+001
 20
1.0587859E+002
 11
6.392189E+001
 21
9.4681731E+001
  0
ARC
  8
104
  6
CONTINUOUS
 62
40
 10
6.3521898E+001
 20
9.468172E+001
 40
3.9999139E-001
 50
2.699991E+002
 51
3.6000152E+002
  0
LINE
  8
104
  6
CONTINUOUS
 62
40
 10
6.3521892E+001
 20
9.4281729E+001
 11
6.192189E+001
 21
9.4281729E+001
  0
LINE
  8
104
  6
CONTINUOUS
 62
40
 10
6.192189E+001
 20
9.4281729E+001
 11
6.1821891E+001
 21
9.4281729E+001
  0
LINE
  8
104
  6
CONTINUOUS
 62
40
 10
6.1821891E+001
 20
9.4281729E+001
 11
1.10219E+001
 21
9.4281729E+001
  0
LINE
  8
104
  6
CONTINUOUS
 62
40
 10
6.192189E+001
 20
1.0628173E+002
 11
6.192189E+001
 21
9.4381735E+001
  0
LINE
  8
104
  6
CONTINUOUS
 62
40
 10
6.192189E+001
 20
9.4381735E+001
 11
6.192189E+001
 21
9.4281729E+001
  0
LINE
  8
104
  6
CONTINUOUS
 62
40
 10
1.0921901E+001
 20
9.4281729E+001
 11
1.0921901E+001
 21
1.0628173E+002
  0
LINE
  8
106
  6
CENTERLINE
 62
1
 10
2.0421897E+001
 20
9.3931166E+001
 11
2.0421897E+001
 21
1.0013624E+002
  0
LINE
  8
106
  6
CENTERLINE
 62
1
 10
2.0421897E+001
 20
1.0013624E+002
 11
2.0421897E+001
 21
1.048744E+002
  0
LINE
  8
106
  6
CENTERLINE
 62
1
 10
5.2421894E+001
 20
9.3931166E+001
 11
5.2421894E+001
 21
1.0032815E+002
  0
LINE
  8
106
  6
CENTERLINE
 62
1
 10
5.2421894E+001
 20
1.0032815E+002
 11
5.2421894E+001
 21
1.0498273E+002
  0
LINE
  8
105
  6
HIDDEN
 62
1
 10
2.2621894E+001
 20
1.1213173E+002
 11
2.2621894E+001
 21
1.1113173E+002
  0
ARC
  8
105
  6
HIDDEN
 62
1
 10
2.2021894E+001
 20
1.1113173E+002
 40
6.000004E-001
 50
1.8E+002
 51
3.6E+002
  0
LINE
  8
105
  6
HIDDEN
 62
1
 10
2.1421894E+001
 20
1.1113173E+002
 11
2.1421894E+001
 21
1.1213173E+002
  0
ARC
  8
105
  6
HIDDEN
 62
1
 10
2.2021894E+001
 20
1.1213173E+002
 40
6.000004E-001
 50
0.0
 51
1.8E+002
  0
LINE
  8
104
  6
CONTINUOUS
 62
40
 10
1.0032188E+002
 20
1.0963172E+002
 11
1.0032188E+002
 21
1.0917173E+002
  0
LINE
  8
104
  6
CONTINUOUS
 62
40
 10
1.0032188E+002
 20
1.0917173E+002
 11
1.0372188E+002
 21
1.0917173E+002
  0
LINE
  8
104
  6
CONTINUOUS
 62
40
 10
1.0372188E+002
 20
1.0917173E+002
 11
1.0372188E+002
 21
1.0963172E+002
  0
LINE
  8
104
  6
CONTINUOUS
 62
40
 10
1.0322688E+002
 20
1.0919098E+002
 11
1.0322688E+002
 21
1.0913173E+002
  0
LINE
  8
104
  6
CONTINUOUS
 62
40
 10
1.0322688E+002
 20
1.0913173E+002
 11
1.0081688E+002
 21
1.0913173E+002
  0
LINE
  8
104
  6
CONTINUOUS
 62
40
 10
1.0081688E+002
 20
1.0913173E+002
 11
1.0081688E+002
 21
1.0917173E+002
  0
LINE
  8
104
  6
CONTINUOUS
 62
40
 10
1.0102689E+002
 20
1.0913173E+002
 11
1.0102689E+002
 21
1.0893173E+002
  0
LINE
  8
104
  6
CONTINUOUS
 62
40
 10
1.0301688E+002
 20
1.0913173E+002
 11
1.0301688E+002
 21
1.0893173E+002
  0
LINE
  8
106
  6
CENTERLINE
 62
1
 10
1.0762424E+002
 20
1.1304658E+002
 11
1.0762149E+002
 21
1.1016676E+002
  0
LINE
  8
106
  6
CENTERLINE
 62
1
 10
1.0867188E+002
 20
1.1163173E+002
 11
1.0662189E+002
 21
1.1163173E+002
  0
LINE
  8
106
  6
CENTERLINE
 62
1
 10
2.2021896E+001
 20
1.1019874E+002
 11
2.2021892E+001
 21
1.1303208E+002
  0
LINE
  8
105
  6
HIDDEN
 62
1
 10
1.0822288E+002
 20
1.1213173E+002
 11
1.0822288E+002
 21
1.1113173E+002
  0
ARC
  8
105
  6
HIDDEN
 62
1
 10
1.0762289E+002
 20
1.1113173E+002
 40
5.999985E-001
 50
1.8E+002
 51
3.6E+002
  0
LINE
  8
105
  6
HIDDEN
 62
1
 10
1.0702289E+002
 20
1.1113173E+002
 11
1.0702289E+002
 21
1.1213173E+002
  0
ARC
  8
105
  6
HIDDEN
 62
1
 10
1.0762289E+002
 20
1.1213173E+002
 40
5.999985E-001
 50
0.0
 51
1.8E+002
  0
LINE
  8
106
  6
CENTERLINE
 62
1
 10
2.3021896E+001
 20
1.1163173E+002
 11
2.0971897E+001
 21
1.1163173E+002
  0
ARC
  8
104
  6
CONTINUOUS
 62
40
 10
1.0877265E+002
 20
1.1343173E+002
 40
1.9999373E-001
 50
3.5999906E+002
 51
4.5000094E+002
  0
LINE
  8
104
  6
CONTINUOUS
 62
40
 10
1.0897265E+002
 20
1.1343172E+002
 11
1.0897265E+002
 21
1.0983172E+002
  0
ARC
  8
104
  6
CONTINUOUS
 62
40
 10
1.0877265E+002
 20
1.0983172E+002
 40
1.9999752E-001
 50
2.7000015E+002
 51
3.6000186E+002
  0
LINE
  8
104
  6
CONTINUOUS
 62
40
 10
1.0877265E+002
 20
1.0963172E+002
 11
2.0871139E+001
 21
1.0963172E+002
  0
ARC
  8
104
  6
CONTINUOUS
 62
40
 10
2.0871139E+001
 20
1.0983172E+002
 40
2.0000089E-001
 50
1.7999911E+002
 51
2.7E+002
  0
LINE
  8
104
  6
CONTINUOUS
 62
40
 10
2.0671138E+001
 20
1.0983172E+002
 11
2.0671138E+001
 21
1.1363172E+002
  0
LINE
  8
104
  6
CONTINUOUS
 62
40
 10
2.0671138E+001
 20
1.1363172E+002
 11
1.0877265E+002
 21
1.1363172E+002
  0
LINE
  8
104
  6
CONTINUOUS
 62
40
 10
2.3071136E+001
 20
1.1363172E+002
 11
2.3071136E+001
 21
1.0963173E+002
  0
LINE
  8
104
  6
CONTINUOUS
 62
40
 10
1.0657264E+002
 20
1.1363172E+002
 11
1.0657264E+002
 21
1.0963172E+002
  0
LINE
  8
104
  6
CONTINUOUS
 62
40
 10
2.6021896E+001
 20
1.0893173E+002
 11
2.6021896E+001
 21
1.0903173E+002
  0
ARC
  8
104
  6
CONTINUOUS
 62
40
 10
2.6121892E+001
 20
1.0903173E+002
 40
9.9996548E-002
 50
8.9998881E+001
 51
1.8000141E+002
  0
LINE
  8
104
  6
CONTINUOUS
 62
40
 10
2.6121894E+001
 20
1.0913173E+002
 11
2.7921897E+001
 21
1.0913173E+002
  0
ARC
  8
104
  6
CONTINUOUS
 62
40
 10
2.7921902E+001
 20
1.0903173E+002
 40
9.9993793E-002
 50
3.5999702E+002
 51
4.500027E+002
  0
LINE
  8
104
  6
CONTINUOUS
 62
40
 10
2.8021896E+001
 20
1.0903173E+002
 11
2.8021896E+001
 21
1.0893173E+002
  0
LINE
  8
104
  6
CONTINUOUS
 62
40
 10
2.4821899E+001
 20
1.0628173E+002
 11
2.4821899E+001
 21
1.0793173E+002
  0
LINE
  8
104
  6
CONTINUOUS
 62
40
 10
2.4821899E+001
 20
1.0793173E+002
 11
2.9221897E+001
 21
1.0793173E+002
  0
LINE
  8
104
  6
CONTINUOUS
 62
40
 10
2.9221897E+001
 20
1.0793173E+002
 11
2.9221897E+001
 21
1.0628173E+002
  0
LINE
  8
104
  6
CONTINUOUS
 62
40
 10
2.5866897E+001
 20
1.0503173E+002
 11
2.5801895E+001
 21
1.0503173E+002
  0
LINE
  8
104
  6
CONTINUOUS
 62
40
 10
2.6371898E+001
 20
1.0793173E+002
 11
2.7671897E+001
 21
1.0793173E+002
  0
LINE
  8
104
  6
CONTINUOUS
 62
40
 10
1.0072488E+002
 20
1.0793173E+002
 11
1.0072488E+002
 21
1.0783172E+002
  0
ARC
  8
104
  6
CONTINUOUS
 62
40
 10
1.0082489E+002
 20
1.0783173E+002
 40
1.0000356E-001
 50
1.8000318E+002
 51
2.6999682E+002
  0
LINE
  8
104
  6
CONTINUOUS
 62
40
 10
1.0082488E+002
 20
1.0773173E+002
 11
1.0321888E+002
 21
1.0773173E+002
  0
ARC
  8
104
  6
CONTINUOUS
 62
40
 10
1.0321888E+002
 20
1.0783172E+002
 40
9.999865E-002
 50
2.699998E+002
 51
3.5999963E+002
  0
LINE
  8
104
  6
CONTINUOUS
 62
40
 10
1.0331888E+002
 20
1.0783172E+002
 11
1.0331888E+002
 21
1.0793173E+002
  0
LINE
  8
104
  6
CONTINUOUS
 62
40
 10
1.0331888E+002
 20
1.0793173E+002
 11
1.0072488E+002
 21
1.0793173E+002
  0
LINE
  8
106
  6
CENTERLINE
 62
1
 10
1.0202188E+002
 20
1.0752321E+002
 11
1.0202188E+002
 21
1.1027178E+002
  0
LINE
  8
104
  6
CONTINUOUS
 62
40
 10
2.5841896E+001
 20
1.0793173E+002
 11
2.8201896E+001
 21
1.0793173E+002
  0
LINE
  8
104
  6
CONTINUOUS
 62
40
 10
1.0339509E+002
 20
1.0893173E+002
 11
1.0301688E+002
 21
1.0893173E+002
  0
LINE
  8
104
  6
CONTINUOUS
 62
40
 10
1.0102689E+002
 20
1.0893173E+002
 11
1.0064867E+002
 21
1.0893173E+002
  0
LINE
  8
104
  6
CONTINUOUS
 62
40
 10
1.0322188E+002
 20
1.0793173E+002
 11
1.0301688E+002
 21
1.0793173E+002
  0
LINE
  8
104
  6
CONTINUOUS
 62
40
 10
1.0102689E+002
 20
1.0793173E+002
 11
1.0082188E+002
 21
1.0793173E+002
  0
LINE
  8
104
  6
CONTINUOUS
 62
40
 10
1.0422188E+002
 20
1.0793173E+002
 11
1.0422188E+002
 21
1.0893173E+002
  0
LINE
  8
104
  6
CONTINUOUS
 62
40
 10
1.0422188E+002
 20
1.0893173E+002
 11
1.0064867E+002
 21
1.0893173E+002
  0
LINE
  8
104
  6
CONTINUOUS
 62
40
 10
1.0064867E+002
 20
1.0893173E+002
 11
2.8201896E+001
 21
1.0893173E+002
  0
LINE
  8
104
  6
CONTINUOUS
 62
40
 10
2.8201896E+001
 20
1.0893173E+002
 11
2.4821899E+001
 21
1.0893173E+002
  0
LINE
  8
104
  6
CONTINUOUS
 62
40
 10
2.4821899E+001
 20
1.0893173E+002
 11
2.4821899E+001
 21
1.0793173E+002
  0
LINE
  8
104
  6
CONTINUOUS
 62
40
 10
2.4821899E+001
 20
1.0793173E+002
 11
1.0422188E+002
 21
1.0793173E+002
  0
LINE
  8
106
  6
CENTERLINE
 62
1
 10
9.087265E+001
 20
5.6623363E+001
 11
9.087265E+001
 21
5.1955707E+001
  0
CIRCLE
  8
105
  6
HIDDEN
 62
1
 10
9.7472649E+001
 20
5.1164142E+001
 40
1.0
  0
CIRCLE
  8
105
  6
HIDDEN
 62
1
 10
7.587265E+001
 20
4.9564144E+001
 40
1.0
  0
LINE
  8
106
  6
CENTERLINE
 62
1
 10
7.587265E+001
 20
5.099747E+001
 11
7.587265E+001
 21
4.811037E+001
  0
LINE
  8
106
  6
CENTERLINE
 62
1
 10
7.4474148E+001
 20
4.9564144E+001
 11
7.7321152E+001
 21
4.9564144E+001
  0
LINE
  8
106
  6
CENTERLINE
 62
1
 10
8.7072647E+001
 20
5.099747E+001
 11
8.7072647E+001
 21
4.811037E+001
  0
LINE
  8
106
  6
CENTERLINE
 62
1
 10
8.5674145E+001
 20
4.9564144E+001
 11
8.8521149E+001
 21
4.9564144E+001
  0
CIRCLE
  8
105
  6
HIDDEN
 62
1
 10
8.7072647E+001
 20
4.9564144E+001
 40
1.0
  0
CIRCLE
  8
105
  6
HIDDEN
 62
1
 10
6.5472653E+001
 20
4.2564144E+001
 40
1.0
  0
LINE
  8
99
  6
CONTINUOUS
 62
1
 10
9.7472649E+001
 20
4.1063579E+001
 11
9.7472649E+001
 21
5.2718921E+001
  0
LINE
  8
106
  6
CENTERLINE
 62
1
 10
9.8684452E+001
 20
5.1164142E+001
 11
9.5951805E+001
 21
5.1164142E+001
  0
LINE
  8
106
  6
CENTERLINE
 62
1
 10
6.4260849E+001
 20
4.2564144E+001
 11
6.6993496E+001
 21
4.2564144E+001
  0
LINE
  8
106
  6
CENTERLINE
 62
1
 10
6.5472656E+001
 20
4.1063579E+001
 11
6.5472656E+001
 21
5.266209E+001
  0
LINE
  8
106
  6
CENTERLINE
 62
1
 10
6.4260849E+001
 20
4.5764148E+001
 11
6.6993496E+001
 21
4.5764148E+001
  0
LINE
  8
106
  6
CENTERLINE
 62
1
 10
6.4260849E+001
 20
4.7964145E+001
 11
6.6993496E+001
 21
4.7964145E+001
  0
LINE
  8
106
  6
CENTERLINE
 62
1
 10
6.4260849E+001
 20
5.1164142E+001
 11
6.6993496E+001
 21
5.1164142E+001
  0
LINE
  8
106
  6
CENTERLINE
 62
1
 10
9.8684452E+001
 20
4.2564144E+001
 11
9.5951805E+001
 21
4.2564144E+001
  0
LINE
  8
106
  6
CENTERLINE
 62
1
 10
9.8684452E+001
 20
4.5764148E+001
 11
9.5951805E+001
 21
4.5764148E+001
  0
LINE
  8
106
  6
CENTERLINE
 62
1
 10
9.8684452E+001
 20
4.7964145E+001
 11
9.5951805E+001
 21
4.7964145E+001
  0
CIRCLE
  8
105
  6
HIDDEN
 62
1
 10
6.5472653E+001
 20
4.5764148E+001
 40
1.0
  0
CIRCLE
  8
105
  6
HIDDEN
 62
1
 10
6.5472653E+001
 20
4.7964145E+001
 40
1.0
  0
CIRCLE
  8
105
  6
HIDDEN
 62
1
 10
6.5472653E+001
 20
5.1164142E+001
 40
1.0
  0
CIRCLE
  8
105
  6
HIDDEN
 62
1
 10
9.7472649E+001
 20
4.2564144E+001
 40
1.0
  0
CIRCLE
  8
105
  6
HIDDEN
 62
1
 10
9.7472649E+001
 20
4.5764148E+001
 40
1.0
  0
CIRCLE
  8
105
  6
HIDDEN
 62
1
 10
9.7472649E+001
 20
4.7964145E+001
 40
1.0
  0
LINE
  8
104
  6
CONTINUOUS
 62
40
 10
1.0687265E+002
 20
4.1414142E+001
 11
1.0697264E+002
 21
4.1414142E+001
  0
LINE
  8
104
  6
CONTINUOUS
 62
40
 10
1.0697264E+002
 20
4.1414142E+001
 11
1.0857264E+002
 21
4.1414142E+001
  0
ARC
  8
104
  6
CONTINUOUS
 62
40
 10
1.0857264E+002
 20
4.1814143E+001
 40
4.0000108E-001
 50
2.7000016E+002
 51
3.6000006E+002
  0
LINE
  8
104
  6
CONTINUOUS
 62
40
 10
1.0897264E+002
 20
4.1814144E+001
 11
1.0897264E+002
 21
5.3014148E+001
  0
ARC
  8
104
  6
CONTINUOUS
 62
40
 10
1.0857265E+002
 20
5.3014143E+001
 40
3.9999926E-001
 50
7.678659E-004
 51
9.0000106E+001
  0
LINE
  8
104
  6
CONTINUOUS
 62
40
 10
1.0857264E+002
 20
5.3414142E+001
 11
1.0697264E+002
 21
5.3414142E+001
  0
LINE
  8
104
  6
CONTINUOUS
 62
40
 10
1.0697264E+002
 20
5.3414142E+001
 11
1.0687265E+002
 21
5.3414142E+001
  0
LINE
  8
104
  6
CONTINUOUS
 62
40
 10
1.0687265E+002
 20
5.3414142E+001
 11
5.6072655E+001
 21
5.3414142E+001
  0
LINE
  8
104
  6
CONTINUOUS
 62
40
 10
5.6072655E+001
 20
5.3414142E+001
 11
5.5972656E+001
 21
5.3414142E+001
  0
LINE
  8
104
  6
CONTINUOUS
 62
40
 10
5.5972656E+001
 20
5.3414142E+001
 11
5.4372654E+001
 21
5.3414142E+001
  0
ARC
  8
104
  6
CONTINUOUS
 62
40
 10
5.4375819E+001
 20
5.3010992E+001
 40
4.0316252E-001
 50
9.0449776E+001
 51
1.7999817E+002
  0
LINE
  8
104
  6
CONTINUOUS
 62
40
 10
5.3972656E+001
 20
5.3011005E+001
 11
5.3972656E+001
 21
4.1814144E+001
  0
ARC
  8
104
  6
CONTINUOUS
 62
40
 10
5.4372647E+001
 20
4.1814133E+001
 40
3.9999113E-001
 50
1.7999852E+002
 51
2.7000094E+002
  0
LINE
  8
104
  6
CONTINUOUS
 62
40
 10
5.4372654E+001
 20
4.1414142E+001
 11
5.5972656E+001
 21
4.1414142E+001
  0
LINE
  8
104
  6
CONTINUOUS
 62
40
 10
5.5972656E+001
 20
4.1414142E+001
 11
5.6072655E+001
 21
4.1414142E+001
  0
LINE
  8
104
  6
CONTINUOUS
 62
40
 10
5.6072655E+001
 20
4.1414142E+001
 11
1.0687265E+002
 21
4.1414142E+001
  0
LINE
  8
104
  6
CONTINUOUS
 62
40
 10
5.5972656E+001
 20
5.3414142E+001
 11
5.5972656E+001
 21
4.1514148E+001
  0
LINE
  8
104
  6
CONTINUOUS
 62
40
 10
5.5972656E+001
 20
4.1514148E+001
 11
5.5972656E+001
 21
4.1414142E+001
  0
LINE
  8
104
  6
CONTINUOUS
 62
40
 10
1.0697264E+002
 20
4.1414142E+001
 11
1.0697264E+002
 21
5.3414142E+001
  0
LINE
  8
106
  6
CENTERLINE
 62
1
 10
9.7472649E+001
 20
4.1063579E+001
 11
9.7472649E+001
 21
4.7268657E+001
  0
LINE
  8
106
  6
CENTERLINE
 62
1
 10
9.7472649E+001
 20
4.7268657E+001
 11
9.7472649E+001
 21
5.2006809E+001
  0
LINE
  8
106
  6
CENTERLINE
 62
1
 10
6.5472653E+001
 20
4.1063579E+001
 11
6.5472653E+001
 21
4.7460559E+001
  0
LINE
  8
106
  6
CENTERLINE
 62
1
 10
6.5472653E+001
 20
4.7460559E+001
 11
6.5472653E+001
 21
5.2115146E+001
  0
LINE
  8
105
  6
HIDDEN
 62
1
 10
9.5272652E+001
 20
5.926414E+001
 11
9.5272652E+001
 21
5.826414E+001
  0
ARC
  8
105
  6
HIDDEN
 62
1
 10
9.5872652E+001
 20
5.826414E+001
 40
6.000004E-001
 50
1.8E+002
 51
3.6E+002
  0
LINE
  8
105
  6
HIDDEN
 62
1
 10
9.6472653E+001
 20
5.826414E+001
 11
9.6472653E+001
 21
5.926414E+001
  0
ARC
  8
105
  6
HIDDEN
 62
1
 10
9.5872652E+001
 20
5.926414E+001
 40
6.000004E-001
 50
0.0
 51
1.8E+002
  0
LINE
  8
104
  6
CONTINUOUS
 62
40
 10
1.7572662E+001
 20
5.6764133E+001
 11
1.7572662E+001
 21
5.6304141E+001
  0
LINE
  8
104
  6
CONTINUOUS
 62
40
 10
1.7572662E+001
 20
5.6304141E+001
 11
1.4172661E+001
 21
5.6304141E+001
  0
LINE
  8
104
  6
CONTINUOUS
 62
40
 10
1.4172661E+001
 20
5.6304141E+001
 11
1.4172661E+001
 21
5.6764133E+001
  0
LINE
  8
104
  6
CONTINUOUS
 62
40
 10
1.4667664E+001
 20
5.632339E+001
 11
1.4667664E+001
 21
5.626414E+001
  0
LINE
  8
104
  6
CONTINUOUS
 62
40
 10
1.4667664E+001
 20
5.626414E+001
 11
1.7077667E+001
 21
5.626414E+001
  0
LINE
  8
104
  6
CONTINUOUS
 62
40
 10
1.7077667E+001
 20
5.626414E+001
 11
1.7077667E+001
 21
5.6304141E+001
  0
LINE
  8
104
  6
CONTINUOUS
 62
40
 10
1.6867661E+001
 20
5.626414E+001
 11
1.6867661E+001
 21
5.6064144E+001
  0
LINE
  8
104
  6
CONTINUOUS
 62
40
 10
1.487767E+001
 20
5.626414E+001
 11
1.487767E+001
 21
5.6064144E+001
  0
LINE
  8
106
  6
CENTERLINE
 62
1
 10
1.0270302E+001
 20
6.0178989E+001
 11
1.0273056E+001
 21
5.7299175E+001
  0
LINE
  8
106
  6
CENTERLINE
 62
1
 10
9.2226639
 20
5.876414E+001
 11
1.1272659E+001
 21
5.876414E+001
  0
LINE
  8
106
  6
CENTERLINE
 62
1
 10
9.587265E+001
 20
5.7331157E+001
 11
9.5872654E+001
 21
6.0164493E+001
  0
LINE
  8
105
  6
HIDDEN
 62
1
 10
9.6716614
 20
5.926414E+001
 11
9.6716614
 21
5.826414E+001
  0
ARC
  8
105
  6
HIDDEN
 62
1
 10
1.027166E+001
 20
5.826414E+001
 40
5.999985E-001
 50
1.8E+002
 51
3.6E+002
  0
LINE
  8
105
  6
HIDDEN
 62
1
 10
1.0871658E+001
 20
5.826414E+001
 11
1.0871658E+001
 21
5.926414E+001
  0
ARC
  8
105
  6
HIDDEN
 62
1
 10
1.027166E+001
 20
5.926414E+001
 40
5.999985E-001
 50
0.0
 51
1.8E+002
  0
LINE
  8
106
  6
CENTERLINE
 62
1
 10
9.487265E+001
 20
5.876414E+001
 11
9.692265E+001
 21
5.876414E+001
  0
ARC
  8
104
  6
CONTINUOUS
 62
40
 10
9.1218916
 20
6.0564139E+001
 40
1.9999357E-001
 50
8.9999046E+001
 51
1.8000095E+002
  0
LINE
  8
104
  6
CONTINUOUS
 62
40
 10
8.921898
 20
6.0564136E+001
 11
8.921898
 21
5.6964137E+001
  0
ARC
  8
104
  6
CONTINUOUS
 62
40
 10
9.1218956
 20
5.696413E+001
 40
1.999976E-001
 50
1.7999799E+002
 51
2.699998E+002
  0
LINE
  8
104
  6
CONTINUOUS
 62
40
 10
9.1218949
 20
5.6764133E+001
 11
9.7023407E+001
 21
5.6764133E+001
  0
ARC
  8
104
  6
CONTINUOUS
 62
40
 10
9.7023407E+001
 20
5.6964134E+001
 40
2.0000107E-001
 50
2.7000011E+002
 51
3.6000101E+002
  0
LINE
  8
104
  6
CONTINUOUS
 62
40
 10
9.7223408E+001
 20
5.6964137E+001
 11
9.7223408E+001
 21
6.0764133E+001
  0
LINE
  8
104
  6
CONTINUOUS
 62
40
 10
9.7223408E+001
 20
6.0764133E+001
 11
9.1218949
 21
6.0764133E+001
  0
LINE
  8
104
  6
CONTINUOUS
 62
40
 10
9.482341E+001
 20
6.0764133E+001
 11
9.482341E+001
 21
5.676414E+001
  0
LINE
  8
104
  6
CONTINUOUS
 62
40
 10
1.1321907E+001
 20
6.0764133E+001
 11
1.1321907E+001
 21
5.6764133E+001
  0
LINE
  8
104
  6
CONTINUOUS
 62
40
 10
9.187265E+001
 20
5.6064144E+001
 11
9.187265E+001
 21
5.6164142E+001
  0
ARC
  8
104
  6
CONTINUOUS
 62
40
 10
9.1772654E+001
 20
5.6164144E+001
 40
9.9996488E-002
 50
3.599989E+002
 51
4.5000115E+002
  0
LINE
  8
104
  6
CONTINUOUS
 62
40
 10
9.1772652E+001
 20
5.626414E+001
 11
8.9972649E+001
 21
5.626414E+001
  0
ARC
  8
104
  6
CONTINUOUS
 62
40
 10
8.9972644E+001
 20
5.6164147E+001
 40
9.9993694E-002
 50
8.9997246E+001
 51
1.800027E+002
  0
LINE
  8
104
  6
CONTINUOUS
 62
40
 10
8.987265E+001
 20
5.6164142E+001
 11
8.987265E+001
 21
5.6064144E+001
  0
LINE
  8
104
  6
CONTINUOUS
 62
40
 10
9.3072647E+001
 20
5.3414142E+001
 11
9.3072647E+001
 21
5.5064144E+001
  0
LINE
  8
104
  6
CONTINUOUS
 62
40
 10
9.3072647E+001
 20
5.5064144E+001
 11
8.867265E+001
 21
5.5064144E+001
  0
LINE
  8
104
  6
CONTINUOUS
 62
40
 10
8.867265E+001
 20
5.5064144E+001
 11
8.867265E+001
 21
5.3414142E+001
  0
LINE
  8
104
  6
CONTINUOUS
 62
40
 10
9.2027649E+001
 20
5.2164142E+001
 11
9.2092651E+001
 21
5.2164142E+001
  0
LINE
  8
104
  6
CONTINUOUS
 62
40
 10
9.1522648E+001
 20
5.5064144E+001
 11
9.0222649E+001
 21
5.5064144E+001
  0
LINE
  8
104
  6
CONTINUOUS
 62
40
 10
1.7169663E+001
 20
5.5064144E+001
 11
1.7169663E+001
 21
5.4964137E+001
  0
ARC
  8
104
  6
CONTINUOUS
 62
40
 10
1.7069659E+001
 20
5.4964143E+001
 40
1.0000391E-001
 50
2.7000315E+002
 51
3.599969E+002
  0
LINE
  8
104
  6
CONTINUOUS
 62
40
 10
1.7069664E+001
 20
5.4864139E+001
 11
1.4675667E+001
 21
5.4864139E+001
  0
ARC
  8
104
  6
CONTINUOUS
 62
40
 10
1.4675667E+001
 20
5.4964138E+001
 40
9.999876E-002
 50
1.8000015E+002
 51
2.6999985E+002
  0
LINE
  8
104
  6
CONTINUOUS
 62
40
 10
1.4575668E+001
 20
5.4964137E+001
 11
1.4575668E+001
 21
5.5064144E+001
  0
LINE
  8
104
  6
CONTINUOUS
 62
40
 10
1.4575668E+001
 20
5.5064144E+001
 11
1.7169663E+001
 21
5.5064144E+001
  0
LINE
  8
106
  6
CENTERLINE
 62
1
 10
1.5872666E+001
 20
5.465562E+001
 11
1.5872666E+001
 21
5.7404193E+001
  0
LINE
  8
104
  6
CONTINUOUS
 62
40
 10
9.2052651E+001
 20
5.5064144E+001
 11
8.969265E+001
 21
5.5064144E+001
  0
LINE
  8
104
  6
CONTINUOUS
 62
40
 10
1.4499451E+001
 20
5.6064144E+001
 11
1.487767E+001
 21
5.6064144E+001
  0
LINE
  8
104
  6
CONTINUOUS
 62
40
 10
1.6867661E+001
 20
5.6064144E+001
 11
1.724588E+001
 21
5.6064144E+001
  0
LINE
  8
104
  6
CONTINUOUS
 62
40
 10
1.4672669E+001
 20
5.5064144E+001
 11
1.487767E+001
 21
5.5064144E+001
  0
LINE
  8
104
  6
CONTINUOUS
 62
40
 10
1.6867661E+001
 20
5.5064144E+001
 11
1.707267E+001
 21
5.5064144E+001
  0
LINE
  8
104
  6
CONTINUOUS
 62
40
 10
1.3672669E+001
 20
5.5064144E+001
 11
1.3672669E+001
 21
5.6064144E+001
  0
LINE
  8
104
  6
CONTINUOUS
 62
40
 10
1.3672669E+001
 20
5.6064144E+001
 11
1.724588E+001
 21
5.6064144E+001
  0
LINE
  8
104
  6
CONTINUOUS
 62
40
 10
1.724588E+001
 20
5.6064144E+001
 11
8.969265E+001
 21
5.6064144E+001
  0
LINE
  8
104
  6
CONTINUOUS
 62
40
 10
8.969265E+001
 20
5.6064144E+001
 11
9.3072647E+001
 21
5.6064144E+001
  0
LINE
  8
104
  6
CONTINUOUS
 62
40
 10
9.3072647E+001
 20
5.6064144E+001
 11
9.3072647E+001
 21
5.5064144E+001
  0
LINE
  8
104
  6
CONTINUOUS
 62
40
 10
9.3072647E+001
 20
5.5064144E+001
 11
1.3672669E+001
 21
5.5064144E+001
  0
LINE
  8
104
  6
CONTINUOUS
 62
40
 10
3.7946543E+002
 20
5.6064136E+001
 11
3.7946543E+002
 21
5.6164138E+001
  0
ARC
  8
104
  6
CONTINUOUS
 62
40
 10
3.7936542E+002
 20
5.6164133E+001
 40
1.0000391E-001
 50
3.097289E-003
 51
9.00012E+001
  0
LINE
  8
104
  6
CONTINUOUS
 62
40
 10
3.7936542E+002
 20
5.6264137E+001
 11
3.7756542E+002
 21
5.6264137E+001
  0
ARC
  8
104
  6
CONTINUOUS
 62
40
 10
3.7756543E+002
 20
5.6164138E+001
 40
9.999866E-002
 50
9.0000378E+001
 51
1.7999991E+002
  0
LINE
  8
104
  6
CONTINUOUS
 62
40
 10
3.7746543E+002
 20
5.6164138E+001
 11
3.7746543E+002
 21
5.6064136E+001
  0
LINE
  8
104
  6
CONTINUOUS
 62
40
 10
3.8066542E+002
 20
5.3414138E+001
 11
3.8066542E+002
 21
5.5064136E+001
  0
LINE
  8
104
  6
CONTINUOUS
 62
40
 10
3.8066542E+002
 20
5.5064136E+001
 11
3.7626542E+002
 21
5.5064136E+001
  0
LINE
  8
104
  6
CONTINUOUS
 62
40
 10
3.7626542E+002
 20
5.5064136E+001
 11
3.7626542E+002
 21
5.3414138E+001
  0
LINE
  8
104
  6
CONTINUOUS
 62
40
 10
3.7962043E+002
 20
5.2164138E+001
 11
3.7968542E+002
 21
5.2164138E+001
  0
LINE
  8
104
  6
CONTINUOUS
 62
40
 10
3.7911542E+002
 20
5.506414E+001
 11
3.7781542E+002
 21
5.506414E+001
  0
LINE
  8
104
  6
CONTINUOUS
 62
40
 10
3.0176543E+002
 20
5.6764133E+001
 11
3.0176543E+002
 21
5.6264133E+001
  0
LINE
  8
104
  6
CONTINUOUS
 62
40
 10
3.0176543E+002
 20
5.6264133E+001
 11
3.0516543E+002
 21
5.6264133E+001
  0
LINE
  8
104
  6
CONTINUOUS
 62
40
 10
3.0516543E+002
 20
5.6264133E+001
 11
3.0516543E+002
 21
5.6764133E+001
  0
LINE
  8
104
  6
CONTINUOUS
 62
40
 10
3.0446543E+002
 20
5.6264133E+001
 11
3.0446543E+002
 21
5.6064136E+001
  0
LINE
  8
104
  6
CONTINUOUS
 62
40
 10
3.0246543E+002
 20
5.6264133E+001
 11
3.0246543E+002
 21
5.6064136E+001
  0
LINE
  8
104
  6
CONTINUOUS
 62
40
 10
3.0476244E+002
 20
5.5064136E+001
 11
3.0476244E+002
 21
5.496413E+001
  0
ARC
  8
104
  6
CONTINUOUS
 62
40
 10
3.0466244E+002
 20
5.4964129E+001
 40
9.9997537E-002
 50
2.6999916E+002
 51
3.6000049E+002
  0
LINE
  8
104
  6
CONTINUOUS
 62
40
 10
3.0466244E+002
 20
5.4864131E+001
 11
3.0226844E+002
 21
5.4864131E+001
  0
ARC
  8
104
  6
CONTINUOUS
 62
40
 10
3.0226844E+002
 20
5.4964127E+001
 40
9.9995514E-002
 50
1.7999835E+002
 51
2.70002E+002
  0
LINE
  8
104
  6
CONTINUOUS
 62
40
 10
3.0216844E+002
 20
5.496413E+001
 11
3.0216844E+002
 21
5.5064136E+001
  0
LINE
  8
104
  6
CONTINUOUS
 62
40
 10
3.0216844E+002
 20
5.5064136E+001
 11
3.0476244E+002
 21
5.5064136E+001
  0
LINE
  8
99
  6
CONTINUOUS
 62
1
 10
3.0346544E+002
 20
5.4655616E+001
 11
3.0346544E+002
 21
5.740419E+001
  0
LINE
  8
104
  6
CONTINUOUS
 62
40
 10
3.7964542E+002
 20
5.506414E+001
 11
3.7728543E+002
 21
5.506414E+001
  0
LINE
  8
104
  6
CONTINUOUS
 62
40
 10
3.0209222E+002
 20
5.606414E+001
 11
3.0247044E+002
 21
5.606414E+001
  0
LINE
  8
104
  6
CONTINUOUS
 62
40
 10
3.0446043E+002
 20
5.606414E+001
 11
3.0483865E+002
 21
5.606414E+001
  0
LINE
  8
104
  6
CONTINUOUS
 62
40
 10
3.0226543E+002
 20
5.5064136E+001
 11
3.0247044E+002
 21
5.5064136E+001
  0
LINE
  8
104
  6
CONTINUOUS
 62
40
 10
3.0446043E+002
 20
5.5064136E+001
 11
3.0466543E+002
 21
5.5064136E+001
  0
LINE
  8
104
  6
CONTINUOUS
 62
40
 10
3.0126543E+002
 20
5.5064136E+001
 11
3.0126543E+002
 21
5.6064136E+001
  0
LINE
  8
104
  6
CONTINUOUS
 62
40
 10
3.0126543E+002
 20
5.6064136E+001
 11
3.0483865E+002
 21
5.6064136E+001
  0
LINE
  8
104
  6
CONTINUOUS
 62
40
 10
3.0483865E+002
 20
5.6064136E+001
 11
3.7728543E+002
 21
5.6064136E+001
  0
LINE
  8
104
  6
CONTINUOUS
 62
40
 10
3.7728543E+002
 20
5.6064136E+001
 11
3.8066542E+002
 21
5.6064136E+001
  0
LINE
  8
104
  6
CONTINUOUS
 62
40
 10
3.8066542E+002
 20
5.6064136E+001
 11
3.8066542E+002
 21
5.5064136E+001
  0
LINE
  8
104
  6
CONTINUOUS
 62
40
 10
3.8066542E+002
 20
5.5064136E+001
 11
3.0126543E+002
 21
5.5064136E+001
  0
LINE
  8
99
  6
CONTINUOUS
 62
1
 10
2.9786544E+002
 20
6.0221939E+001
 11
2.9786544E+002
 21
5.7527893E+001
  0
LINE
  8
99
  6
CONTINUOUS
 62
1
 10
2.9651046E+002
 20
5.8764137E+001
 11
2.9920451E+002
 21
5.8764137E+001
  0
LINE
  8
99
  6
CONTINUOUS
 62
1
 10
3.8506543E+002
 20
5.8764133E+001
 11
3.8186521E+002
 21
5.8764137E+001
  0
CIRCLE
  8
104
  6
CONTINUOUS
 62
40
 10
2.7616543E+002
 20
5.9764129E+001
 40
5.99999E-001
  0
CIRCLE
  8
99
  6
CONTINUOUS
 62
1
 10
4.1026543E+002
 20
5.8764137E+001
 40
1.0
  0
LINE
  8
99
  6
CONTINUOUS
 62
1
 10
4.0857939E+002
 20
5.8764137E+001
 11
4.1146543E+002
 21
5.8764137E+001
  0
LINE
  8
99
  6
CONTINUOUS
 62
1
 10
4.1026543E+002
 20
5.7347763E+001
 11
4.1026543E+002
 21
6.0296344E+001
  0
LINE
  8
99
  6
CONTINUOUS
 62
1
 10
3.8346543E+002
 20
6.0310085E+001
 11
3.8346544E+002
 21
5.6764133E+001
  0
CIRCLE
  8
99
  6
CONTINUOUS
 62
1
 10
2.9786544E+002
 20
5.8764137E+001
 40
1.0
  0
CIRCLE
  8
99
  6
CONTINUOUS
 62
1
 10
3.8346543E+002
 20
5.8764137E+001
 40
1.0
  0
ARC
  8
104
  6
CONTINUOUS
 62
40
 10
4.1106543E+002
 20
6.2464131E+001
 40
3.9999995E-001
 50
3.22729E-004
 51
9.0000293E+001
  0
LINE
  8
104
  6
CONTINUOUS
 62
40
 10
4.1106543E+002
 20
6.2864131E+001
 11
2.5796543E+002
 21
6.2864131E+001
  0
ARC
  8
104
  6
CONTINUOUS
 62
40
 10
2.5796544E+002
 20
6.2464132E+001
 40
3.9999988E-001
 50
9.0000842E+001
 51
1.7999969E+002
  0
LINE
  8
104
  6
CONTINUOUS
 62
40
 10
2.5756544E+002
 20
6.2464134E+001
 11
2.5756544E+002
 21
5.7164131E+001
  0
ARC
  8
104
  6
CONTINUOUS
 62
40
 10
2.5796543E+002
 20
5.7164128E+001
 40
3.9999472E-001
 50
1.7999957E+002
 51
2.700009E+002
  0
LINE
  8
104
  6
CONTINUOUS
 62
40
 10
2.5796544E+002
 20
5.6764133E+001
 11
4.1106543E+002
 21
5.6764133E+001
  0
ARC
  8
104
  6
CONTINUOUS
 62
40
 10
4.1106544E+002
 20
5.7164129E+001
 40
3.9999625E-001
 50
2.6999918E+002
 51
3.6000021E+002
  0
LINE
  8
104
  6
CONTINUOUS
 62
40
 10
4.1146543E+002
 20
5.7164131E+001
 11
4.1146543E+002
 21
6.2464134E+001
  0
LINE
  8
104
  6
CONTINUOUS
 62
40
 10
2.5966543E+002
 20
6.2864131E+001
 11
2.5966543E+002
 21
5.6764129E+001
  0
LINE
  8
104
  6
CONTINUOUS
 62
40
 10
4.0936543E+002
 20
6.2864135E+001
 11
4.0936542E+002
 21
5.6764129E+001
  0
LINE
  8
106
  6
CENTERLINE
 62
1
 10
3.7846543E+002
 20
5.6623361E+001
 11
3.7846543E+002
 21
5.1955707E+001
  0
CIRCLE
  8
105
  6
HIDDEN
 62
1
 10
3.8506542E+002
 20
5.1164142E+001
 40
1.0
  0
CIRCLE
  8
105
  6
HIDDEN
 62
1
 10
3.6346543E+002
 20
4.9564142E+001
 40
1.0
  0
LINE
  8
106
  6
CENTERLINE
 62
1
 10
3.6346543E+002
 20
5.099747E+001
 11
3.6346543E+002
 21
4.811037E+001
  0
LINE
  8
106
  6
CENTERLINE
 62
1
 10
3.6206692E+002
 20
4.9564142E+001
 11
3.6491393E+002
 21
4.9564142E+001
  0
LINE
  8
106
  6
CENTERLINE
 62
1
 10
3.7466543E+002
 20
5.099747E+001
 11
3.7466543E+002
 21
4.811037E+001
  0
LINE
  8
106
  6
CENTERLINE
 62
1
 10
3.7326692E+002
 20
4.9564142E+001
 11
3.7611393E+002
 21
4.9564142E+001
  0
CIRCLE
  8
105
  6
HIDDEN
 62
1
 10
3.7466543E+002
 20
4.9564142E+001
 40
1.0
  0
CIRCLE
  8
105
  6
HIDDEN
 62
1
 10
3.5306543E+002
 20
4.2564142E+001
 40
1.0
  0
LINE
  8
99
  6
CONTINUOUS
 62
1
 10
3.8506542E+002
 20
4.1063573E+001
 11
3.8506542E+002
 21
5.2718921E+001
  0
LINE
  8
106
  6
CENTERLINE
 62
1
 10
3.8627723E+002
 20
5.1164142E+001
 11
3.8354458E+002
 21
5.1164142E+001
  0
LINE
  8
106
  6
CENTERLINE
 62
1
 10
3.5185363E+002
 20
4.2564142E+001
 11
3.5458628E+002
 21
4.2564142E+001
  0
LINE
  8
106
  6
CENTERLINE
 62
1
 10
3.5306543E+002
 20
4.1063573E+001
 11
3.5306543E+002
 21
5.2662088E+001
  0
LINE
  8
106
  6
CENTERLINE
 62
1
 10
3.5185363E+002
 20
4.5764141E+001
 11
3.5458628E+002
 21
4.5764141E+001
  0
LINE
  8
106
  6
CENTERLINE
 62
1
 10
3.5185363E+002
 20
4.7964141E+001
 11
3.5458628E+002
 21
4.7964141E+001
  0
LINE
  8
106
  6
CENTERLINE
 62
1
 10
3.5185363E+002
 20
5.1164142E+001
 11
3.5458628E+002
 21
5.1164142E+001
  0
LINE
  8
106
  6
CENTERLINE
 62
1
 10
3.8627723E+002
 20
4.2564142E+001
 11
3.8354458E+002
 21
4.2564142E+001
  0
LINE
  8
106
  6
CENTERLINE
 62
1
 10
3.8627723E+002
 20
4.5764141E+001
 11
3.8354458E+002
 21
4.5764141E+001
  0
LINE
  8
106
  6
CENTERLINE
 62
1
 10
3.8627723E+002
 20
4.7964141E+001
 11
3.8354458E+002
 21
4.7964141E+001
  0
CIRCLE
  8
105
  6
HIDDEN
 62
1
 10
3.5306543E+002
 20
4.5764141E+001
 40
1.0
  0
CIRCLE
  8
105
  6
HIDDEN
 62
1
 10
3.5306543E+002
 20
4.7964141E+001
 40
1.0
  0
CIRCLE
  8
105
  6
HIDDEN
 62
1
 10
3.5306543E+002
 20
5.1164142E+001
 40
1.0
  0
CIRCLE
  8
105
  6
HIDDEN
 62
1
 10
3.8506542E+002
 20
4.2564136E+001
 40
1.0
  0
CIRCLE
  8
105
  6
HIDDEN
 62
1
 10
3.8506542E+002
 20
4.5764141E+001
 40
1.0
  0
CIRCLE
  8
105
  6
HIDDEN
 62
1
 10
3.8506542E+002
 20
4.7964141E+001
 40
1.0
  0
LINE
  8
104
  6
CONTINUOUS
 62
40
 10
3.9446543E+002
 20
4.1414142E+001
 11
3.9456542E+002
 21
4.1414142E+001
  0
LINE
  8
104
  6
CONTINUOUS
 62
40
 10
3.9456542E+002
 20
4.1414142E+001
 11
3.9616543E+002
 21
4.1414142E+001
  0
ARC
  8
104
  6
CONTINUOUS
 62
40
 10
3.9616542E+002
 20
4.1814145E+001
 40
4.0000278E-001
 50
2.7000054E+002
 51
3.5999956E+002
  0
LINE
  8
104
  6
CONTINUOUS
 62
40
 10
3.9656542E+002
 20
4.1814142E+001
 11
3.9656542E+002
 21
5.3014141E+001
  0
ARC
  8
104
  6
CONTINUOUS
 62
40
 10
3.9616543E+002
 20
5.3014142E+001
 40
3.9999992E-001
 50
3.5999977E+002
 51
4.4999987E+002
  0
LINE
  8
104
  6
CONTINUOUS
 62
40
 10
3.9616543E+002
 20
5.3414142E+001
 11
3.9456542E+002
 21
5.3414142E+001
  0
LINE
  8
104
  6
CONTINUOUS
 62
40
 10
3.9456542E+002
 20
5.3414142E+001
 11
3.9446543E+002
 21
5.3414142E+001
  0
LINE
  8
104
  6
CONTINUOUS
 62
40
 10
3.9446543E+002
 20
5.3414142E+001
 11
3.4366543E+002
 21
5.3414142E+001
  0
LINE
  8
104
  6
CONTINUOUS
 62
40
 10
3.4366543E+002
 20
5.3414142E+001
 11
3.4356543E+002
 21
5.3414142E+001
  0
LINE
  8
104
  6
CONTINUOUS
 62
40
 10
3.4356543E+002
 20
5.3414142E+001
 11
3.4196543E+002
 21
5.3414142E+001
  0
ARC
  8
104
  6
CONTINUOUS
 62
40
 10
3.419686E+002
 20
5.3010991E+001
 40
4.0316291E-001
 50
9.044922E+001
 51
1.7999811E+002
  0
LINE
  8
104
  6
CONTINUOUS
 62
40
 10
3.4156543E+002
 20
5.3011005E+001
 11
3.4156543E+002
 21
4.1814142E+001
  0
ARC
  8
104
  6
CONTINUOUS
 62
40
 10
3.4196543E+002
 20
4.1814139E+001
 40
3.9999707E-001
 50
1.7999962E+002
 51
2.7000071E+002
  0
LINE
  8
104
  6
CONTINUOUS
 62
40
 10
3.4196543E+002
 20
4.1414142E+001
 11
3.4356543E+002
 21
4.1414142E+001
  0
LINE
  8
104
  6
CONTINUOUS
 62
40
 10
3.4356543E+002
 20
4.1414142E+001
 11
3.4366543E+002
 21
4.1414142E+001
  0
LINE
  8
104
  6
CONTINUOUS
 62
40
 10
3.4366543E+002
 20
4.1414142E+001
 11
3.9446543E+002
 21
4.1414142E+001
  0
LINE
  8
104
  6
CONTINUOUS
 62
40
 10
3.4356543E+002
 20
5.3414142E+001
 11
3.4356543E+002
 21
4.1514141E+001
  0
LINE
  8
104
  6
CONTINUOUS
 62
40
 10
3.4356543E+002
 20
4.1514141E+001
 11
3.4356543E+002
 21
4.1414142E+001
  0
LINE
  8
104
  6
CONTINUOUS
 62
40
 10
3.9456542E+002
 20
4.1414142E+001
 11
3.9456542E+002
 21
5.3414142E+001
  0
LINE
  8
106
  6
CENTERLINE
 62
1
 10
3.8506542E+002
 20
4.1063573E+001
 11
3.8506542E+002
 21
4.7268651E+001
  0
LINE
  8
106
  6
CENTERLINE
 62
1
 10
3.8506542E+002
 20
4.7268651E+001
 11
3.8506542E+002
 21
5.2006805E+001
  0
LINE
  8
106
  6
CENTERLINE
 62
1
 10
3.5306543E+002
 20
4.1063573E+001
 11
3.5306543E+002
 21
4.7460559E+001
  0
LINE
  8
106
  6
CENTERLINE
 62
1
 10
3.5306543E+002
 20
4.7460559E+001
 11
3.5306543E+002
 21
5.2115142E+001
  0
LINE
  8
104
  6
CONTINUOUS
 62
40
 10
2.8956543E+002
 20
1.0893172E+002
 11
2.8956543E+002
 21
1.0903172E+002
  0
ARC
  8
104
  6
CONTINUOUS
 62
40
 10
2.8966544E+002
 20
1.0903172E+002
 40
1.0000391E-001
 50
8.99988E+001
 51
1.7999719E+002
  0
LINE
  8
104
  6
CONTINUOUS
 62
40
 10
2.8966544E+002
 20
1.0913172E+002
 11
2.9146544E+002
 21
1.0913172E+002
  0
ARC
  8
104
  6
CONTINUOUS
 62
40
 10
2.9146544E+002
 20
1.0903173E+002
 40
9.9998606E-002
 50
3.5999977E+002
 51
4.5000023E+002
  0
LINE
  8
104
  6
CONTINUOUS
 62
40
 10
2.9156543E+002
 20
1.0903172E+002
 11
2.9156543E+002
 21
1.0893172E+002
  0
LINE
  8
104
  6
CONTINUOUS
 62
40
 10
2.8836544E+002
 20
1.0628172E+002
 11
2.8836544E+002
 21
1.0793172E+002
  0
LINE
  8
104
  6
CONTINUOUS
 62
40
 10
2.8836544E+002
 20
1.0793172E+002
 11
2.9276544E+002
 21
1.0793172E+002
  0
LINE
  8
104
  6
CONTINUOUS
 62
40
 10
2.9276544E+002
 20
1.0793172E+002
 11
2.9276544E+002
 21
1.0628172E+002
  0
LINE
  8
104
  6
CONTINUOUS
 62
40
 10
2.8941044E+002
 20
1.0503172E+002
 11
2.8934544E+002
 21
1.0503172E+002
  0
LINE
  8
104
  6
CONTINUOUS
 62
40
 10
2.8991544E+002
 20
1.0793173E+002
 11
2.9121544E+002
 21
1.0793173E+002
  0
LINE
  8
104
  6
CONTINUOUS
 62
40
 10
3.6726543E+002
 20
1.0963172E+002
 11
3.6726543E+002
 21
1.0913172E+002
  0
LINE
  8
104
  6
CONTINUOUS
 62
40
 10
3.6726543E+002
 20
1.0913172E+002
 11
3.6386543E+002
 21
1.0913172E+002
  0
LINE
  8
104
  6
CONTINUOUS
 62
40
 10
3.6386543E+002
 20
1.0913172E+002
 11
3.6386543E+002
 21
1.0963172E+002
  0
LINE
  8
104
  6
CONTINUOUS
 62
40
 10
3.6456543E+002
 20
1.0913172E+002
 11
3.6456543E+002
 21
1.0893172E+002
  0
LINE
  8
104
  6
CONTINUOUS
 62
40
 10
3.6656543E+002
 20
1.0913172E+002
 11
3.6656543E+002
 21
1.0893172E+002
  0
LINE
  8
104
  6
CONTINUOUS
 62
40
 10
3.6426843E+002
 20
1.0793172E+002
 11
3.6426843E+002
 21
1.0783172E+002
  0
ARC
  8
104
  6
CONTINUOUS
 62
40
 10
3.6436842E+002
 20
1.0783172E+002
 40
9.9997513E-002
 50
1.7999915E+002
 51
2.7000085E+002
  0
LINE
  8
104
  6
CONTINUOUS
 62
40
 10
3.6436842E+002
 20
1.0773172E+002
 11
3.6676242E+002
 21
1.0773172E+002
  0
ARC
  8
104
  6
CONTINUOUS
 62
40
 10
3.6676242E+002
 20
1.0783171E+002
 40
9.9995642E-002
 50
2.6999865E+002
 51
3.6000192E+002
  0
LINE
  8
104
  6
CONTINUOUS
 62
40
 10
3.6686242E+002
 20
1.0783172E+002
 11
3.6686242E+002
 21
1.0793172E+002
  0
LINE
  8
104
  6
CONTINUOUS
 62
40
 10
3.6686242E+002
 20
1.0793172E+002
 11
3.6426843E+002
 21
1.0793172E+002
  0
LINE
  8
99
  6
CONTINUOUS
 62
1
 10
3.6556542E+002
 20
1.075232E+002
 11
3.6556542E+002
 21
1.1027178E+002
  0
LINE
  8
104
  6
CONTINUOUS
 62
40
 10
2.8938544E+002
 20
1.0793173E+002
 11
2.9174543E+002
 21
1.0793173E+002
  0
LINE
  8
104
  6
CONTINUOUS
 62
40
 10
3.6693864E+002
 20
1.0893173E+002
 11
3.6656042E+002
 21
1.0893173E+002
  0
LINE
  8
104
  6
CONTINUOUS
 62
40
 10
3.6457043E+002
 20
1.0893173E+002
 11
3.6419222E+002
 21
1.0893173E+002
  0
LINE
  8
104
  6
CONTINUOUS
 62
40
 10
3.6676543E+002
 20
1.0793172E+002
 11
3.6656042E+002
 21
1.0793172E+002
  0
LINE
  8
104
  6
CONTINUOUS
 62
40
 10
3.6457043E+002
 20
1.0793172E+002
 11
3.6436543E+002
 21
1.0793172E+002
  0
LINE
  8
104
  6
CONTINUOUS
 62
40
 10
3.6776543E+002
 20
1.0793172E+002
 11
3.6776543E+002
 21
1.0893172E+002
  0
LINE
  8
104
  6
CONTINUOUS
 62
40
 10
3.6776543E+002
 20
1.0893172E+002
 11
3.6419222E+002
 21
1.0893172E+002
  0
LINE
  8
104
  6
CONTINUOUS
 62
40
 10
3.6419222E+002
 20
1.0893172E+002
 11
2.9174543E+002
 21
1.0893172E+002
  0
LINE
  8
104
  6
CONTINUOUS
 62
40
 10
2.9174543E+002
 20
1.0893172E+002
 11
2.8836544E+002
 21
1.0893172E+002
  0
LINE
  8
104
  6
CONTINUOUS
 62
40
 10
2.8836544E+002
 20
1.0893172E+002
 11
2.8836544E+002
 21
1.0793172E+002
  0
LINE
  8
104
  6
CONTINUOUS
 62
40
 10
2.8836544E+002
 20
1.0793172E+002
 11
3.6776543E+002
 21
1.0793172E+002
  0
LINE
  8
99
  6
CONTINUOUS
 62
1
 10
3.7116542E+002
 20
1.1308953E+002
 11
3.7116542E+002
 21
1.1039548E+002
  0
LINE
  8
99
  6
CONTINUOUS
 62
1
 10
3.725204E+002
 20
1.1163172E+002
 11
3.6982636E+002
 21
1.1163172E+002
  0
LINE
  8
99
  6
CONTINUOUS
 62
1
 10
2.8396543E+002
 20
1.1163172E+002
 11
2.8716565E+002
 21
1.1163172E+002
  0
CIRCLE
  8
104
  6
CONTINUOUS
 62
40
 10
3.9286543E+002
 20
1.1263172E+002
 40
5.99998E-001
  0
CIRCLE
  8
99
  6
CONTINUOUS
 62
1
 10
2.5876543E+002
 20
1.1163172E+002
 40
1.0
  0
LINE
  8
99
  6
CONTINUOUS
 62
1
 10
2.6045147E+002
 20
1.1163172E+002
 11
2.5756543E+002
 21
1.1163172E+002
  0
LINE
  8
99
  6
CONTINUOUS
 62
1
 10
2.5876543E+002
 20
1.1021535E+002
 11
2.5876543E+002
 21
1.1316393E+002
  0
LINE
  8
99
  6
CONTINUOUS
 62
1
 10
2.8556543E+002
 20
1.1317767E+002
 11
2.8556542E+002
 21
1.0963172E+002
  0
CIRCLE
  8
99
  6
CONTINUOUS
 62
1
 10
3.7116542E+002
 20
1.1163172E+002
 40
1.0
  0
CIRCLE
  8
99
  6
CONTINUOUS
 62
1
 10
2.8556543E+002
 20
1.1163172E+002
 40
1.0
  0
ARC
  8
104
  6
CONTINUOUS
 62
40
 10
2.5796543E+002
 20
1.1533172E+002
 40
3.999997E-001
 50
8.9999671E+001
 51
1.7999961E+002
  0
LINE
  8
104
  6
CONTINUOUS
 62
40
 10
2.5796543E+002
 20
1.1573172E+002
 11
4.1106543E+002
 21
1.1573172E+002
  0
ARC
  8
104
  6
CONTINUOUS
 62
40
 10
4.1106543E+002
 20
1.1533172E+002
 40
3.9999978E-001
 50
3.981986E-004
 51
8.9999172E+001
  0
LINE
  8
104
  6
CONTINUOUS
 62
40
 10
4.1146542E+002
 20
1.1533172E+002
 11
4.1146542E+002
 21
1.1003172E+002
  0
ARC
  8
104
  6
CONTINUOUS
 62
40
 10
4.1106543E+002
 20
1.1003171E+002
 40
3.9999481E-001
 50
2.6999897E+002
 51
3.6000046E+002
  0
LINE
  8
104
  6
CONTINUOUS
 62
40
 10
4.1106542E+002
 20
1.0963172E+002
 11
2.5796543E+002
 21
1.0963172E+002
  0
ARC
  8
104
  6
CONTINUOUS
 62
40
 10
2.5796543E+002
 20
1.1003172E+002
 40
3.9999639E-001
 50
1.7999977E+002
 51
2.700008E+002
  0
LINE
  8
104
  6
CONTINUOUS
 62
40
 10
2.5756543E+002
 20
1.1003172E+002
 11
2.5756543E+002
 21
1.1533172E+002
  0
LINE
  8
104
  6
CONTINUOUS
 62
40
 10
4.0936543E+002
 20
1.1573172E+002
 11
4.0936543E+002
 21
1.0963172E+002
  0
LINE
  8
104
  6
CONTINUOUS
 62
40
 10
2.5966543E+002
 20
1.1573172E+002
 11
2.5966544E+002
 21
1.0963172E+002
  0
LINE
  8
106
  6
CENTERLINE
 62
1
 10
2.9056543E+002
 20
1.0949095E+002
 11
2.9056543E+002
 21
1.0482329E+002
  0
CIRCLE
  8
105
  6
HIDDEN
 62
1
 10
2.8396544E+002
 20
1.0403173E+002
 40
1.0
  0
CIRCLE
  8
105
  6
HIDDEN
 62
1
 10
3.0556543E+002
 20
1.0243173E+002
 40
1.0
  0
LINE
  8
106
  6
CENTERLINE
 62
1
 10
3.0556543E+002
 20
1.0386506E+002
 11
3.0556543E+002
 21
1.0097796E+002
  0
LINE
  8
106
  6
CENTERLINE
 62
1
 10
3.0696394E+002
 20
1.0243173E+002
 11
3.0411693E+002
 21
1.0243173E+002
  0
LINE
  8
106
  6
CENTERLINE
 62
1
 10
2.9436543E+002
 20
1.0386506E+002
 11
2.9436543E+002
 21
1.0097796E+002
  0
LINE
  8
106
  6
CENTERLINE
 62
1
 10
2.9576394E+002
 20
1.0243173E+002
 11
2.9291694E+002
 21
1.0243173E+002
  0
CIRCLE
  8
105
  6
HIDDEN
 62
1
 10
2.9436543E+002
 20
1.0243173E+002
 40
1.0
  0
CIRCLE
  8
105
  6
HIDDEN
 62
1
 10
3.1596543E+002
 20
9.5431729E+001
 40
1.0
  0
LINE
  8
99
  6
CONTINUOUS
 62
1
 10
2.8396544E+002
 20
9.393116E+001
 11
2.8396544E+002
 21
1.0558651E+002
  0
LINE
  8
106
  6
CENTERLINE
 62
1
 10
2.8275363E+002
 20
1.0403173E+002
 11
2.8548628E+002
 21
1.0403173E+002
  0
LINE
  8
106
  6
CENTERLINE
 62
1
 10
3.1717724E+002
 20
9.5431729E+001
 11
3.1444458E+002
 21
9.5431729E+001
  0
LINE
  8
106
  6
CENTERLINE
 62
1
 10
3.1596543E+002
 20
9.393116E+001
 11
3.1596543E+002
 21
1.0552967E+002
  0
LINE
  8
106
  6
CENTERLINE
 62
1
 10
3.1717724E+002
 20
9.8631728E+001
 11
3.1444458E+002
 21
9.8631728E+001
  0
LINE
  8
106
  6
CENTERLINE
 62
1
 10
3.1717724E+002
 20
1.0083173E+002
 11
3.1444458E+002
 21
1.0083173E+002
  0
LINE
  8
106
  6
CENTERLINE
 62
1
 10
3.1717724E+002
 20
1.0403173E+002
 11
3.1444458E+002
 21
1.0403173E+002
  0
LINE
  8
106
  6
CENTERLINE
 62
1
 10
2.8275363E+002
 20
9.5431729E+001
 11
2.8548628E+002
 21
9.5431729E+001
  0
LINE
  8
106
  6
CENTERLINE
 62
1
 10
2.8275363E+002
 20
9.8631728E+001
 11
2.8548628E+002
 21
9.8631728E+001
  0
LINE
  8
106
  6
CENTERLINE
 62
1
 10
2.8275363E+002
 20
1.0083173E+002
 11
2.8548628E+002
 21
1.0083173E+002
  0
CIRCLE
  8
105
  6
HIDDEN
 62
1
 10
3.1596543E+002
 20
9.8631728E+001
 40
1.0
  0
CIRCLE
  8
105
  6
HIDDEN
 62
1
 10
3.1596543E+002
 20
1.0083173E+002
 40
1.0
  0
CIRCLE
  8
105
  6
HIDDEN
 62
1
 10
3.1596543E+002
 20
1.0403173E+002
 40
1.0
  0
CIRCLE
  8
105
  6
HIDDEN
 62
1
 10
2.8396544E+002
 20
9.5431723E+001
 40
1.0
  0
CIRCLE
  8
105
  6
HIDDEN
 62
1
 10
2.8396544E+002
 20
9.8631728E+001
 40
1.0
  0
CIRCLE
  8
105
  6
HIDDEN
 62
1
 10
2.8396544E+002
 20
1.0083173E+002
 40
1.0
  0
LINE
  8
104
  6
CONTINUOUS
 62
40
 10
2.7456543E+002
 20
9.4281729E+001
 11
2.7446544E+002
 21
9.4281729E+001
  0
LINE
  8
104
  6
CONTINUOUS
 62
40
 10
2.7446544E+002
 20
9.4281729E+001
 11
2.7286544E+002
 21
9.4281729E+001
  0
ARC
  8
104
  6
CONTINUOUS
 62
40
 10
2.7286544E+002
 20
9.4681732E+001
 40
4.0000287E-001
 50
1.8000041E+002
 51
2.6999959E+002
  0
LINE
  8
104
  6
CONTINUOUS
 62
40
 10
2.7246544E+002
 20
9.4681729E+001
 11
2.7246544E+002
 21
1.0588173E+002
  0
ARC
  8
104
  6
CONTINUOUS
 62
40
 10
2.7286544E+002
 20
1.0588173E+002
 40
3.9999964E-001
 50
8.9999949E+001
 51
1.8000019E+002
  0
LINE
  8
104
  6
CONTINUOUS
 62
40
 10
2.7286544E+002
 20
1.0628173E+002
 11
2.7446544E+002
 21
1.0628173E+002
  0
LINE
  8
104
  6
CONTINUOUS
 62
40
 10
2.7446544E+002
 20
1.0628173E+002
 11
2.7456543E+002
 21
1.0628173E+002
  0
LINE
  8
104
  6
CONTINUOUS
 62
40
 10
2.7456543E+002
 20
1.0628173E+002
 11
3.2536543E+002
 21
1.0628173E+002
  0
LINE
  8
104
  6
CONTINUOUS
 62
40
 10
3.2536543E+002
 20
1.0628173E+002
 11
3.2546543E+002
 21
1.0628173E+002
  0
LINE
  8
104
  6
CONTINUOUS
 62
40
 10
3.2546543E+002
 20
1.0628173E+002
 11
3.2706543E+002
 21
1.0628173E+002
  0
ARC
  8
104
  6
CONTINUOUS
 62
40
 10
3.2706227E+002
 20
1.0587858E+002
 40
4.0316275E-001
 50
1.8992958E-003
 51
8.9550802E+001
  0
LINE
  8
104
  6
CONTINUOUS
 62
40
 10
3.2746543E+002
 20
1.0587859E+002
 11
3.2746543E+002
 21
9.4681729E+001
  0
ARC
  8
104
  6
CONTINUOUS
 62
40
 10
3.2706543E+002
 20
9.4681726E+001
 40
3.9999732E-001
 50
2.6999933E+002
 51
3.6000038E+002
  0
LINE
  8
104
  6
CONTINUOUS
 62
40
 10
3.2706543E+002
 20
9.4281729E+001
 11
3.2546543E+002
 21
9.4281729E+001
  0
LINE
  8
104
  6
CONTINUOUS
 62
40
 10
3.2546543E+002
 20
9.4281729E+001
 11
3.2536543E+002
 21
9.4281729E+001
  0
LINE
  8
104
  6
CONTINUOUS
 62
40
 10
3.2536543E+002
 20
9.4281729E+001
 11
2.7456543E+002
 21
9.4281729E+001
  0
LINE
  8
104
  6
CONTINUOUS
 62
40
 10
3.2546543E+002
 20
1.0628173E+002
 11
3.2546543E+002
 21
9.4381728E+001
  0
LINE
  8
104
  6
CONTINUOUS
 62
40
 10
3.2546543E+002
 20
9.4381728E+001
 11
3.2546543E+002
 21
9.4281729E+001
  0
LINE
  8
104
  6
CONTINUOUS
 62
40
 10
2.7446544E+002
 20
9.4281729E+001
 11
2.7446544E+002
 21
1.0628173E+002
  0
LINE
  8
106
  6
CENTERLINE
 62
1
 10
2.8396544E+002
 20
9.393116E+001
 11
2.8396544E+002
 21
1.0013624E+002
  0
LINE
  8
106
  6
CENTERLINE
 62
1
 10
2.8396544E+002
 20
1.0013624E+002
 11
2.8396544E+002
 21
1.0487439E+002
  0
LINE
  8
106
  6
CENTERLINE
 62
1
 10
3.1596543E+002
 20
9.393116E+001
 11
3.1596543E+002
 21
1.0032815E+002
  0
LINE
  8
106
  6
CENTERLINE
 62
1
 10
3.1596543E+002
 20
1.0032815E+002
 11
3.1596543E+002
 21
1.0498273E+002
  0
ENDSEC
  0
EOF
