  0
SECTION
  2
HEADER
  9
$ACADVER
  1
AC1009
999
I-DEAS 8 Not Encoded
  9
$EXTMIN
 10
0.0
 20
0.0
  9
$EXTMAX
 10
5.94E+002
 20
4.2E+002
  9
$TEXTSIZE
 40
1.25E-001
  9
$LTSCALE
 40
1.0
  9
$CLAYER
  8
104
  9
$CECOLOR
 62
40
  9
$DIMASZ
 40
1.25E-001
  9
$DIMEXO
 40
6.25E-002
  9
$DIMDLI
 40
2.5E-001
  9
$DIMEXE
 40
1.25E-001
  9
$DIMTP
 40
5.0E-003
  9
$DIMTM
 40
-5.0E-003
  9
$DIMTXT
 40
3.0
  9
$DIMLIM
 70
0
  9
$DIMTIH
 70
1
  9
$DIMTOH
 70
1
  9
$DIMSE1
 70
0
  9
$DIMSE2
 70
0
  9
$DIMTAD
 70
0
  9
$DIMASO
 70
1
  9
$DIMALT
 70
0
  9
$DIMALTD
 70
0
  9
$DIMTOFL
 70
1
  9
$DIMTIX
 70
0
  9
$DIMSAH
 70
0
  9
$DIMTFAC
 40
1.0
  9
$DIMGAP
 40
6.25E-002
  9
$LUNITS
 70
2
  9
$LUPREC
 70
3
  9
$FILLETRAD
 40
2.0
  9
$AUNITS
 70
0
  9
$AUPREC
 70
1
  9
$CHAMFERA
 40
1.0E+001
  9
$CHAMFERB
 40
1.0E+001
  9
$ANGBASE
 50
0.0
  9
$ANGDIR
 70
0
  9
$PDMODE
 70
2
  9
$PDSIZE
 40
-1.0E-002
  9
$SPLINETYPE
 70
6
  0
ENDSEC
  0
SECTION
  2
TABLES
  0
TABLE
  2
LTYPE
 70
7
  0
LTYPE
  2
HIDDENNEW00
  3
_ 
 70
64
 72
65
 73
3
 40
4.5
 49
1.5
 49
-1.5
 49
1.5
  0
LTYPE
  2
HIDDENNEW01
  3
_ 
 70
64
 72
65
 73
3
 40
4.5
 49
1.5
 49
-1.5
 49
1.5
  0
LTYPE
  2
HIDDEN
  3
_ 
 70
64
 72
65
 73
3
 40
4.5
 49
1.5
 49
-1.5
 49
1.5
  0
LTYPE
  2
CENTERLINE
  3
_ 
 70
64
 72
65
 73
5
 40
3.0E+001
 49
1.2E+001
 49
-1.5
 49
3.0
 49
-1.5
 49
1.2E+001
  0
LTYPE
  2
PHANTOM
  3
_ 
 70
64
 72
65
 73
7
 40
2.95E+001
 49
9.5
 49
-1.5
 49
3.0
 49
-1.5
 49
3.0
 49
-1.5
 49
9.5
  0
LTYPE
  2
SHORT_DASH
  3
_ 
 70
64
 72
65
 73
3
 40
3.0
 49
7.5E-001
 49
-1.5
 49
7.5E-001
  0
LTYPE
  2
LONG_DASH
  3
_ 
 70
64
 72
65
 73
3
 40
9.0
 49
2.25
 49
-4.5
 49
2.25
  0
ENDTAB
  0
TABLE
  2
LAYER
 70
258
  0
LAYER
  2
1
 70
0
 62
7
  6
CONTINUOUS
  0
LAYER
  2
2
 70
0
 62
7
  6
CONTINUOUS
  0
LAYER
  2
3
 70
0
 62
7
  6
CONTINUOUS
  0
LAYER
  2
4
 70
0
 62
7
  6
CONTINUOUS
  0
LAYER
  2
MED-5
 70
0
 62
5
  6
HIDDENNEW00
  0
LAYER
  2
MED-6
 70
0
 62
6
  6
HIDDENNEW00
  0
LAYER
  2
7
 70
0
 62
7
  6
CONTINUOUS
  0
LAYER
  2
8
 70
0
 62
7
  6
CONTINUOUS
  0
LAYER
  2
9
 70
0
 62
7
  6
CONTINUOUS
  0
LAYER
  2
10
 70
0
 62
7
  6
CONTINUOUS
  0
LAYER
  2
MED-11
 70
0
 62
70
  6
HIDDENNEW00
  0
LAYER
  2
12
 70
0
 62
7
  6
CONTINUOUS
  0
LAYER
  2
MED-13
 70
0
 62
110
  6
HIDDENNEW00
  0
LAYER
  2
14
 70
0
 62
7
  6
CONTINUOUS
  0
LAYER
  2
15
 70
0
 62
7
  6
CONTINUOUS
  0
LAYER
  2
16
 70
0
 62
7
  6
CONTINUOUS
  0
LAYER
  2
17
 70
0
 62
7
  6
CONTINUOUS
  0
LAYER
  2
18
 70
0
 62
7
  6
CONTINUOUS
  0
LAYER
  2
19
 70
0
 62
7
  6
CONTINUOUS
  0
LAYER
  2
20
 70
0
 62
7
  6
CONTINUOUS
  0
LAYER
  2
21
 70
0
 62
7
  6
CONTINUOUS
  0
LAYER
  2
22
 70
0
 62
7
  6
CONTINUOUS
  0
LAYER
  2
23
 70
0
 62
7
  6
CONTINUOUS
  0
LAYER
  2
24
 70
0
 62
7
  6
CONTINUOUS
  0
LAYER
  2
25
 70
0
 62
7
  6
CONTINUOUS
  0
LAYER
  2
26
 70
0
 62
7
  6
CONTINUOUS
  0
LAYER
  2
27
 70
0
 62
7
  6
CONTINUOUS
  0
LAYER
  2
28
 70
0
 62
7
  6
CONTINUOUS
  0
LAYER
  2
29
 70
0
 62
7
  6
CONTINUOUS
  0
LAYER
  2
30
 70
0
 62
7
  6
CONTINUOUS
  0
LAYER
  2
MED-31
 70
0
 62
230
  6
HIDDENNEW00
  0
LAYER
  2
32
 70
0
 62
7
  6
CONTINUOUS
  0
LAYER
  2
33
 70
0
 62
7
  6
CONTINUOUS
  0
LAYER
  2
34
 70
0
 62
7
  6
CONTINUOUS
  0
LAYER
  2
35
 70
0
 62
7
  6
CONTINUOUS
  0
LAYER
  2
36
 70
0
 62
7
  6
CONTINUOUS
  0
LAYER
  2
37
 70
0
 62
7
  6
CONTINUOUS
  0
LAYER
  2
38
 70
0
 62
7
  6
CONTINUOUS
  0
LAYER
  2
39
 70
0
 62
7
  6
CONTINUOUS
  0
LAYER
  2
40
 70
0
 62
7
  6
CONTINUOUS
  0
LAYER
  2
41
 70
0
 62
7
  6
CONTINUOUS
  0
LAYER
  2
42
 70
0
 62
7
  6
CONTINUOUS
  0
LAYER
  2
43
 70
0
 62
7
  6
CONTINUOUS
  0
LAYER
  2
44
 70
0
 62
7
  6
CONTINUOUS
  0
LAYER
  2
45
 70
0
 62
7
  6
CONTINUOUS
  0
LAYER
  2
46
 70
0
 62
7
  6
CONTINUOUS
  0
LAYER
  2
47
 70
0
 62
7
  6
CONTINUOUS
  0
LAYER
  2
48
 70
0
 62
7
  6
CONTINUOUS
  0
LAYER
  2
49
 70
0
 62
7
  6
CONTINUOUS
  0
LAYER
  2
50
 70
0
 62
7
  6
CONTINUOUS
  0
LAYER
  2
51
 70
0
 62
7
  6
CONTINUOUS
  0
LAYER
  2
52
 70
0
 62
7
  6
CONTINUOUS
  0
LAYER
  2
53
 70
0
 62
7
  6
CONTINUOUS
  0
LAYER
  2
54
 70
0
 62
7
  6
CONTINUOUS
  0
LAYER
  2
55
 70
0
 62
7
  6
CONTINUOUS
  0
LAYER
  2
56
 70
0
 62
7
  6
CONTINUOUS
  0
LAYER
  2
57
 70
0
 62
7
  6
CONTINUOUS
  0
LAYER
  2
58
 70
0
 62
7
  6
CONTINUOUS
  0
LAYER
  2
59
 70
0
 62
7
  6
CONTINUOUS
  0
LAYER
  2
60
 70
0
 62
7
  6
CONTINUOUS
  0
LAYER
  2
61
 70
0
 62
7
  6
CONTINUOUS
  0
LAYER
  2
62
 70
0
 62
7
  6
CONTINUOUS
  0
LAYER
  2
63
 70
0
 62
7
  6
CONTINUOUS
  0
LAYER
  2
64
 70
0
 62
7
  6
CONTINUOUS
  0
LAYER
  2
65
 70
0
 62
7
  6
CONTINUOUS
  0
LAYER
  2
66
 70
0
 62
7
  6
CONTINUOUS
  0
LAYER
  2
67
 70
0
 62
7
  6
CONTINUOUS
  0
LAYER
  2
68
 70
0
 62
7
  6
CONTINUOUS
  0
LAYER
  2
69
 70
0
 62
7
  6
CONTINUOUS
  0
LAYER
  2
70
 70
0
 62
7
  6
CONTINUOUS
  0
LAYER
  2
71
 70
0
 62
7
  6
CONTINUOUS
  0
LAYER
  2
72
 70
0
 62
7
  6
CONTINUOUS
  0
LAYER
  2
73
 70
0
 62
7
  6
CONTINUOUS
  0
LAYER
  2
74
 70
0
 62
7
  6
CONTINUOUS
  0
LAYER
  2
75
 70
0
 62
7
  6
CONTINUOUS
  0
LAYER
  2
76
 70
0
 62
7
  6
CONTINUOUS
  0
LAYER
  2
77
 70
0
 62
7
  6
CONTINUOUS
  0
LAYER
  2
78
 70
0
 62
7
  6
CONTINUOUS
  0
LAYER
  2
79
 70
0
 62
7
  6
CONTINUOUS
  0
LAYER
  2
80
 70
0
 62
7
  6
CONTINUOUS
  0
LAYER
  2
81
 70
0
 62
7
  6
CONTINUOUS
  0
LAYER
  2
82
 70
0
 62
7
  6
CONTINUOUS
  0
LAYER
  2
83
 70
0
 62
7
  6
CONTINUOUS
  0
LAYER
  2
84
 70
0
 62
7
  6
CONTINUOUS
  0
LAYER
  2
85
 70
0
 62
7
  6
CONTINUOUS
  0
LAYER
  2
86
 70
0
 62
7
  6
CONTINUOUS
  0
LAYER
  2
87
 70
0
 62
7
  6
CONTINUOUS
  0
LAYER
  2
88
 70
0
 62
7
  6
CONTINUOUS
  0
LAYER
  2
89
 70
0
 62
7
  6
CONTINUOUS
  0
LAYER
  2
90
 70
0
 62
7
  6
CONTINUOUS
  0
LAYER
  2
91
 70
0
 62
7
  6
CONTINUOUS
  0
LAYER
  2
92
 70
0
 62
7
  6
CONTINUOUS
  0
LAYER
  2
93
 70
0
 62
7
  6
CONTINUOUS
  0
LAYER
  2
94
 70
0
 62
7
  6
CONTINUOUS
  0
LAYER
  2
95
 70
0
 62
7
  6
CONTINUOUS
  0
LAYER
  2
96
 70
0
 62
7
  6
CONTINUOUS
  0
LAYER
  2
97
 70
0
 62
7
  6
CONTINUOUS
  0
LAYER
  2
98
 70
0
 62
7
  6
CONTINUOUS
  0
LAYER
  2
99
 70
0
 62
7
  6
CONTINUOUS
  0
LAYER
  2
MED-0
 70
0
 62
230
  6
HIDDENNEW00
  0
LAYER
  2
M_ERR
 70
0
 62
1
  6
HIDDENNEW00
  0
LAYER
  2
102
 70
0
 62
7
  6
CONTINUOUS
  0
LAYER
  2
103
 70
0
 62
7
  6
CONTINUOUS
  0
LAYER
  2
104
 70
0
 62
7
  6
CONTINUOUS
  0
LAYER
  2
105
 70
0
 62
7
  6
CONTINUOUS
  0
LAYER
  2
106
 70
0
 62
7
  6
CONTINUOUS
  0
LAYER
  2
107
 70
0
 62
7
  6
CONTINUOUS
  0
LAYER
  2
108
 70
0
 62
7
  6
CONTINUOUS
  0
LAYER
  2
Drafting_Hidden_Entities
 70
1
 62
7
  6
CONTINUOUS
  0
ENDTAB
  0
TABLE
  2
STYLE
 70
1
  0
STYLE
  2
STANDARD
 70
64
 40
0.0
 41
1.0
 50
0.0
 71
0
 42
1.0
  3
monotxt.shx
  4

  0
ENDTAB
  0
TABLE
  2
VIEW
 70
0
  0
ENDTAB
  0
TABLE
  2
DIMSTYLE
 70
0
  0
ENDTAB
  0
ENDSEC
  0
SECTION
  2
BLOCKS
  0
BLOCK
  2
*XH26
  3
*XH
 10
0.0
 20
0.0
 70
65
  0
LINE
  8
108
  6
CONTINUOUS
 62
1
 10
1.2267042E+001
 20
-3.9963894
 11
1.3833327E+001
 21
-2.4301357
  0
LINE
  8
108
  6
CONTINUOUS
 62
1
 10
1.6890028E+001
 20
6.2656597E-001
 11
1.7889357E+001
 21
1.6258946
  0
LINE
  8
108
  6
CONTINUOUS
 62
1
 10
1.4830488E+001
 20
1.3954563
 11
1.3811781E+001
 21
3.7674907E-001
  0
LINE
  8
108
  6
CONTINUOUS
 62
1
 10
1.0709883E+001
 20
-2.7251491
 11
9.8934159
 21
-3.5416164
  0
LINE
  8
108
  6
CONTINUOUS
 62
1
 10
7.6626719
 20
-2.9439296
 11
8.4791699
 21
-2.1274318
  0
LINE
  8
108
  6
CONTINUOUS
 62
1
 10
6.2484569
 20
-1.5297146
 11
5.4319589
 21
-2.3462124
  0
LINE
  8
108
  6
CONTINUOUS
 62
1
 10
3.2012159
 20
-1.7485256
 11
4.0177749
 21
-9.3199733E-001
  0
LINE
  8
108
  6
CONTINUOUS
 62
1
 10
1.7870309
 20
-3.3428003E-001
 11
9.7050291E-001
 21
-1.1508388
  0
LINE
  8
108
  6
CONTINUOUS
 62
1
 10
-1.2602711
 20
-5.5315213E-001
 11
-4.4368209E-001
 21
2.6343727E-001
  0
LINE
  8
108
  6
CONTINUOUS
 62
1
 10
-2.6743641
 20
8.6115457E-001
 11
-3.4909841
 21
4.4565172E-002
  0
LINE
  8
108
  6
CONTINUOUS
 62
1
 10
-5.7217271
 20
6.4225197E-001
 11
-4.9050771
 21
1.4588719
  0
LINE
  8
108
  6
CONTINUOUS
 62
1
 10
-7.1357901
 20
2.0565892
 11
-7.9524401
 21
1.2399388
  0
LINE
  8
108
  6
CONTINUOUS
 62
1
 10
-1.1980303E+001
 20
4.0506372E-002
 11
-9.6478141
 21
2.3729954
  0
LINE
  8
108
  6
CONTINUOUS
 62
1
 10
-1.3497301E+001
 20
1.3519383
 11
-1.4046556E+001
 21
8.0271337E-001
  0
LINE
  8
108
  6
CONTINUOUS
 62
1
 10
-1.5325273E+001
 20
2.352396
 11
-1.4683672E+001
 21
2.9939976
  0
LINE
  8
108
  6
CONTINUOUS
 62
1
 10
-1.7079424E+001
 20
3.4266758
 11
-1.8079424E+001
 21
2.4266758
  0
ENDBLK
  0
BLOCK
  2
*XH27
  3
*XH
 10
0.0
 20
0.0
 70
65
  0
LINE
  8
108
  6
CONTINUOUS
 62
1
 10
-1.7064112
 20
-4.5348435
 11
-7.0641125E-001
 21
-3.5348435
  0
LINE
  8
108
  6
CONTINUOUS
 62
1
 10
3.7572118
 20
2.3429947
 11
2.8880707
 21
1.4738845
  0
LINE
  8
108
  6
CONTINUOUS
 62
1
 10
-7.0641125E-001
 20
-2.1206284
 11
-1.7064112
 21
-3.1206284
  0
LINE
  8
108
  6
CONTINUOUS
 62
1
 10
-1.7064112
 20
-1.7064133
 11
-7.0641125E-001
 21
-7.0641326E-001
  0
LINE
  8
108
  6
CONTINUOUS
 62
1
 10
1.4738558
 20
1.473854
 11
2.4738557
 21
2.473854
  0
LINE
  8
108
  6
CONTINUOUS
 62
1
 10
1.0596408
 20
2.473854
 11
5.964075E-002
 21
1.473854
  0
LINE
  8
108
  6
CONTINUOUS
 62
1
 10
-7.0641125E-001
 20
7.0780184E-001
 11
-1.7064112
 21
-2.9219816E-001
  0
LINE
  8
108
  6
CONTINUOUS
 62
1
 10
-1.7064112
 20
1.1220169
 11
-3.5457425E-001
 21
2.473854
  0
ENDBLK
  0
BLOCK
  2
*XH28
  3
*XH
 10
0.0
 20
0.0
 70
65
  0
LINE
  8
108
  6
CONTINUOUS
 62
1
 10
-3.4395048
 20
-1.5102462
 11
-2.4395048
 21
-2.5102462
  0
LINE
  8
108
  6
CONTINUOUS
 62
1
 10
-1.1163238
 20
-2.4192123
 11
-2.0252587
 21
-1.5102768
  0
LINE
  8
108
  6
CONTINUOUS
 62
1
 10
-8.4541875E-001
 20
-1.2759018
 11
-1.0533675E-001
 21
-2.0159835
  0
LINE
  8
108
  6
CONTINUOUS
 62
1
 10
6.8082625E-001
 20
-1.3879318
 11
-2.672375E-002
 21
-6.8038173E-001
  0
LINE
  8
108
  6
CONTINUOUS
 62
1
 10
5.0470925E-001
 20
2.0240017E-001
 11
1.2645973
 21
-5.5751803E-001
  0
LINE
  8
108
  6
CONTINUOUS
 62
1
 10
1.6096593
 20
5.1166537E-001
 11
6.5207825E-001
 21
1.4692459
  0
LINE
  8
108
  6
CONTINUOUS
 62
1
 10
6.5207825E-001
 20
2.883461
 11
1.6520483
 21
1.8834916
  0
LINE
  8
108
  6
CONTINUOUS
 62
1
 10
1.6520483
 20
3.2977066
 11
1.3300263
 21
3.6197281
  0
ENDBLK
  0
BLOCK
  2
*XH29
  3
*XH
 10
0.0
 20
0.0
 70
65
  0
LINE
  8
108
  6
CONTINUOUS
 62
1
 10
8.6014667E-001
 20
-4.7967411
 11
1.8601467
 21
-3.7967106
  0
LINE
  8
108
  6
CONTINUOUS
 62
1
 10
1.8601467
 20
-2.3824955
 11
8.6014667E-001
 21
-3.3824955
  0
LINE
  8
108
  6
CONTINUOUS
 62
1
 10
8.6014667E-001
 20
-1.9682804
 11
1.8601467
 21
-9.6828036E-001
  0
LINE
  8
108
  6
CONTINUOUS
 62
1
 10
1.8601467
 20
4.4593474E-001
 11
8.6017667E-001
 21
-5.5406526E-001
  0
LINE
  8
108
  6
CONTINUOUS
 62
1
 10
8.5559967E-001
 20
8.5560274E-001
 11
1.8555997
 21
1.8556027
  0
LINE
  8
108
  6
CONTINUOUS
 62
1
 10
8.7360467E-001
 20
2.2878231
 11
-1.2636533E-001
 21
1.2878536
  0
LINE
  8
108
  6
CONTINUOUS
 62
1
 10
-1.5405803
 20
1.2878536
 11
-5.4061033E-001
 21
2.2878231
  0
LINE
  8
108
  6
CONTINUOUS
 62
1
 10
-1.9547953
 20
2.2878536
 11
-2.9547953
 21
1.2878536
  0
LINE
  8
108
  6
CONTINUOUS
 62
1
 10
-3.9798503
 20
1.6770138
 11
-3.3690103
 21
2.2878536
  0
ENDBLK
  0
BLOCK
  2
*XH30
  3
*XH
 10
0.0
 20
0.0
 70
65
  0
LINE
  8
108
  6
CONTINUOUS
 62
1
 10
-2.1169584
 20
4.1992192E-001
 11
6.405796E-001
 21
-2.3376465
  0
LINE
  8
108
  6
CONTINUOUS
 62
1
 10
2.1081996
 20
-2.3910523
 11
1.1036836
 21
-1.3865051
  0
LINE
  8
108
  6
CONTINUOUS
 62
1
 10
-1.3089754
 20
1.026123
 11
-2.3134614
 21
2.0306396
  0
LINE
  8
108
  6
CONTINUOUS
 62
1
 10
-2.3134614
 20
3.4448242
 11
-1.3134614
 21
2.4448242
  0
LINE
  8
108
  6
CONTINUOUS
 62
1
 10
2.5224156
 20
-1.3910523
 11
2.9914396
 21
-1.8600769
  0
ENDBLK
  0
BLOCK
  2
*XH31
  3
*XH
 10
0.0
 20
0.0
 70
65
  0
LINE
  8
108
  6
CONTINUOUS
 62
1
 10
-1.8149245E+001
 20
-9.8423677E-001
 11
-1.7173903E+001
 21
-1.9595481
  0
LINE
  8
108
  6
CONTINUOUS
 62
1
 10
-1.4345473E+001
 20
-1.9595481
 11
-1.5945509E+001
 21
-3.5954197E-001
  0
LINE
  8
108
  6
CONTINUOUS
 62
1
 10
-1.4149245E+001
 20
6.7262363E-001
 11
-1.1517073E+001
 21
-1.9595481
  0
LINE
  8
108
  6
CONTINUOUS
 62
1
 10
-8.6886429
 20
-1.9595481
 11
-1.4149245E+001
 21
3.5010537
  0
LINE
  8
108
  6
CONTINUOUS
 62
1
 10
-1.2660231E+001
 20
4.8404397
 11
-5.8602129
 21
-1.9595481
  0
LINE
  8
108
  6
CONTINUOUS
 62
1
 10
-3.0317819
 20
-1.9595481
 11
-9.8318009
 21
4.8404397
  0
LINE
  8
108
  6
CONTINUOUS
 62
1
 10
-7.0033709
 20
4.8404397
 11
-2.0335185E-001
 21
-1.9595481
  0
LINE
  8
108
  6
CONTINUOUS
 62
1
 10
1.0334734E+001
 20
-9.6692343
 11
8.7069261
 21
-8.0413962
  0
LINE
  8
108
  6
CONTINUOUS
 62
1
 10
2.6250781
 20
-1.9595481
 11
-4.1749399
 21
4.8404397
  0
LINE
  8
108
  6
CONTINUOUS
 62
1
 10
-1.3465099
 20
4.8404397
 11
5.4534781
 21
-1.9595481
  0
LINE
  8
108
  6
CONTINUOUS
 62
1
 10
8.6566641
 20
-5.1627341
 11
1.0383257E+001
 21
-6.8893271
  0
LINE
  8
108
  6
CONTINUOUS
 62
1
 10
1.043178E+001
 20
-4.1094199
 11
8.6064011
 21
-2.2840415
  0
LINE
  8
108
  6
CONTINUOUS
 62
1
 10
8.2819081
 20
-1.9595481
 11
1.4819201
 21
4.8404397
  0
LINE
  8
108
  6
CONTINUOUS
 62
1
 10
4.3103501
 20
4.8404397
 11
1.0480303E+001
 21
-1.3295127
  0
LINE
  8
108
  6
CONTINUOUS
 62
1
 10
1.213878E+001
 20
-1.5952977E-001
 11
7.1387801
 21
4.8404397
  0
LINE
  8
108
  6
CONTINUOUS
 62
1
 10
9.9672111
 20
4.8404397
 11
1.3194414E+001
 21
1.6132364
  0
LINE
  8
108
  6
CONTINUOUS
 62
1
 10
1.3242937E+001
 20
4.3931436
 11
1.279561E+001
 21
4.8404397
  0
ENDBLK
  0
BLOCK
  2
*XH32
  3
*XH
 10
0.0
 20
0.0
 70
65
  0
LINE
  8
108
  6
CONTINUOUS
 62
1
 10
-2.8061012
 20
-2.2308367E-002
 11
-1.1003522
 21
-1.7280579
  0
LINE
  8
108
  6
CONTINUOUS
 62
1
 10
1.7280478
 20
-1.7280579
 11
-1.6719462
 21
1.671936
  0
LINE
  8
108
  6
CONTINUOUS
 62
1
 10
1.1564838
 20
1.671936
 11
2.6938678
 21
1.3455203E-001
  0
ENDBLK
  0
BLOCK
  2
*XH33
  3
*XH
 10
0.0
 20
0.0
 70
65
  0
LINE
  8
108
  6
CONTINUOUS
 62
1
 10
-3.5564578
 20
-2.1004028
 11
-3.9347538
 21
-1.7221069
  0
LINE
  8
108
  6
CONTINUOUS
 62
1
 10
-3.9849848
 20
1.1565552
 11
-7.280578E-001
 21
-2.1003723
  0
LINE
  8
108
  6
CONTINUOUS
 62
1
 10
2.1003722
 20
-2.1003723
 11
-2.8996278
 21
2.8996277
  0
LINE
  8
108
  6
CONTINUOUS
 62
1
 10
-7.11978E-002
 20
2.8996277
 11
4.9288022
 21
-2.1003723
  0
LINE
  8
108
  6
CONTINUOUS
 62
1
 10
5.3886722
 20
2.6818848E-001
 11
2.7572332
 21
2.8996277
  0
ENDBLK
  0
BLOCK
  2
*XH34
  3
*XH
 10
0.0
 20
0.0
 70
65
  0
LINE
  8
108
  6
CONTINUOUS
 62
1
 10
-3.1695891
 20
-2.4872742
 11
-4.5865511
 21
-1.0703125
  0
LINE
  8
108
  6
CONTINUOUS
 62
1
 10
-4.6368131
 20
1.8083801
 11
-3.411591E-001
 21
-2.4872437
  0
LINE
  8
108
  6
CONTINUOUS
 62
1
 10
2.4872409
 20
-2.4872437
 11
-2.5127591
 21
2.5127563
  0
LINE
  8
108
  6
CONTINUOUS
 62
1
 10
3.156709E-001
 20
2.5127563
 11
4.6256679
 21
-1.7972412
  0
LINE
  8
108
  6
CONTINUOUS
 62
1
 10
4.6741909
 20
9.8266603E-001
 11
3.1441009
 21
2.5127563
  0
ENDBLK
  0
BLOCK
  2
*XH35
  3
*XH
 10
0.0
 20
0.0
 70
65
  0
LINE
  8
108
  6
CONTINUOUS
 62
1
 10
-3.4895783E-001
 20
-2.479477
 11
-1.4954428
 21
-1.3329925
  0
LINE
  8
108
  6
CONTINUOUS
 62
1
 10
-1.5456748
 20
1.5457001
 11
1.5168252
 21
-1.5168305
  0
LINE
  8
108
  6
CONTINUOUS
 62
1
 10
1.5653482
 20
1.2630769
 11
3.0790217E-001
 21
2.5205231
  0
ENDBLK
  0
BLOCK
  2
*XH36
  3
*XH
 10
0.0
 20
0.0
 70
65
  0
LINE
  8
108
  6
CONTINUOUS
 62
1
 10
1.9302557
 20
-7.8940525
 11
3.3141977
 21
-6.5101108
  0
LINE
  8
108
  6
CONTINUOUS
 62
1
 10
3.3141977
 20
-3.6816807
 11
-1.0066643
 21
-8.0025425
  0
LINE
  8
108
  6
CONTINUOUS
 62
1
 10
-3.4631462
 20
-7.6306247
 11
3.3141977
 21
-8.5325054E-001
  0
LINE
  8
108
  6
CONTINUOUS
 62
1
 10
3.3141977
 20
1.9751492
 11
-3.4128842
 21
-4.7519321
  0
LINE
  8
108
  6
CONTINUOUS
 62
1
 10
-3.3626523
 20
-1.87327
 11
3.3141977
 21
4.8035794
  0
LINE
  8
108
  6
CONTINUOUS
 62
1
 10
3.1288338
 20
7.2461758
 11
-3.3124203
 21
8.0492206E-001
  0
LINE
  8
108
  6
CONTINUOUS
 62
1
 10
-3.2621573
 20
3.6836148
 11
1.1151008
 21
8.0608731
  0
LINE
  8
108
  6
CONTINUOUS
 62
1
 10
-1.7133292
 20
8.0608731
 11
-3.2119253
 21
6.5622769
  0
ENDBLK
  0
BLOCK
  2
*XH37
  3
*XH
 10
0.0
 20
0.0
 70
65
  0
LINE
  8
108
  6
CONTINUOUS
 62
1
 10
4.4526229E-001
 20
-7.9540907
 11
3.4394943
 21
-4.9598585
  0
LINE
  8
108
  6
CONTINUOUS
 62
1
 10
3.3910023
 20
-2.1799208
 11
-2.5153397
 21
-8.0862623
  0
LINE
  8
108
  6
CONTINUOUS
 62
1
 10
-3.2876477
 20
-6.030171
 11
3.3424793
 21
5.9995593E-001
  0
LINE
  8
108
  6
CONTINUOUS
 62
1
 10
3.2939563
 20
3.3798632
 11
-3.2876477
 21
-3.2017408
  0
LINE
  8
108
  6
CONTINUOUS
 62
1
 10
-3.2876477
 20
-5.7378057E-001
 11
3.2454333
 21
5.9593004
  0
LINE
  8
108
  6
CONTINUOUS
 62
1
 10
2.3122053
 20
7.8545031
 11
-3.2876477
 21
2.2546495
  0
LINE
  8
108
  6
CONTINUOUS
 62
1
 10
-3.2876477
 20
5.0830797
 11
-5.1625471E-001
 21
7.8544725
  0
ENDBLK
  0
BLOCK
  2
*XH38
  3
*XH
 10
0.0
 20
0.0
 70
65
  0
LINE
  8
108
  6
CONTINUOUS
 62
1
 10
-5.75
 20
2.0
 11
-5.75
 21
-2.0
  0
LINE
  8
108
  6
CONTINUOUS
 62
1
 10
-5.25
 20
-2.0
 11
-5.25
 21
2.0
  0
LINE
  8
108
  6
CONTINUOUS
 62
1
 10
-4.75
 20
2.0
 11
-4.75
 21
-2.0
  0
LINE
  8
108
  6
CONTINUOUS
 62
1
 10
-4.25
 20
-2.0
 11
-4.25
 21
2.0
  0
LINE
  8
108
  6
CONTINUOUS
 62
1
 10
-3.75
 20
2.0
 11
-3.75
 21
-2.0
  0
LINE
  8
108
  6
CONTINUOUS
 62
1
 10
-3.25
 20
-2.0
 11
-3.25
 21
2.0
  0
LINE
  8
108
  6
CONTINUOUS
 62
1
 10
-2.75
 20
2.0
 11
-2.75
 21
-2.0
  0
LINE
  8
108
  6
CONTINUOUS
 62
1
 10
-2.25
 20
-2.0
 11
-2.25
 21
2.0
  0
LINE
  8
108
  6
CONTINUOUS
 62
1
 10
-1.75
 20
2.0
 11
-1.75
 21
-2.0
  0
LINE
  8
108
  6
CONTINUOUS
 62
1
 10
-1.25
 20
-2.0
 11
-1.25
 21
2.0
  0
LINE
  8
108
  6
CONTINUOUS
 62
1
 10
-7.5E-001
 20
2.0
 11
-7.5E-001
 21
-2.0
  0
LINE
  8
108
  6
CONTINUOUS
 62
1
 10
-2.5E-001
 20
-2.0
 11
-2.5E-001
 21
2.0
  0
LINE
  8
108
  6
CONTINUOUS
 62
1
 10
2.5E-001
 20
2.0
 11
2.5E-001
 21
-2.0
  0
LINE
  8
108
  6
CONTINUOUS
 62
1
 10
7.5E-001
 20
-2.0
 11
7.5E-001
 21
2.0
  0
LINE
  8
108
  6
CONTINUOUS
 62
1
 10
1.25
 20
2.0
 11
1.25
 21
-2.0
  0
LINE
  8
108
  6
CONTINUOUS
 62
1
 10
1.75
 20
-2.0
 11
1.75
 21
2.0
  0
LINE
  8
108
  6
CONTINUOUS
 62
1
 10
2.25
 20
2.0
 11
2.25
 21
-2.0
  0
LINE
  8
108
  6
CONTINUOUS
 62
1
 10
2.75
 20
-2.0
 11
2.75
 21
2.0
  0
LINE
  8
108
  6
CONTINUOUS
 62
1
 10
3.25
 20
2.0
 11
3.25
 21
-2.0
  0
LINE
  8
108
  6
CONTINUOUS
 62
1
 10
3.75
 20
-2.0
 11
3.75
 21
2.0
  0
LINE
  8
108
  6
CONTINUOUS
 62
1
 10
4.25
 20
2.0
 11
4.25
 21
-2.0
  0
LINE
  8
108
  6
CONTINUOUS
 62
1
 10
4.75
 20
-2.0
 11
4.75
 21
2.0
  0
LINE
  8
108
  6
CONTINUOUS
 62
1
 10
5.25
 20
2.0
 11
5.25
 21
-2.0
  0
LINE
  8
108
  6
CONTINUOUS
 62
1
 10
5.75
 20
-2.0
 11
5.75
 21
2.0
  0
ENDBLK
  0
BLOCK
  2
*XH39
  3
*XH
 10
0.0
 20
0.0
 70
65
  0
LINE
  8
108
  6
CONTINUOUS
 62
1
 10
1.2267042E+001
 20
-3.9963993
 11
1.3833327E+001
 21
-2.4301303
  0
LINE
  8
108
  6
CONTINUOUS
 62
1
 10
1.6890028E+001
 20
6.2655669E-001
 11
1.7889357E+001
 21
1.6258847
  0
LINE
  8
108
  6
CONTINUOUS
 62
1
 10
1.4830488E+001
 20
1.3954617
 11
1.3811781E+001
 21
3.7673969E-001
  0
LINE
  8
108
  6
CONTINUOUS
 62
1
 10
1.0709883E+001
 20
-2.7251433
 11
9.8934159
 21
-3.5416103
  0
LINE
  8
108
  6
CONTINUOUS
 62
1
 10
7.6626719
 20
-2.9439243
 11
8.4791699
 21
-2.1274263
  0
LINE
  8
108
  6
CONTINUOUS
 62
1
 10
6.2484569
 20
-1.5297083
 11
5.4319589
 21
-2.3462223
  0
LINE
  8
108
  6
CONTINUOUS
 62
1
 10
3.2012159
 20
-1.7485353
 11
4.0177749
 21
-9.3199131E-001
  0
LINE
  8
108
  6
CONTINUOUS
 62
1
 10
1.7870309
 20
-3.3427431E-001
 11
9.7050291E-001
 21
-1.1508333
  0
LINE
  8
108
  6
CONTINUOUS
 62
1
 10
-1.2602711
 20
-5.5314631E-001
 11
-4.4368209E-001
 21
2.6344269E-001
  0
LINE
  8
108
  6
CONTINUOUS
 62
1
 10
-2.6743641
 20
8.6116069E-001
 11
-3.4909841
 21
4.4555688E-002
  0
LINE
  8
108
  6
CONTINUOUS
 62
1
 10
-5.7217271
 20
6.4224269E-001
 11
-4.9050771
 21
1.4588777
  0
LINE
  8
108
  6
CONTINUOUS
 62
1
 10
-7.1357901
 20
2.0565947
 11
-7.9524401
 21
1.2399447
  0
LINE
  8
108
  6
CONTINUOUS
 62
1
 10
-1.1980303E+001
 20
4.0511688E-002
 11
-9.6478141
 21
2.3730017
  0
LINE
  8
108
  6
CONTINUOUS
 62
1
 10
-1.3497301E+001
 20
1.3519287
 11
-1.4046556E+001
 21
8.0270369E-001
  0
LINE
  8
108
  6
CONTINUOUS
 62
1
 10
-1.5325273E+001
 20
2.3523867
 11
-1.4683672E+001
 21
2.9939877
  0
LINE
  8
108
  6
CONTINUOUS
 62
1
 10
-1.7079424E+001
 20
3.4266817
 11
-1.8079424E+001
 21
2.4266817
  0
ENDBLK
  0
BLOCK
  2
*XH40
  3
*XH
 10
0.0
 20
0.0
 70
65
  0
LINE
  8
108
  6
CONTINUOUS
 62
1
 10
-1.7064112
 20
-4.5348384
 11
-7.0641125E-001
 21
-3.5348384
  0
LINE
  8
108
  6
CONTINUOUS
 62
1
 10
3.7572118
 20
2.3429996
 11
2.8880707
 21
1.4738736
  0
LINE
  8
108
  6
CONTINUOUS
 62
1
 10
-7.0641125E-001
 20
-2.1206234
 11
-1.7064112
 21
-3.1206234
  0
LINE
  8
108
  6
CONTINUOUS
 62
1
 10
-1.7064112
 20
-1.7064084
 11
-7.0641125E-001
 21
-7.0640844E-001
  0
LINE
  8
108
  6
CONTINUOUS
 62
1
 10
1.4738558
 20
1.4738586
 11
2.4738557
 21
2.4738436
  0
LINE
  8
108
  6
CONTINUOUS
 62
1
 10
1.0596408
 20
2.4738436
 11
5.964075E-002
 21
1.4738586
  0
LINE
  8
108
  6
CONTINUOUS
 62
1
 10
-7.0641125E-001
 20
7.0780656E-001
 11
-1.7064112
 21
-2.9220844E-001
  0
LINE
  8
108
  6
CONTINUOUS
 62
1
 10
-1.7064112
 20
1.1220066
 11
-3.5457425E-001
 21
2.4738586
  0
ENDBLK
  0
BLOCK
  2
*XH41
  3
*XH
 10
0.0
 20
0.0
 70
65
  0
LINE
  8
108
  6
CONTINUOUS
 62
1
 10
-3.4395048
 20
-1.5102562
 11
-2.4395048
 21
-2.5102402
  0
LINE
  8
108
  6
CONTINUOUS
 62
1
 10
-1.1163238
 20
-2.4192062
 11
-2.0252587
 21
-1.5102712
  0
LINE
  8
108
  6
CONTINUOUS
 62
1
 10
-8.4541875E-001
 20
-1.2758962
 11
-1.0533675E-001
 21
-2.0159782
  0
LINE
  8
108
  6
CONTINUOUS
 62
1
 10
6.8082625E-001
 20
-1.3879412
 11
-2.672375E-002
 21
-6.8039119E-001
  0
LINE
  8
108
  6
CONTINUOUS
 62
1
 10
5.0470925E-001
 20
2.0239081E-001
 11
1.2645973
 21
-5.5751219E-001
  0
LINE
  8
108
  6
CONTINUOUS
 62
1
 10
1.6096593
 20
5.1167081E-001
 11
6.5207825E-001
 21
1.4692518
  0
LINE
  8
108
  6
CONTINUOUS
 62
1
 10
6.5207825E-001
 20
2.8834668
 11
1.6520483
 21
1.8834818
  0
LINE
  8
108
  6
CONTINUOUS
 62
1
 10
1.6520483
 20
3.2976968
 11
1.3300263
 21
3.6197338
  0
ENDBLK
  0
BLOCK
  2
*XH42
  3
*XH
 10
0.0
 20
0.0
 70
65
  0
LINE
  8
108
  6
CONTINUOUS
 62
1
 10
8.6014678E-001
 20
-4.7967289
 11
1.8601468
 21
-3.7966989
  0
LINE
  8
108
  6
CONTINUOUS
 62
1
 10
1.8601468
 20
-2.3824989
 11
8.6014678E-001
 21
-3.3824989
  0
LINE
  8
108
  6
CONTINUOUS
 62
1
 10
8.6014678E-001
 20
-1.9682839
 11
1.8601468
 21
-9.6828389E-001
  0
LINE
  8
108
  6
CONTINUOUS
 62
1
 10
1.8601468
 20
4.4593111E-001
 11
8.6017678E-001
 21
-5.5405289E-001
  0
LINE
  8
108
  6
CONTINUOUS
 62
1
 10
8.5559878E-001
 20
8.5561511E-001
 11
1.8555988
 21
1.8555991
  0
LINE
  8
108
  6
CONTINUOUS
 62
1
 10
8.7360478E-001
 20
2.2878201
 11
-1.2636522E-001
 21
1.2878501
  0
LINE
  8
108
  6
CONTINUOUS
 62
1
 10
-1.5405802
 20
1.2878501
 11
-5.4061022E-001
 21
2.2878201
  0
LINE
  8
108
  6
CONTINUOUS
 62
1
 10
-1.9547952
 20
2.2878501
 11
-2.9547952
 21
1.2878501
  0
LINE
  8
108
  6
CONTINUOUS
 62
1
 10
-3.9798502
 20
1.6770101
 11
-3.3690102
 21
2.2878501
  0
ENDBLK
  0
BLOCK
  2
*XH43
  3
*XH
 10
0.0
 20
0.0
 70
65
  0
LINE
  8
108
  6
CONTINUOUS
 62
1
 10
-2.1169584
 20
4.199127E-001
 11
6.405796E-001
 21
-2.3376403
  0
LINE
  8
108
  6
CONTINUOUS
 62
1
 10
2.1081996
 20
-2.3910463
 11
1.1036836
 21
-1.3865143
  0
LINE
  8
108
  6
CONTINUOUS
 62
1
 10
-1.3089754
 20
1.0261287
 11
-2.3134614
 21
2.0306307
  0
LINE
  8
108
  6
CONTINUOUS
 62
1
 10
-2.3134614
 20
3.4448307
 11
-1.3134614
 21
2.4448307
  0
LINE
  8
108
  6
CONTINUOUS
 62
1
 10
2.5224156
 20
-1.3910463
 11
2.9914396
 21
-1.8600863
  0
ENDBLK
  0
BLOCK
  2
*XH44
  3
*XH
 10
0.0
 20
0.0
 70
65
  0
LINE
  8
108
  6
CONTINUOUS
 62
1
 10
-1.8149245E+001
 20
-9.8422953E-001
 11
-1.7173903E+001
 21
-1.9595555
  0
LINE
  8
108
  6
CONTINUOUS
 62
1
 10
-1.4345473E+001
 20
-1.9595555
 11
-1.5945509E+001
 21
-3.5954953E-001
  0
LINE
  8
108
  6
CONTINUOUS
 62
1
 10
-1.4149245E+001
 20
6.7263147E-001
 11
-1.1517073E+001
 21
-1.9595555
  0
LINE
  8
108
  6
CONTINUOUS
 62
1
 10
-8.6886428
 20
-1.9595555
 11
-1.4149245E+001
 21
3.5010615
  0
LINE
  8
108
  6
CONTINUOUS
 62
1
 10
-1.2660231E+001
 20
4.8404475
 11
-5.8602128
 21
-1.9595555
  0
LINE
  8
108
  6
CONTINUOUS
 62
1
 10
-3.0317818
 20
-1.9595555
 11
-9.8318008
 21
4.8404475
  0
LINE
  8
108
  6
CONTINUOUS
 62
1
 10
-7.0033708
 20
4.8404475
 11
-2.0335182E-001
 21
-1.9595555
  0
LINE
  8
108
  6
CONTINUOUS
 62
1
 10
1.0334734E+001
 20
-9.6692425
 11
8.7069262
 21
-8.0413885
  0
LINE
  8
108
  6
CONTINUOUS
 62
1
 10
2.6250782
 20
-1.9595555
 11
-4.1749398
 21
4.8404475
  0
LINE
  8
108
  6
CONTINUOUS
 62
1
 10
-1.3465098
 20
4.8404475
 11
5.4534782
 21
-1.9595555
  0
LINE
  8
108
  6
CONTINUOUS
 62
1
 10
8.6566642
 20
-5.1627265
 11
1.0383257E+001
 21
-6.8893345
  0
LINE
  8
108
  6
CONTINUOUS
 62
1
 10
1.043178E+001
 20
-4.1094125
 11
8.6064012
 21
-2.2840495
  0
LINE
  8
108
  6
CONTINUOUS
 62
1
 10
8.2819082
 20
-1.9595555
 11
1.4819202
 21
4.8404475
  0
LINE
  8
108
  6
CONTINUOUS
 62
1
 10
4.3103502
 20
4.8404475
 11
1.0480303E+001
 21
-1.3295055
  0
LINE
  8
108
  6
CONTINUOUS
 62
1
 10
1.213878E+001
 20
-1.5953753E-001
 11
7.1387802
 21
4.8404475
  0
LINE
  8
108
  6
CONTINUOUS
 62
1
 10
9.9672102
 20
4.8404475
 11
1.3194414E+001
 21
1.6132285
  0
LINE
  8
108
  6
CONTINUOUS
 62
1
 10
1.3242937E+001
 20
4.3931355
 11
1.279561E+001
 21
4.8404475
  0
ENDBLK
  0
BLOCK
  2
*XH45
  3
*XH
 10
0.0
 20
0.0
 70
65
  0
LINE
  8
108
  6
CONTINUOUS
 62
1
 10
-2.8061012
 20
-2.2308833E-002
 11
-1.1003522
 21
-1.7280578
  0
LINE
  8
108
  6
CONTINUOUS
 62
1
 10
1.7280478
 20
-1.7280578
 11
-1.6719462
 21
1.6719362
  0
LINE
  8
108
  6
CONTINUOUS
 62
1
 10
1.1564838
 20
1.6719362
 11
2.6938678
 21
1.3455217E-001
  0
ENDBLK
  0
BLOCK
  2
*XH46
  3
*XH
 10
0.0
 20
0.0
 70
65
  0
LINE
  8
108
  6
CONTINUOUS
 62
1
 10
-3.5564578
 20
-2.1003935
 11
-3.9347538
 21
-1.7220975
  0
LINE
  8
108
  6
CONTINUOUS
 62
1
 10
-3.9849848
 20
1.1565645
 11
-7.280578E-001
 21
-2.1003785
  0
LINE
  8
108
  6
CONTINUOUS
 62
1
 10
2.1003722
 20
-2.1003785
 11
-2.8996278
 21
2.8996215
  0
LINE
  8
108
  6
CONTINUOUS
 62
1
 10
-7.11978E-002
 20
2.8996215
 11
4.9288022
 21
-2.1003785
  0
LINE
  8
108
  6
CONTINUOUS
 62
1
 10
5.3886722
 20
2.681975E-001
 11
2.7572332
 21
2.8996215
  0
ENDBLK
  0
BLOCK
  2
*XH47
  3
*XH
 10
0.0
 20
0.0
 70
65
  0
LINE
  8
108
  6
CONTINUOUS
 62
1
 10
-3.1695891
 20
-2.4872663
 11
-4.5865511
 21
-1.0703053
  0
LINE
  8
108
  6
CONTINUOUS
 62
1
 10
-4.6368131
 20
1.8083727
 11
-3.411591E-001
 21
-2.4872513
  0
LINE
  8
108
  6
CONTINUOUS
 62
1
 10
2.4872409
 20
-2.4872513
 11
-2.5127591
 21
2.5127487
  0
LINE
  8
108
  6
CONTINUOUS
 62
1
 10
3.156709E-001
 20
2.5127637
 11
4.6256679
 21
-1.7972333
  0
LINE
  8
108
  6
CONTINUOUS
 62
1
 10
4.6741909
 20
9.826587E-001
 11
3.1441009
 21
2.5127637
  0
ENDBLK
  0
BLOCK
  2
*XH48
  3
*XH
 10
0.0
 20
0.0
 70
65
  0
LINE
  8
108
  6
CONTINUOUS
 62
1
 10
-3.4895783E-001
 20
-2.4794797
 11
-1.4954428
 21
-1.3329797
  0
LINE
  8
108
  6
CONTINUOUS
 62
1
 10
-1.5456748
 20
1.5456973
 11
1.5168252
 21
-1.5168327
  0
LINE
  8
108
  6
CONTINUOUS
 62
1
 10
1.5653482
 20
1.2630743
 11
3.0790217E-001
 21
2.5205203
  0
ENDBLK
  0
ENDSEC
  0
SECTION
  2
ENTITIES
  0
TEXT
  8
103
  6
CONTINUOUS
 62
40
 10
5.8441614E+002
 20
1.3924868E+001
 40
5.0
  1
RTS85-Stirnmontage
 41
6.625E-001
 72
1
 11
5.5460364E+002
 21
1.1424868E+001
 73
2
  0
TEXT
  8
103
  6
CONTINUOUS
 62
40
 10
1.8838755E+002
 20
2.9921981E+001
 40
7.0
  1
Bodenlager mit Oberteil 27mm Art.-Nr.
 41
6.6891894E-001
 72
1
 11
1.0176254E+002
 21
2.6421981E+001
 73
2
  0
TEXT
  8
103
  6
CONTINUOUS
 62
40
 10
2.1234356E+002
 20
3.0506469E+001
 40
6.9999999
  1
8552
 41
6.1875E-001
 72
1
 11
2.0368106E+002
 21
2.7006469E+001
 73
2
  0
LINE
  8
106
  6
CENTERLINE
 62
1
 10
2.9643601E+001
 20
5.8374923E+001
 11
2.9643601E+001
 21
4.70092E+001
  0
LINE
  8
106
  6
CENTERLINE
 62
1
 10
4.9643571E+001
 20
5.8374923E+001
 11
4.9643571E+001
 21
4.7829513E+001
  0
LINE
  8
104
  6
CONTINUOUS
 62
40
 10
2.2643571E+001
 20
6.2374923E+001
 11
5.6643571E+001
 21
6.2374923E+001
  0
LINE
  8
104
  6
CONTINUOUS
 62
40
 10
5.6643571E+001
 20
6.2374923E+001
 11
5.6643571E+001
 21
7.7874923E+001
  0
LINE
  8
104
  6
CONTINUOUS
 62
40
 10
5.6643571E+001
 20
7.7874923E+001
 11
2.2643571E+001
 21
7.7874923E+001
  0
LINE
  8
104
  6
CONTINUOUS
 62
40
 10
2.2643571E+001
 20
7.7874923E+001
 11
2.2643571E+001
 21
6.2374923E+001
  0
LINE
  8
104
  6
CONTINUOUS
 62
40
 10
2.2643571E+001
 20
7.2874923E+001
 11
5.6643571E+001
 21
7.2874923E+001
  0
LINE
  8
106
  6
CENTERLINE
 62
1
 10
3.9643571E+001
 20
9.5407607E+001
 11
3.9643571E+001
 21
4.2224044E+001
  0
LINE
  8
104
  6
CONTINUOUS
 62
40
 10
5.7643571E+001
 20
5.4374923E+001
 11
2.1643571E+001
 21
5.4374923E+001
  0
LINE
  8
104
  6
CONTINUOUS
 62
40
 10
2.6643601E+001
 20
5.5374923E+001
 11
5.2643571E+001
 21
5.5374923E+001
  0
LINE
  8
104
  6
CONTINUOUS
 62
40
 10
2.9643601E+001
 20
6.2374923E+001
 11
2.9643601E+001
 21
5.8374923E+001
  0
ARC
  8
104
  6
CONTINUOUS
 62
40
 10
2.6643615E+001
 20
5.8374909E+001
 40
2.9999859
 50
2.6999973E+002
 51
3.6000027E+002
  0
LINE
  8
104
  6
CONTINUOUS
 62
40
 10
2.6643601E+001
 20
5.5374923E+001
 11
2.2643571E+001
 21
5.5374923E+001
  0
LINE
  8
104
  6
CONTINUOUS
 62
40
 10
2.2643571E+001
 20
5.5374923E+001
 11
2.1643571E+001
 21
5.4374923E+001
  0
LINE
  8
104
  6
CONTINUOUS
 62
40
 10
2.1643571E+001
 20
5.4374923E+001
 11
2.1643571E+001
 21
5.0874923E+001
  0
LINE
  8
104
  6
CONTINUOUS
 62
40
 10
2.1643571E+001
 20
5.0874923E+001
 11
5.7643571E+001
 21
5.0874923E+001
  0
LINE
  8
104
  6
CONTINUOUS
 62
40
 10
5.7643571E+001
 20
5.0874923E+001
 11
5.7643571E+001
 21
5.4374923E+001
  0
LINE
  8
104
  6
CONTINUOUS
 62
40
 10
5.7643571E+001
 20
5.4374923E+001
 11
5.6643571E+001
 21
5.5374923E+001
  0
LINE
  8
104
  6
CONTINUOUS
 62
40
 10
5.6643571E+001
 20
5.5374923E+001
 11
5.2643571E+001
 21
5.5374923E+001
  0
ARC
  8
104
  6
CONTINUOUS
 62
40
 10
5.2643557E+001
 20
5.8374909E+001
 40
2.9999862
 50
1.7999974E+002
 51
2.7000026E+002
  0
LINE
  8
104
  6
CONTINUOUS
 62
40
 10
4.9643571E+001
 20
5.8374923E+001
 11
4.9643571E+001
 21
6.2374923E+001
  0
LINE
  8
104
  6
CONTINUOUS
 62
40
 10
3.4643571E+001
 20
7.2874923E+001
 11
3.4643571E+001
 21
6.8374923E+001
  0
ARC
  8
104
  6
CONTINUOUS
 62
40
 10
3.5143564E+001
 20
6.8374916E+001
 40
4.9999305E-001
 50
1.799992E+002
 51
2.700008E+002
  0
LINE
  8
104
  6
CONTINUOUS
 62
40
 10
3.5143571E+001
 20
6.7874923E+001
 11
3.8643571E+001
 21
6.7874923E+001
  0
LINE
  8
104
  6
CONTINUOUS
 62
40
 10
3.8643571E+001
 20
6.7874923E+001
 11
3.8643571E+001
 21
6.9874923E+001
  0
LINE
  8
104
  6
CONTINUOUS
 62
40
 10
3.8643571E+001
 20
6.9874923E+001
 11
4.0643571E+001
 21
6.9874923E+001
  0
LINE
  8
104
  6
CONTINUOUS
 62
40
 10
4.0643571E+001
 20
6.9874923E+001
 11
4.0643571E+001
 21
6.7874923E+001
  0
LINE
  8
104
  6
CONTINUOUS
 62
40
 10
4.0643571E+001
 20
6.7874923E+001
 11
4.4143571E+001
 21
6.7874923E+001
  0
ARC
  8
104
  6
CONTINUOUS
 62
40
 10
4.4143582E+001
 20
6.8374942E+001
 40
5.000188E-001
 50
2.6999866E+002
 51
3.5999785E+002
  0
LINE
  8
104
  6
CONTINUOUS
 62
40
 10
4.4643601E+001
 20
6.8374923E+001
 11
4.4643601E+001
 21
7.2874923E+001
  0
LINE
  8
104
  6
CONTINUOUS
 62
40
 10
4.4643601E+001
 20
7.2874923E+001
 11
3.4643571E+001
 21
7.2874923E+001
  0
LINE
  8
99
  6
CONTINUOUS
 62
1
 10
3.6643571E+001
 20
7.2874923E+001
 11
3.6643571E+001
 21
9.2874923E+001
  0
LINE
  8
99
  6
CONTINUOUS
 62
1
 10
3.6643571E+001
 20
9.2874923E+001
 11
4.2643571E+001
 21
9.2874923E+001
  0
LINE
  8
99
  6
CONTINUOUS
 62
1
 10
4.2643571E+001
 20
9.2874923E+001
 11
4.2643571E+001
 21
7.2874923E+001
  0
LINE
  8
99
  6
CONTINUOUS
 62
1
 10
3.7643571E+001
 20
9.2874923E+001
 11
3.7643571E+001
 21
7.2874923E+001
  0
LINE
  8
99
  6
CONTINUOUS
 62
1
 10
4.1643571E+001
 20
7.2874923E+001
 11
4.1643571E+001
 21
9.2874923E+001
  0
INSERT
  2
*XH26
  8
108
 10
1.2384809E+002
 20
7.2049657E+001
  0
LINE
  8
104
  6
CONTINUOUS
 62
40
 10
1.4262163E+002
 20
7.2674941E+001
 11
1.39442E+002
 21
7.2674941E+001
  0
ARC
  8
104
  6
CONTINUOUS
 62
40
 10
1.3944203E+002
 20
7.1674921E+001
 40
1.0000206
 50
9.0001688E+001
 51
1.6499906E+002
  0
LINE
  8
104
  6
CONTINUOUS
 62
40
 10
1.3847609E+002
 20
7.1933761E+001
 11
1.3749046E+002
 21
6.9055374E+001
  0
ARC
  8
104
  6
CONTINUOUS
 62
40
 10
1.3604157E+002
 20
6.9443606E+001
 40
1.500006
 50
2.5500107E+002
 51
3.449999E+002
  0
LINE
  8
104
  6
CONTINUOUS
 62
40
 10
1.3565337E+002
 20
6.7994704E+001
 11
1.1483952E+002
 21
7.3571731E+001
  0
ARC
  8
104
  6
CONTINUOUS
 62
40
 10
1.145807E+002
 20
7.2605836E+001
 40
9.9997112E-001
 50
7.4999307E+001
 51
1.4772009E+002
  0
ARC
  8
104
  6
CONTINUOUS
 62
40
 10
1.116216E+002
 20
7.4474929E+001
 40
2.5000006
 50
1.9459384E+002
 51
3.2772246E+002
  0
LINE
  8
104
  6
CONTINUOUS
 62
40
 10
1.0920226E+002
 20
7.3845016E+001
 11
1.0914394E+002
 21
7.3952346E+001
  0
ARC
  8
104
  6
CONTINUOUS
 62
40
 10
1.0826525E+002
 20
7.3474853E+001
 40
1.0000454
 50
2.8520374E+001
 51
8.9998552E+001
  0
LINE
  8
104
  6
CONTINUOUS
 62
40
 10
1.0826528E+002
 20
7.4474899E+001
 11
1.0562163E+002
 21
7.4474899E+001
  0
LINE
  8
104
  6
CONTINUOUS
 62
40
 10
1.0562163E+002
 20
7.4474899E+001
 11
1.0562163E+002
 21
7.5474929E+001
  0
LINE
  8
104
  6
CONTINUOUS
 62
40
 10
1.0562163E+002
 20
7.5474929E+001
 11
1.0797237E+002
 21
7.5474929E+001
  0
ARC
  8
104
  6
CONTINUOUS
 62
40
 10
1.0797235E+002
 20
7.3474916E+001
 40
2.0000132
 50
2.8025689E+001
 51
8.9999637E+001
  0
LINE
  8
104
  6
CONTINUOUS
 62
40
 10
1.0973784E+002
 20
7.4414657E+001
 11
1.1004765E+002
 21
7.3832656E+001
  0
ARC
  8
104
  6
CONTINUOUS
 62
40
 10
1.1160974E+002
 20
7.4430181E+001
 40
1.6724635
 50
2.0093278E+002
 51
2.5923351E+002
  0
ARC
  8
104
  6
CONTINUOUS
 62
40
 10
1.1161197E+002
 20
7.444193E+001
 40
1.6844239
 50
2.5923341E+002
 51
3.1725967E+002
  0
ARC
  8
104
  6
CONTINUOUS
 62
40
 10
1.1487997E+002
 20
7.248792E+001
 40
2.1867724
 50
1.391311E+002
 51
1.5823572E+002
  0
ARC
  8
104
  6
CONTINUOUS
 62
40
 10
1.147641E+002
 20
7.2591979E+001
 40
2.031067
 50
1.1914207E+002
 51
1.3921221E+002
  0
ARC
  8
104
  6
CONTINUOUS
 62
40
 10
1.1468944E+002
 20
7.2718217E+001
 40
1.8844553
 50
1.0848022E+002
 51
1.1902858E+002
  0
ARC
  8
104
  6
CONTINUOUS
 62
40
 10
1.1466099E+002
 20
7.2802932E+001
 40
1.795091
 50
9.7580526E+001
 51
1.0847606E+002
  0
ARC
  8
104
  6
CONTINUOUS
 62
40
 10
1.1465068E+002
 20
7.2891042E+001
 40
1.7063905
 50
7.5087672E+001
 51
9.7627337E+001
  0
LINE
  8
104
  6
CONTINUOUS
 62
40
 10
1.150898E+002
 20
7.4539962E+001
 11
1.3591219E+002
 21
6.8960616E+001
  0
ARC
  8
104
  6
CONTINUOUS
 62
40
 10
1.3604159E+002
 20
6.9443574E+001
 40
4.9999514E-001
 50
2.5499994E+002
 51
3.4499956E+002
  0
LINE
  8
104
  6
CONTINUOUS
 62
40
 10
1.3652455E+002
 20
6.9314162E+001
 11
1.3751018E+002
 21
7.2192581E+001
  0
ARC
  8
104
  6
CONTINUOUS
 62
40
 10
1.3944203E+002
 20
7.1674902E+001
 40
2.0000086
 50
8.9999849E+001
 51
1.6499887E+002
  0
LINE
  8
104
  6
CONTINUOUS
 62
40
 10
1.3944203E+002
 20
7.3674911E+001
 11
1.4262163E+002
 21
7.3674911E+001
  0
LINE
  8
104
  6
CONTINUOUS
 62
40
 10
1.4262163E+002
 20
7.3674911E+001
 11
1.4262163E+002
 21
7.2674941E+001
  0
LINE
  8
106
  6
CENTERLINE
 62
1
 10
1.116216E+002
 20
7.651802E+001
 11
1.116216E+002
 21
7.1015395E+001
  0
LINE
  8
106
  6
CENTERLINE
 62
1
 10
1.0805766E+002
 20
7.4474929E+001
 11
1.1469972E+002
 21
7.4474929E+001
  0
LINE
  8
99
  6
CONTINUOUS
 62
1
 10
1.4100661E+002
 20
7.1074935E+001
 11
1.4100661E+002
 21
7.0474929E+001
  0
LINE
  8
99
  6
CONTINUOUS
 62
1
 10
1.4100661E+002
 20
6.294493E+001
 11
1.4100661E+002
 21
6.2374923E+001
  0
LINE
  8
99
  6
CONTINUOUS
 62
1
 10
1.6323659E+002
 20
6.2344924E+001
 11
1.6323659E+002
 21
6.29449E+001
  0
LINE
  8
99
  6
CONTINUOUS
 62
1
 10
1.6323659E+002
 20
7.0474929E+001
 11
1.6323659E+002
 21
7.1074935E+001
  0
INSERT
  2
*XH27
  8
108
 10
1.4063731E+002
 20
6.8001777E+001
  0
INSERT
  2
*XH28
  8
108
 10
1.4412025E+002
 20
6.5855903E+001
  0
INSERT
  2
*XH29
  8
108
 10
1.6345075E+002
 20
6.8187808E+001
  0
INSERT
  2
*XH30
  8
108
 10
1.6078577E+002
 20
6.5736678E+001
  0
LINE
  8
106
  6
CENTERLINE
 62
1
 10
1.6189159E+002
 20
6.8441543E+001
 11
1.6189159E+002
 21
6.5517257E+001
  0
LINE
  8
106
  6
CENTERLINE
 62
1
 10
1.60093E+002
 20
6.6979385E+001
 11
1.6355446E+002
 21
6.6979385E+001
  0
LINE
  8
106
  6
CENTERLINE
 62
1
 10
1.4235161E+002
 20
6.850682E+001
 11
1.4235161E+002
 21
6.5308364E+001
  0
LINE
  8
106
  6
CENTERLINE
 62
1
 10
1.4070888E+002
 20
6.6979385E+001
 11
1.440136E+002
 21
6.6979385E+001
  0
LINE
  8
99
  6
CONTINUOUS
 62
1
 10
1.4577159E+002
 20
6.9474929E+001
 11
1.4577159E+002
 21
6.6914932E+001
  0
ARC
  8
99
  6
CONTINUOUS
 62
1
 10
1.422016E+002
 20
6.6914914E+001
 40
3.5699896
 50
2.700002E+002
 51
3.6000028E+002
  0
LINE
  8
99
  6
CONTINUOUS
 62
1
 10
1.4220162E+002
 20
6.3344924E+001
 11
1.4049989E+002
 21
6.3344924E+001
  0
LINE
  8
99
  6
CONTINUOUS
 62
1
 10
1.4049989E+002
 20
6.3344924E+001
 11
1.4049989E+002
 21
6.4344924E+001
  0
LINE
  8
99
  6
CONTINUOUS
 62
1
 10
1.4049989E+002
 20
6.4344924E+001
 11
1.4220158E+002
 21
6.4344924E+001
  0
ARC
  8
99
  6
CONTINUOUS
 62
1
 10
1.4220159E+002
 20
6.6914928E+001
 40
2.5700041
 50
2.6999994E+002
 51
3.6000007E+002
  0
LINE
  8
99
  6
CONTINUOUS
 62
1
 10
1.4477159E+002
 20
6.6914932E+001
 11
1.4477159E+002
 21
6.9474929E+001
  0
LINE
  8
99
  6
CONTINUOUS
 62
1
 10
1.4477159E+002
 20
6.9474929E+001
 11
1.404316E+002
 21
6.9474929E+001
  0
ARC
  8
99
  6
CONTINUOUS
 62
1
 10
1.4043159E+002
 20
6.897494E+001
 40
4.99989E-001
 50
8.999874E+001
 51
1.8000126E+002
  0
LINE
  8
99
  6
CONTINUOUS
 62
1
 10
1.399316E+002
 20
6.8974929E+001
 11
1.399316E+002
 21
6.3344924E+001
  0
LINE
  8
99
  6
CONTINUOUS
 62
1
 10
1.4426177E+002
 20
7.0474929E+001
 11
1.4477159E+002
 21
6.9974929E+001
  0
LINE
  8
99
  6
CONTINUOUS
 62
1
 10
1.4477159E+002
 20
6.9974929E+001
 11
1.4477159E+002
 21
6.9474929E+001
  0
LINE
  8
99
  6
CONTINUOUS
 62
1
 10
1.594716E+002
 20
6.9974929E+001
 11
1.594716E+002
 21
6.9474929E+001
  0
LINE
  8
99
  6
CONTINUOUS
 62
1
 10
1.584716E+002
 20
6.9474929E+001
 11
1.584716E+002
 21
6.6914932E+001
  0
ARC
  8
99
  6
CONTINUOUS
 62
1
 10
1.6204162E+002
 20
6.6914907E+001
 40
3.5700133
 50
1.7999961E+002
 51
2.6999991E+002
  0
LINE
  8
99
  6
CONTINUOUS
 62
1
 10
1.6204161E+002
 20
6.3344894E+001
 11
1.643116E+002
 21
6.3344894E+001
  0
LINE
  8
99
  6
CONTINUOUS
 62
1
 10
1.594716E+002
 20
6.9474929E+001
 11
1.638116E+002
 21
6.9474929E+001
  0
ARC
  8
99
  6
CONTINUOUS
 62
1
 10
1.638116E+002
 20
6.8974959E+001
 40
4.9996992E-001
 50
3.5999655E+002
 51
4.499999E+002
  0
LINE
  8
99
  6
CONTINUOUS
 62
1
 10
1.6431157E+002
 20
6.8974929E+001
 11
1.6431157E+002
 21
6.3344924E+001
  0
CIRCLE
  8
99
  6
CONTINUOUS
 62
1
 10
1.4235161E+002
 20
6.6979385E+001
 40
2.399994
  0
CIRCLE
  8
99
  6
CONTINUOUS
 62
1
 10
1.6189159E+002
 20
6.6979385E+001
 40
2.399994
  0
LINE
  8
99
  6
CONTINUOUS
 62
1
 10
1.594716E+002
 20
6.9474929E+001
 11
1.594716E+002
 21
6.6914932E+001
  0
ARC
  8
99
  6
CONTINUOUS
 62
1
 10
1.6204163E+002
 20
6.6914916E+001
 40
2.5700225
 50
1.7999966E+002
 51
2.6999968E+002
  0
LINE
  8
99
  6
CONTINUOUS
 62
1
 10
1.6204161E+002
 20
6.4344894E+001
 11
1.637765E+002
 21
6.4344894E+001
  0
LINE
  8
99
  6
CONTINUOUS
 62
1
 10
1.637765E+002
 20
6.4344894E+001
 11
1.637765E+002
 21
6.3344924E+001
  0
LINE
  8
99
  6
CONTINUOUS
 62
1
 10
1.594716E+002
 20
6.9474929E+001
 11
1.5722456E+002
 21
6.9474929E+001
  0
LINE
  8
99
  6
CONTINUOUS
 62
1
 10
1.4701869E+002
 20
6.9474929E+001
 11
1.4477159E+002
 21
6.9474929E+001
  0
LINE
  8
99
  6
CONTINUOUS
 62
1
 10
1.594716E+002
 20
6.9974929E+001
 11
1.5626772E+002
 21
6.9974929E+001
  0
LINE
  8
99
  6
CONTINUOUS
 62
1
 10
1.4797554E+002
 20
6.9974929E+001
 11
1.4477159E+002
 21
6.9974929E+001
  0
LINE
  8
99
  6
CONTINUOUS
 62
1
 10
1.5996239E+002
 20
7.0474929E+001
 11
1.594716E+002
 21
6.9974929E+001
  0
LINE
  8
99
  6
CONTINUOUS
 62
1
 10
1.389316E+002
 20
6.3344924E+001
 11
1.4220162E+002
 21
6.3344924E+001
  0
LINE
  8
99
  6
CONTINUOUS
 62
1
 10
1.621216E+002
 20
6.3344924E+001
 11
1.653116E+002
 21
6.3344924E+001
  0
LINE
  8
99
  6
CONTINUOUS
 62
1
 10
1.5492165E+002
 20
7.0474899E+001
 11
1.648116E+002
 21
7.0474899E+001
  0
ARC
  8
99
  6
CONTINUOUS
 62
1
 10
1.6481162E+002
 20
6.9974917E+001
 40
4.9998191E-001
 50
1.4220242E-003
 51
9.0002073E+001
  0
LINE
  8
99
  6
CONTINUOUS
 62
1
 10
1.653116E+002
 20
6.9974929E+001
 11
1.653116E+002
 21
6.3144912E+001
  0
ARC
  8
99
  6
CONTINUOUS
 62
1
 10
1.6511161E+002
 20
6.3144888E+001
 40
1.9998797E-001
 50
2.6999283E+002
 51
3.6000694E+002
  0
LINE
  8
99
  6
CONTINUOUS
 62
1
 10
1.6511159E+002
 20
6.29449E+001
 11
1.621216E+002
 21
6.29449E+001
  0
LINE
  8
99
  6
CONTINUOUS
 62
1
 10
1.421216E+002
 20
6.29449E+001
 11
1.3913158E+002
 21
6.29449E+001
  0
ARC
  8
99
  6
CONTINUOUS
 62
1
 10
1.3913159E+002
 20
6.3144896E+001
 40
1.999966E-001
 50
1.7999553E+002
 51
2.6999553E+002
  0
LINE
  8
99
  6
CONTINUOUS
 62
1
 10
1.389316E+002
 20
6.3144912E+001
 11
1.389316E+002
 21
6.9974929E+001
  0
ARC
  8
99
  6
CONTINUOUS
 62
1
 10
1.3943159E+002
 20
6.9974908E+001
 40
4.9999039E-001
 50
8.9998899E+001
 51
1.7999761E+002
  0
LINE
  8
99
  6
CONTINUOUS
 62
1
 10
1.394316E+002
 20
7.0474899E+001
 11
1.4932161E+002
 21
7.0474899E+001
  0
LINE
  8
104
  6
CONTINUOUS
 62
40
 10
1.621216E+002
 20
6.2344924E+001
 11
1.6541158E+002
 21
6.2344924E+001
  0
ARC
  8
104
  6
CONTINUOUS
 62
40
 10
1.6541159E+002
 20
6.2844912E+001
 40
4.9998816E-001
 50
2.6999864E+002
 51
3.6000136E+002
  0
LINE
  8
104
  6
CONTINUOUS
 62
40
 10
1.6591158E+002
 20
6.2844924E+001
 11
1.6591158E+002
 21
7.0074935E+001
  0
ARC
  8
104
  6
CONTINUOUS
 62
40
 10
1.6491156E+002
 20
7.007492E+001
 40
1.0000153
 50
8.73754E-004
 51
8.9999126E+001
  0
LINE
  8
104
  6
CONTINUOUS
 62
40
 10
1.6491158E+002
 20
7.1074935E+001
 11
1.3933159E+002
 21
7.1074935E+001
  0
ARC
  8
104
  6
CONTINUOUS
 62
40
 10
1.3933158E+002
 20
7.0074942E+001
 40
9.9999322E-001
 50
8.9999611E+001
 51
1.8000039E+002
  0
LINE
  8
104
  6
CONTINUOUS
 62
40
 10
1.3833159E+002
 20
7.0074935E+001
 11
1.3833159E+002
 21
6.2844924E+001
  0
ARC
  8
104
  6
CONTINUOUS
 62
40
 10
1.3883158E+002
 20
6.2844915E+001
 40
4.9999104E-001
 50
1.7999897E+002
 51
2.7000103E+002
  0
LINE
  8
104
  6
CONTINUOUS
 62
40
 10
1.3883159E+002
 20
6.2344924E+001
 11
1.421216E+002
 21
6.2344924E+001
  0
LINE
  8
104
  6
CONTINUOUS
 62
40
 10
1.0212163E+002
 20
7.1074935E+001
 11
1.2415779E+002
 21
7.1074935E+001
  0
LINE
  8
104
  6
CONTINUOUS
 62
40
 10
1.280215E+002
 20
7.1074935E+001
 11
1.3712749E+002
 21
7.1074935E+001
  0
LINE
  8
104
  6
CONTINUOUS
 62
40
 10
1.3818205E+002
 20
7.1074935E+001
 11
1.396216E+002
 21
7.1074935E+001
  0
CIRCLE
  8
99
  6
CONTINUOUS
 62
1
 10
1.1162163E+002
 20
7.4474929E+001
 40
1.5
  0
CIRCLE
  8
104
  6
CONTINUOUS
 62
40
 10
1.1162163E+002
 20
7.4474929E+001
 40
1.700012
  0
LINE
  8
106
  6
CENTERLINE
 62
1
 10
1.1162163E+002
 20
7.6880172E+001
 11
1.1162163E+002
 21
7.2167373E+001
  0
LINE
  8
106
  6
CENTERLINE
 62
1
 10
1.0927797E+002
 20
7.4474929E+001
 11
1.1409789E+002
 21
7.4474929E+001
  0
INSERT
  2
*XH31
  8
108
 10
1.5777228E+002
 20
7.3035887E+001
  0
INSERT
  2
*XH32
  8
108
 10
1.0492916E+002
 20
7.2804397E+001
  0
LINE
  8
104
  6
CONTINUOUS
 62
40
 10
1.436216E+002
 20
7.7874923E+001
 11
1.436216E+002
 21
7.2674911E+001
  0
LINE
  8
104
  6
CONTINUOUS
 62
40
 10
1.436216E+002
 20
7.2674911E+001
 11
1.396216E+002
 21
7.2674911E+001
  0
LINE
  8
104
  6
CONTINUOUS
 62
40
 10
1.396216E+002
 20
7.2674911E+001
 11
1.396216E+002
 21
7.1074935E+001
  0
LINE
  8
104
  6
CONTINUOUS
 62
40
 10
1.0212163E+002
 20
7.4474929E+001
 11
1.0762163E+002
 21
7.4474929E+001
  0
LINE
  8
104
  6
CONTINUOUS
 62
40
 10
1.0762163E+002
 20
7.4474929E+001
 11
1.0762163E+002
 21
7.1074935E+001
  0
LINE
  8
104
  6
CONTINUOUS
 62
40
 10
1.421216E+002
 20
6.2374923E+001
 11
1.1289272E+002
 21
6.2374923E+001
  0
ARC
  8
104
  6
CONTINUOUS
 62
40
 10
1.1289264E+002
 20
6.7374678E+001
 40
4.9997555
 50
2.2499865E+002
 51
2.7000089E+002
  0
LINE
  8
104
  6
CONTINUOUS
 62
40
 10
1.0935719E+002
 20
6.3839401E+001
 11
1.0212163E+002
 21
7.1074935E+001
  0
LINE
  8
104
  6
CONTINUOUS
 62
40
 10
1.6777159E+002
 20
6.2374923E+001
 11
1.6891765E+002
 21
6.2374923E+001
  0
LINE
  8
104
  6
CONTINUOUS
 62
40
 10
1.6891765E+002
 20
6.2374923E+001
 11
1.6898222E+002
 21
7.049974E+001
  0
ARC
  8
104
  6
CONTINUOUS
 62
40
 10
1.7147913E+002
 20
7.0374902E+001
 40
2.5000209
 50
9.0000323E+001
 51
1.7713776E+002
  0
LINE
  8
104
  6
CONTINUOUS
 62
40
 10
1.7052159E+002
 20
7.2874923E+001
 11
1.9072163E+002
 21
7.2874923E+001
  0
LINE
  8
99
  6
CONTINUOUS
 62
1
 10
1.9917165E+002
 20
7.2874923E+001
 11
2.0667162E+002
 21
7.2874923E+001
  0
LINE
  8
104
  6
CONTINUOUS
 62
40
 10
2.1502162E+002
 20
7.2874923E+001
 11
2.3522163E+002
 21
7.2874923E+001
  0
LINE
  8
106
  6
CENTERLINE
 62
1
 10
2.0292162E+002
 20
7.9376205E+001
 11
2.0292162E+002
 21
7.1726089E+001
  0
LINE
  8
104
  6
CONTINUOUS
 62
40
 10
2.3472163E+002
 20
7.7874923E+001
 11
2.1552162E+002
 21
7.7874923E+001
  0
LINE
  8
99
  6
CONTINUOUS
 62
1
 10
2.0617162E+002
 20
7.7874923E+001
 11
1.9967165E+002
 21
7.7874923E+001
  0
LINE
  8
104
  6
CONTINUOUS
 62
40
 10
1.9022163E+002
 20
7.7874923E+001
 11
1.7102159E+002
 21
7.7874923E+001
  0
LINE
  8
104
  6
CONTINUOUS
 62
40
 10
1.616216E+002
 20
7.7874923E+001
 11
1.521216E+002
 21
7.7874923E+001
  0
LINE
  8
104
  6
CONTINUOUS
 62
40
 10
1.521216E+002
 20
7.7874923E+001
 11
1.0212163E+002
 21
7.7874923E+001
  0
LINE
  8
104
  6
CONTINUOUS
 62
40
 10
1.0212163E+002
 20
7.7874923E+001
 11
1.0212163E+002
 21
7.1074935E+001
  0
LINE
  8
99
  6
CONTINUOUS
 62
1
 10
1.664091E+002
 20
6.2374923E+001
 11
1.621216E+002
 21
6.2374923E+001
  0
LINE
  8
104
  6
CONTINUOUS
 62
40
 10
1.616216E+002
 20
7.7874923E+001
 11
1.7102159E+002
 21
7.7874923E+001
  0
LINE
  8
104
  6
CONTINUOUS
 62
40
 10
1.7102159E+002
 20
7.7874923E+001
 11
1.7093431E+002
 21
7.2874923E+001
  0
LINE
  8
104
  6
CONTINUOUS
 62
40
 10
1.7093431E+002
 20
7.2874923E+001
 11
1.6827159E+002
 21
7.2874923E+001
  0
LINE
  8
104
  6
CONTINUOUS
 62
40
 10
1.6827159E+002
 20
7.2874923E+001
 11
1.680883E+002
 21
6.2374923E+001
  0
LINE
  8
104
  6
CONTINUOUS
 62
40
 10
1.680883E+002
 20
6.2374923E+001
 11
1.6652345E+002
 21
6.2374923E+001
  0
LINE
  8
104
  6
CONTINUOUS
 62
40
 10
1.6652345E+002
 20
6.2374923E+001
 11
1.663716E+002
 21
7.1074935E+001
  0
LINE
  8
104
  6
CONTINUOUS
 62
40
 10
1.663716E+002
 20
7.1074935E+001
 11
1.6174031E+002
 21
7.1074935E+001
  0
LINE
  8
104
  6
CONTINUOUS
 62
40
 10
1.9967165E+002
 20
7.7874923E+001
 11
1.9958437E+002
 21
7.2874923E+001
  0
LINE
  8
104
  6
CONTINUOUS
 62
40
 10
1.9958437E+002
 20
7.2874923E+001
 11
1.9030888E+002
 21
7.2874923E+001
  0
LINE
  8
104
  6
CONTINUOUS
 62
40
 10
1.9030888E+002
 20
7.2874923E+001
 11
1.9022163E+002
 21
7.7874923E+001
  0
LINE
  8
104
  6
CONTINUOUS
 62
40
 10
1.9022163E+002
 20
7.7874923E+001
 11
1.9967165E+002
 21
7.7874923E+001
  0
INSERT
  2
*XH33
  8
108
 10
1.9423845E+002
 20
7.497673E+001
  0
LINE
  8
104
  6
CONTINUOUS
 62
40
 10
2.1552162E+002
 20
7.7874923E+001
 11
2.1543434E+002
 21
7.2874923E+001
  0
LINE
  8
104
  6
CONTINUOUS
 62
40
 10
2.1543434E+002
 20
7.2874923E+001
 11
2.062589E+002
 21
7.2874923E+001
  0
LINE
  8
104
  6
CONTINUOUS
 62
40
 10
2.062589E+002
 20
7.2874923E+001
 11
2.0617162E+002
 21
7.7874923E+001
  0
LINE
  8
104
  6
CONTINUOUS
 62
40
 10
2.0617162E+002
 20
7.7874923E+001
 11
2.1552162E+002
 21
7.7874923E+001
  0
INSERT
  2
*XH34
  8
108
 10
2.1082213E+002
 20
7.5363601E+001
  0
LINE
  8
104
  6
CONTINUOUS
 62
40
 10
2.378716E+002
 20
7.7874923E+001
 11
2.3778432E+002
 21
7.2874923E+001
  0
LINE
  8
104
  6
CONTINUOUS
 62
40
 10
2.3778432E+002
 20
7.2874923E+001
 11
2.3480885E+002
 21
7.2874923E+001
  0
LINE
  8
104
  6
CONTINUOUS
 62
40
 10
2.3480885E+002
 20
7.2874923E+001
 11
2.3472163E+002
 21
7.7874923E+001
  0
LINE
  8
104
  6
CONTINUOUS
 62
40
 10
2.3472163E+002
 20
7.7874923E+001
 11
2.378716E+002
 21
7.7874923E+001
  0
INSERT
  2
*XH35
  8
108
 10
2.3628574E+002
 20
7.5355834E+001
  0
LINE
  8
106
  6
CENTERLINE
 62
1
 10
2.251216E+002
 20
9.5923873E+001
 11
2.251216E+002
 21
6.6786331E+001
  0
LINE
  8
99
  6
CONTINUOUS
 62
1
 10
2.201216E+002
 20
7.2874923E+001
 11
2.201216E+002
 21
6.8374923E+001
  0
ARC
  8
99
  6
CONTINUOUS
 62
1
 10
2.2062159E+002
 20
6.8374914E+001
 40
4.9999131E-001
 50
1.79999E+002
 51
2.70001E+002
  0
LINE
  8
99
  6
CONTINUOUS
 62
1
 10
2.206216E+002
 20
6.7874923E+001
 11
2.241216E+002
 21
6.7874923E+001
  0
LINE
  8
99
  6
CONTINUOUS
 62
1
 10
2.241216E+002
 20
6.7874923E+001
 11
2.241216E+002
 21
6.9874923E+001
  0
LINE
  8
99
  6
CONTINUOUS
 62
1
 10
2.241216E+002
 20
6.9874923E+001
 11
2.261216E+002
 21
6.9874923E+001
  0
LINE
  8
99
  6
CONTINUOUS
 62
1
 10
2.261216E+002
 20
6.9874923E+001
 11
2.261216E+002
 21
6.7874923E+001
  0
LINE
  8
99
  6
CONTINUOUS
 62
1
 10
2.261216E+002
 20
6.7874923E+001
 11
2.296216E+002
 21
6.7874923E+001
  0
ARC
  8
99
  6
CONTINUOUS
 62
1
 10
2.296216E+002
 20
6.8374922E+001
 40
4.9999869E-001
 50
2.6999985E+002
 51
3.6000015E+002
  0
LINE
  8
99
  6
CONTINUOUS
 62
1
 10
2.301216E+002
 20
6.8374923E+001
 11
2.301216E+002
 21
7.2874923E+001
  0
LINE
  8
99
  6
CONTINUOUS
 62
1
 10
2.301216E+002
 20
7.2874923E+001
 11
2.201216E+002
 21
7.2874923E+001
  0
LINE
  8
99
  6
CONTINUOUS
 62
1
 10
2.221216E+002
 20
7.2874923E+001
 11
2.221216E+002
 21
9.2874923E+001
  0
LINE
  8
99
  6
CONTINUOUS
 62
1
 10
2.221216E+002
 20
9.2874923E+001
 11
2.281216E+002
 21
9.2874923E+001
  0
LINE
  8
99
  6
CONTINUOUS
 62
1
 10
2.281216E+002
 20
9.2874923E+001
 11
2.281216E+002
 21
7.2874923E+001
  0
LINE
  8
99
  6
CONTINUOUS
 62
1
 10
2.231216E+002
 20
9.2874923E+001
 11
2.231216E+002
 21
7.2874923E+001
  0
LINE
  8
99
  6
CONTINUOUS
 62
1
 10
2.271216E+002
 20
7.2874923E+001
 11
2.271216E+002
 21
9.2874923E+001
  0
LINE
  8
106
  6
CENTERLINE
 62
1
 10
2.0292162E+002
 20
9.5231948E+001
 11
2.0292162E+002
 21
6.7093856E+001
  0
LINE
  8
99
  6
CONTINUOUS
 62
1
 10
1.9792162E+002
 20
7.2874923E+001
 11
1.9792162E+002
 21
6.8374923E+001
  0
ARC
  8
99
  6
CONTINUOUS
 62
1
 10
1.984216E+002
 20
6.8374912E+001
 40
4.9998881E-001
 50
1.7999872E+002
 51
2.7000128E+002
  0
LINE
  8
99
  6
CONTINUOUS
 62
1
 10
1.9842162E+002
 20
6.7874923E+001
 11
2.0192162E+002
 21
6.7874923E+001
  0
LINE
  8
99
  6
CONTINUOUS
 62
1
 10
2.0192162E+002
 20
6.7874923E+001
 11
2.0192162E+002
 21
6.9874923E+001
  0
LINE
  8
99
  6
CONTINUOUS
 62
1
 10
2.0192162E+002
 20
6.9874923E+001
 11
2.0392162E+002
 21
6.9874923E+001
  0
LINE
  8
99
  6
CONTINUOUS
 62
1
 10
2.0392162E+002
 20
6.9874923E+001
 11
2.0392162E+002
 21
6.7874923E+001
  0
LINE
  8
99
  6
CONTINUOUS
 62
1
 10
2.0392162E+002
 20
6.7874923E+001
 11
2.0742162E+002
 21
6.7874923E+001
  0
ARC
  8
99
  6
CONTINUOUS
 62
1
 10
2.0742161E+002
 20
6.8374925E+001
 40
5.000019E-001
 50
2.7000022E+002
 51
3.5999978E+002
  0
LINE
  8
99
  6
CONTINUOUS
 62
1
 10
2.0792162E+002
 20
6.8374923E+001
 11
2.0792162E+002
 21
7.2874923E+001
  0
LINE
  8
99
  6
CONTINUOUS
 62
1
 10
2.0792162E+002
 20
7.2874923E+001
 11
1.9792162E+002
 21
7.2874923E+001
  0
LINE
  8
99
  6
CONTINUOUS
 62
1
 10
1.9992162E+002
 20
7.2874923E+001
 11
1.9992162E+002
 21
9.2874923E+001
  0
LINE
  8
99
  6
CONTINUOUS
 62
1
 10
1.9992162E+002
 20
9.2874923E+001
 11
2.0592162E+002
 21
9.2874923E+001
  0
LINE
  8
99
  6
CONTINUOUS
 62
1
 10
2.0592162E+002
 20
9.2874923E+001
 11
2.0592162E+002
 21
7.2874923E+001
  0
LINE
  8
99
  6
CONTINUOUS
 62
1
 10
2.0092162E+002
 20
9.2874923E+001
 11
2.0092162E+002
 21
7.2874923E+001
  0
LINE
  8
99
  6
CONTINUOUS
 62
1
 10
2.0492162E+002
 20
7.2874923E+001
 11
2.0492162E+002
 21
9.2874923E+001
  0
LINE
  8
106
  6
CENTERLINE
 62
1
 10
1.806216E+002
 20
9.5001296E+001
 11
1.806216E+002
 21
6.7478256E+001
  0
LINE
  8
99
  6
CONTINUOUS
 62
1
 10
1.756216E+002
 20
7.2874923E+001
 11
1.756216E+002
 21
6.8374923E+001
  0
ARC
  8
99
  6
CONTINUOUS
 62
1
 10
1.7612159E+002
 20
6.8374912E+001
 40
4.9998903E-001
 50
1.7999874E+002
 51
2.7000126E+002
  0
LINE
  8
99
  6
CONTINUOUS
 62
1
 10
1.761216E+002
 20
6.7874923E+001
 11
1.796216E+002
 21
6.7874923E+001
  0
LINE
  8
99
  6
CONTINUOUS
 62
1
 10
1.796216E+002
 20
6.7874923E+001
 11
1.796216E+002
 21
6.9874923E+001
  0
LINE
  8
99
  6
CONTINUOUS
 62
1
 10
1.796216E+002
 20
6.9874923E+001
 11
1.816216E+002
 21
6.9874923E+001
  0
LINE
  8
99
  6
CONTINUOUS
 62
1
 10
1.816216E+002
 20
6.9874923E+001
 11
1.816216E+002
 21
6.7874923E+001
  0
LINE
  8
99
  6
CONTINUOUS
 62
1
 10
1.816216E+002
 20
6.7874923E+001
 11
1.851216E+002
 21
6.7874923E+001
  0
ARC
  8
99
  6
CONTINUOUS
 62
1
 10
1.851216E+002
 20
6.8374925E+001
 40
5.0000167E-001
 50
2.7000019E+002
 51
3.5999981E+002
  0
LINE
  8
99
  6
CONTINUOUS
 62
1
 10
1.856216E+002
 20
6.8374923E+001
 11
1.856216E+002
 21
7.2874923E+001
  0
LINE
  8
99
  6
CONTINUOUS
 62
1
 10
1.856216E+002
 20
7.2874923E+001
 11
1.756216E+002
 21
7.2874923E+001
  0
LINE
  8
99
  6
CONTINUOUS
 62
1
 10
1.776216E+002
 20
7.2874923E+001
 11
1.776216E+002
 21
9.2874923E+001
  0
LINE
  8
99
  6
CONTINUOUS
 62
1
 10
1.776216E+002
 20
9.2874923E+001
 11
1.836216E+002
 21
9.2874923E+001
  0
LINE
  8
99
  6
CONTINUOUS
 62
1
 10
1.836216E+002
 20
9.2874923E+001
 11
1.836216E+002
 21
7.2874923E+001
  0
LINE
  8
99
  6
CONTINUOUS
 62
1
 10
1.786216E+002
 20
9.2874923E+001
 11
1.786216E+002
 21
7.2874923E+001
  0
LINE
  8
99
  6
CONTINUOUS
 62
1
 10
1.826216E+002
 20
7.2874923E+001
 11
1.826216E+002
 21
9.2874923E+001
  0
LINE
  8
104
  6
CONTINUOUS
 62
40
 10
8.232158E+001
 20
5.5374923E+001
 11
8.232158E+001
 21
5.5874953E+001
  0
LINE
  8
104
  6
CONTINUOUS
 62
40
 10
8.232158E+001
 20
5.5874953E+001
 11
1.4077992E+002
 21
5.5874953E+001
  0
LINE
  8
104
  6
CONTINUOUS
 62
40
 10
1.3912163E+002
 20
5.5374953E+001
 11
1.651216E+002
 21
5.5374953E+001
  0
LINE
  8
104
  6
CONTINUOUS
 62
40
 10
1.8432158E+002
 20
5.4374923E+001
 11
8.232158E+001
 21
5.4374923E+001
  0
LINE
  8
106
  6
CENTERLINE
 62
1
 10
1.5071465E+002
 20
6.0874923E+001
 11
1.5395403E+002
 21
6.0874923E+001
  0
LINE
  8
104
  6
CONTINUOUS
 62
40
 10
1.621216E+002
 20
6.3374923E+001
 11
1.4217162E+002
 21
6.3374923E+001
  0
LINE
  8
104
  6
CONTINUOUS
 62
40
 10
8.232158E+001
 20
5.5374923E+001
 11
8.232158E+001
 21
5.0874923E+001
  0
LINE
  8
104
  6
CONTINUOUS
 62
40
 10
8.232158E+001
 20
5.0874923E+001
 11
1.8432158E+002
 21
5.0874923E+001
  0
LINE
  8
104
  6
CONTINUOUS
 62
40
 10
1.8432158E+002
 20
5.0874923E+001
 11
1.8432158E+002
 21
5.4374923E+001
  0
LINE
  8
104
  6
CONTINUOUS
 62
40
 10
1.8432158E+002
 20
5.4374923E+001
 11
1.8332158E+002
 21
5.5374923E+001
  0
LINE
  8
104
  6
CONTINUOUS
 62
40
 10
1.8332158E+002
 20
5.5374923E+001
 11
1.651216E+002
 21
5.5374923E+001
  0
ARC
  8
104
  6
CONTINUOUS
 62
40
 10
1.6512159E+002
 20
5.8374915E+001
 40
2.9999921
 50
1.7999985E+002
 51
2.7000015E+002
  0
LINE
  8
104
  6
CONTINUOUS
 62
40
 10
1.621216E+002
 20
5.8374923E+001
 11
1.621216E+002
 21
6.3374923E+001
  0
LINE
  8
104
  6
CONTINUOUS
 62
40
 10
1.621216E+002
 20
6.3374923E+001
 11
1.6207158E+002
 21
6.3374923E+001
  0
ARC
  8
104
  6
CONTINUOUS
 62
40
 10
1.6207158E+002
 20
6.69749E+001
 40
3.5999769
 50
1.7999954E+002
 51
2.6999999E+002
  0
LINE
  8
104
  6
CONTINUOUS
 62
40
 10
1.584716E+002
 20
6.6974929E+001
 11
1.584716E+002
 21
6.7588912E+001
  0
ARC
  8
104
  6
CONTINUOUS
 62
40
 10
1.5647162E+002
 20
6.7588888E+001
 40
1.9999867
 50
6.982447E-004
 51
5.7061127E+001
  0
ARC
  8
104
  6
CONTINUOUS
 62
40
 10
1.5212158E+002
 20
6.0874923E+001
 40
9.9999953
 50
5.7060585E+001
 51
1.2293877E+002
  0
ARC
  8
104
  6
CONTINUOUS
 62
40
 10
1.4777163E+002
 20
6.7588879E+001
 40
2.0000428
 50
1.2293766E+002
 51
1.7999904E+002
  0
LINE
  8
104
  6
CONTINUOUS
 62
40
 10
1.4577159E+002
 20
6.7588912E+001
 11
1.4577159E+002
 21
6.6974929E+001
  0
ARC
  8
104
  6
CONTINUOUS
 62
40
 10
1.4217161E+002
 20
6.6974933E+001
 40
3.5999796
 50
2.7000006E+002
 51
3.5999994E+002
  0
LINE
  8
104
  6
CONTINUOUS
 62
40
 10
1.4217162E+002
 20
6.3374953E+001
 11
1.4212163E+002
 21
6.3374953E+001
  0
LINE
  8
104
  6
CONTINUOUS
 62
40
 10
1.4212163E+002
 20
6.3374953E+001
 11
1.4212163E+002
 21
5.8374923E+001
  0
ARC
  8
104
  6
CONTINUOUS
 62
40
 10
1.3912166E+002
 20
5.8374923E+001
 40
2.9999693
 50
2.6999941E+002
 51
3.6E+002
  0
LINE
  8
104
  6
CONTINUOUS
 62
40
 10
1.3912163E+002
 20
5.5374953E+001
 11
8.232158E+001
 21
5.5374923E+001
  0
LINE
  8
106
  6
CENTERLINE
 62
1
 10
1.521216E+002
 20
7.9958419E+001
 11
1.521216E+002
 21
4.2386672E+001
  0
LINE
  8
106
  6
CENTERLINE
 62
1
 10
1.1092162E+002
 20
5.7428451E+001
 11
1.1092162E+002
 21
4.26342E+001
  0
LINE
  8
106
  6
CENTERLINE
 62
1
 10
1.7432161E+002
 20
5.7937606E+001
 11
1.7432161E+002
 21
4.2386672E+001
  0
LINE
  8
106
  6
CENTERLINE
 62
1
 10
4.2923991E+002
 20
5.5047324E+001
 11
4.2923991E+002
 21
4.5478126E+001
  0
LINE
  8
106
  6
CENTERLINE
 62
1
 10
4.926399E+002
 20
5.4760123E+001
 11
4.926399E+002
 21
4.5295356E+001
  0
LINE
  8
99
  6
CONTINUOUS
 62
1
 10
4.7072856E+002
 20
5.241677E+001
 11
4.7043989E+002
 21
5.2916739E+001
  0
LINE
  8
99
  6
CONTINUOUS
 62
1
 10
4.7043989E+002
 20
5.2916739E+001
 11
4.7015122E+002
 21
5.241677E+001
  0
LINE
  8
104
  6
CONTINUOUS
 62
40
 10
5.026399E+002
 20
5.141677E+001
 11
4.006399E+002
 21
5.141677E+001
  0
LINE
  8
104
  6
CONTINUOUS
 62
40
 10
5.016399E+002
 20
5.241677E+001
 11
4.5489942E+002
 21
5.241677E+001
  0
INSERT
  2
*XH36
  8
108
 10
4.6112426E+002
 20
7.865735E+001
  0
INSERT
  2
*XH37
  8
108
 10
4.7972616E+002
 20
7.886372E+001
  0
LINE
  8
99
  6
CONTINUOUS
 62
1
 10
4.6343989E+002
 20
8.6716758E+001
 11
4.6443989E+002
 21
8.5716758E+001
  0
LINE
  8
99
  6
CONTINUOUS
 62
1
 10
4.6443989E+002
 20
8.5716758E+001
 11
4.6443989E+002
 21
7.0813407E+001
  0
LINE
  8
99
  6
CONTINUOUS
 62
1
 10
4.7743992E+002
 20
8.6716758E+001
 11
4.7643992E+002
 21
8.5716727E+001
  0
LINE
  8
99
  6
CONTINUOUS
 62
1
 10
4.7643992E+002
 20
8.5716727E+001
 11
4.7643992E+002
 21
7.0764091E+001
  0
LINE
  8
99
  6
CONTINUOUS
 62
1
 10
4.6443992E+002
 20
8.5716727E+001
 11
4.7643989E+002
 21
8.5716727E+001
  0
LINE
  8
99
  6
CONTINUOUS
 62
1
 10
4.5765446E+002
 20
7.0563804E+001
 11
4.6241047E+002
 21
7.0736655E+001
  0
LINE
  8
99
  6
CONTINUOUS
 62
1
 10
4.6241047E+002
 20
7.0736655E+001
 11
4.6655113E+002
 21
7.0893271E+001
  0
LINE
  8
99
  6
CONTINUOUS
 62
1
 10
4.6655113E+002
 20
7.0893271E+001
 11
4.7029997E+002
 21
7.097161E+001
  0
LINE
  8
99
  6
CONTINUOUS
 62
1
 10
4.7029997E+002
 20
7.097161E+001
 11
4.746627E+002
 21
7.0736655E+001
  0
LINE
  8
99
  6
CONTINUOUS
 62
1
 10
4.746627E+002
 20
7.0736655E+001
 11
4.7973078E+002
 21
7.0814933E+001
  0
LINE
  8
99
  6
CONTINUOUS
 62
1
 10
4.7973078E+002
 20
7.0814933E+001
 11
4.8321412E+002
 21
7.120745E+001
  0
ARC
  8
104
  6
CONTINUOUS
 62
40
 10
4.5438885E+002
 20
5.537302E+001
 40
3.000012
 50
2.6906883E+002
 51
3.5900014E+002
  0
LINE
  8
104
  6
CONTINUOUS
 62
40
 10
4.5738841E+002
 20
5.532067E+001
 11
4.5793992E+002
 21
8.6716758E+001
  0
LINE
  8
104
  6
CONTINUOUS
 62
40
 10
4.5793992E+002
 20
8.6716758E+001
 11
4.8293992E+002
 21
8.6716758E+001
  0
LINE
  8
104
  6
CONTINUOUS
 62
40
 10
4.8293992E+002
 20
8.6716758E+001
 11
4.8349067E+002
 21
5.5364402E+001
  0
ARC
  8
104
  6
CONTINUOUS
 62
40
 10
4.8649022E+002
 20
5.5416748E+001
 40
3.0000084
 50
1.8099978E+002
 51
2.6999983E+002
  0
LINE
  8
104
  6
CONTINUOUS
 62
40
 10
4.006399E+002
 20
5.241677E+001
 11
4.006399E+002
 21
5.2916801E+001
  0
LINE
  8
104
  6
CONTINUOUS
 62
40
 10
4.006399E+002
 20
5.2916801E+001
 11
4.5611137E+002
 21
5.2916801E+001
  0
LINE
  8
104
  6
CONTINUOUS
 62
40
 10
4.5489942E+002
 20
5.241677E+001
 11
4.006399E+002
 21
5.241677E+001
  0
LINE
  8
104
  6
CONTINUOUS
 62
40
 10
4.006399E+002
 20
5.241677E+001
 11
4.006399E+002
 21
4.791677E+001
  0
LINE
  8
104
  6
CONTINUOUS
 62
40
 10
4.006399E+002
 20
4.791677E+001
 11
5.026399E+002
 21
4.791677E+001
  0
LINE
  8
104
  6
CONTINUOUS
 62
40
 10
5.026399E+002
 20
4.791677E+001
 11
5.026399E+002
 21
5.141677E+001
  0
LINE
  8
104
  6
CONTINUOUS
 62
40
 10
5.026399E+002
 20
5.141677E+001
 11
5.016399E+002
 21
5.241677E+001
  0
LINE
  8
104
  6
CONTINUOUS
 62
40
 10
5.016399E+002
 20
5.241677E+001
 11
4.8638993E+002
 21
5.241677E+001
  0
LINE
  8
106
  6
CENTERLINE
 62
1
 10
4.7043989E+002
 20
8.8799888E+001
 11
4.7043989E+002
 21
4.5475516E+001
  0
INSERT
  2
*XH38
  8
108
 10
4.7038395E+002
 20
8.3716758E+001
  0
LINE
  8
106
  6
CENTERLINE
 62
1
 10
4.7169389E+002
 20
8.7688041E+001
 11
4.6932963E+002
 21
8.7688041E+001
  0
LINE
  8
104
  6
CONTINUOUS
 62
40
 10
4.7583756E+002
 20
7.8216758E+001
 11
4.6504225E+002
 21
7.8216758E+001
  0
LINE
  8
104
  6
CONTINUOUS
 62
40
 10
4.6504225E+002
 20
7.8216758E+001
 11
4.6446491E+002
 21
7.9216758E+001
  0
LINE
  8
104
  6
CONTINUOUS
 62
40
 10
4.6446491E+002
 20
7.9216758E+001
 11
4.6446491E+002
 21
8.6716758E+001
  0
LINE
  8
104
  6
CONTINUOUS
 62
40
 10
4.6446491E+002
 20
8.6716758E+001
 11
4.6043992E+002
 21
8.6716758E+001
  0
LINE
  8
104
  6
CONTINUOUS
 62
40
 10
4.6043992E+002
 20
8.6716758E+001
 11
4.6043992E+002
 21
9.0216758E+001
  0
LINE
  8
104
  6
CONTINUOUS
 62
40
 10
4.6043992E+002
 20
9.0216758E+001
 11
4.6048991E+002
 21
9.0216758E+001
  0
ARC
  8
104
  6
CONTINUOUS
 62
40
 10
4.604899E+002
 20
9.3816773E+001
 40
3.6000148
 50
2.7000014E+002
 51
3.5999986E+002
  0
LINE
  8
104
  6
CONTINUOUS
 62
40
 10
4.6408991E+002
 20
9.3816764E+001
 11
4.6408991E+002
 21
9.440203E+001
  0
ARC
  8
104
  6
CONTINUOUS
 62
40
 10
4.660899E+002
 20
9.4402036E+001
 40
1.9999861
 50
1.2293883E+002
 51
1.8000016E+002
  0
ARC
  8
104
  6
CONTINUOUS
 62
40
 10
4.7043991E+002
 20
8.7688041E+001
 40
1.0000008E+001
 50
5.7061116E+001
 51
1.2293921E+002
  0
ARC
  8
104
  6
CONTINUOUS
 62
40
 10
4.7478985E+002
 20
9.4402014E+001
 40
2.0000489
 50
2.2175399E-003
 51
5.7061183E+001
  0
LINE
  8
104
  6
CONTINUOUS
 62
40
 10
4.767899E+002
 20
9.4402091E+001
 11
4.767899E+002
 21
9.3816764E+001
  0
ARC
  8
104
  6
CONTINUOUS
 62
40
 10
4.803899E+002
 20
9.381675E+001
 40
3.6000074
 50
1.7999978E+002
 51
2.6999998E+002
  0
LINE
  8
104
  6
CONTINUOUS
 62
40
 10
4.803899E+002
 20
9.0216743E+001
 11
4.8043992E+002
 21
9.0216743E+001
  0
LINE
  8
104
  6
CONTINUOUS
 62
40
 10
4.8043992E+002
 20
9.0216743E+001
 11
4.8043992E+002
 21
8.6716758E+001
  0
LINE
  8
104
  6
CONTINUOUS
 62
40
 10
4.8043992E+002
 20
8.6716758E+001
 11
4.764149E+002
 21
8.6716758E+001
  0
LINE
  8
104
  6
CONTINUOUS
 62
40
 10
4.764149E+002
 20
8.6716758E+001
 11
4.764149E+002
 21
7.9216758E+001
  0
LINE
  8
104
  6
CONTINUOUS
 62
40
 10
4.764149E+002
 20
7.9216758E+001
 11
4.7583756E+002
 21
7.8216758E+001
  0
LINE
  8
104
  6
CONTINUOUS
 62
40
 10
4.764149E+002
 20
7.9216758E+001
 11
4.6446491E+002
 21
7.9216758E+001
  0
LINE
  8
99
  6
CONTINUOUS
 62
1
 10
4.764149E+002
 20
8.1716758E+001
 11
4.6446491E+002
 21
8.1716758E+001
  0
LINE
  8
99
  6
CONTINUOUS
 62
1
 10
4.764149E+002
 20
8.5716758E+001
 11
4.6446491E+002
 21
8.5716758E+001
  0
LINE
  8
99
  6
CONTINUOUS
 62
1
 10
4.764149E+002
 20
8.6716758E+001
 11
4.6446491E+002
 21
8.6716758E+001
  0
LINE
  8
99
  6
CONTINUOUS
 62
1
 10
4.8043992E+002
 20
9.0216758E+001
 11
4.6043992E+002
 21
9.0216758E+001
  0
LINE
  8
106
  6
CENTERLINE
 62
1
 10
5.2123994E+002
 20
1.2296571E+002
 11
5.2123994E+002
 21
9.3828193E+001
  0
LINE
  8
99
  6
CONTINUOUS
 62
1
 10
5.1623994E+002
 20
9.991677E+001
 11
5.1623994E+002
 21
9.541677E+001
  0
ARC
  8
99
  6
CONTINUOUS
 62
1
 10
5.1673997E+002
 20
9.5416797E+001
 40
5.0002743E-001
 50
1.8000314E+002
 51
2.6999686E+002
  0
LINE
  8
99
  6
CONTINUOUS
 62
1
 10
5.1673994E+002
 20
9.491677E+001
 11
5.2023994E+002
 21
9.491677E+001
  0
LINE
  8
99
  6
CONTINUOUS
 62
1
 10
5.2023994E+002
 20
9.491677E+001
 11
5.2023994E+002
 21
9.691677E+001
  0
LINE
  8
99
  6
CONTINUOUS
 62
1
 10
5.2023994E+002
 20
9.691677E+001
 11
5.2223994E+002
 21
9.691677E+001
  0
LINE
  8
99
  6
CONTINUOUS
 62
1
 10
5.2223994E+002
 20
9.691677E+001
 11
5.2223994E+002
 21
9.491677E+001
  0
LINE
  8
99
  6
CONTINUOUS
 62
1
 10
5.2223994E+002
 20
9.491677E+001
 11
5.2573994E+002
 21
9.491677E+001
  0
ARC
  8
99
  6
CONTINUOUS
 62
1
 10
5.2573994E+002
 20
9.5416767E+001
 40
4.9999676E-001
 50
2.6999963E+002
 51
3.6000037E+002
  0
LINE
  8
99
  6
CONTINUOUS
 62
1
 10
5.2623994E+002
 20
9.541677E+001
 11
5.2623994E+002
 21
9.991677E+001
  0
LINE
  8
99
  6
CONTINUOUS
 62
1
 10
5.2623994E+002
 20
9.991677E+001
 11
5.1623994E+002
 21
9.991677E+001
  0
LINE
  8
99
  6
CONTINUOUS
 62
1
 10
5.1823994E+002
 20
9.991677E+001
 11
5.1823994E+002
 21
1.1991677E+002
  0
LINE
  8
99
  6
CONTINUOUS
 62
1
 10
5.1823994E+002
 20
1.1991677E+002
 11
5.2423994E+002
 21
1.1991677E+002
  0
LINE
  8
99
  6
CONTINUOUS
 62
1
 10
5.2423994E+002
 20
1.1991677E+002
 11
5.2423994E+002
 21
9.991677E+001
  0
LINE
  8
99
  6
CONTINUOUS
 62
1
 10
5.1923994E+002
 20
1.1991677E+002
 11
5.1923994E+002
 21
9.991677E+001
  0
LINE
  8
99
  6
CONTINUOUS
 62
1
 10
5.2323994E+002
 20
9.991677E+001
 11
5.2323994E+002
 21
1.1991677E+002
  0
LINE
  8
106
  6
CENTERLINE
 62
1
 10
5.4343992E+002
 20
1.2296571E+002
 11
5.4343992E+002
 21
9.3828193E+001
  0
LINE
  8
99
  6
CONTINUOUS
 62
1
 10
5.3843992E+002
 20
9.991677E+001
 11
5.3843992E+002
 21
9.541677E+001
  0
ARC
  8
99
  6
CONTINUOUS
 62
1
 10
5.3893993E+002
 20
9.5416779E+001
 40
5.0000872E-001
 50
1.80001E+002
 51
2.69999E+002
  0
LINE
  8
99
  6
CONTINUOUS
 62
1
 10
5.3893992E+002
 20
9.491677E+001
 11
5.4243992E+002
 21
9.491677E+001
  0
LINE
  8
99
  6
CONTINUOUS
 62
1
 10
5.4243992E+002
 20
9.491677E+001
 11
5.4243992E+002
 21
9.691677E+001
  0
LINE
  8
99
  6
CONTINUOUS
 62
1
 10
5.4243992E+002
 20
9.691677E+001
 11
5.4443992E+002
 21
9.691677E+001
  0
LINE
  8
99
  6
CONTINUOUS
 62
1
 10
5.4443992E+002
 20
9.691677E+001
 11
5.4443992E+002
 21
9.491677E+001
  0
LINE
  8
99
  6
CONTINUOUS
 62
1
 10
5.4443992E+002
 20
9.491677E+001
 11
5.4793992E+002
 21
9.491677E+001
  0
ARC
  8
99
  6
CONTINUOUS
 62
1
 10
5.479399E+002
 20
9.5416786E+001
 40
5.0001617E-001
 50
2.7000185E+002
 51
3.5999815E+002
  0
LINE
  8
99
  6
CONTINUOUS
 62
1
 10
5.4843992E+002
 20
9.541677E+001
 11
5.4843992E+002
 21
9.991677E+001
  0
LINE
  8
99
  6
CONTINUOUS
 62
1
 10
5.4843992E+002
 20
9.991677E+001
 11
5.3843992E+002
 21
9.991677E+001
  0
LINE
  8
99
  6
CONTINUOUS
 62
1
 10
5.4043992E+002
 20
9.991677E+001
 11
5.4043992E+002
 21
1.1991677E+002
  0
LINE
  8
99
  6
CONTINUOUS
 62
1
 10
5.4043992E+002
 20
1.1991677E+002
 11
5.4643992E+002
 21
1.1991677E+002
  0
LINE
  8
99
  6
CONTINUOUS
 62
1
 10
5.4643992E+002
 20
1.1991677E+002
 11
5.4643992E+002
 21
9.991677E+001
  0
LINE
  8
99
  6
CONTINUOUS
 62
1
 10
5.4143992E+002
 20
1.1991677E+002
 11
5.4143992E+002
 21
9.991677E+001
  0
LINE
  8
99
  6
CONTINUOUS
 62
1
 10
5.4543992E+002
 20
9.991677E+001
 11
5.4543992E+002
 21
1.1991677E+002
  0
LINE
  8
106
  6
CENTERLINE
 62
1
 10
4.9893992E+002
 20
1.2204314E+002
 11
4.9893992E+002
 21
9.4520103E+001
  0
LINE
  8
99
  6
CONTINUOUS
 62
1
 10
4.9393992E+002
 20
9.991677E+001
 11
4.9393992E+002
 21
9.541677E+001
  0
ARC
  8
99
  6
CONTINUOUS
 62
1
 10
4.9443994E+002
 20
9.5416787E+001
 40
5.0001691E-001
 50
1.8000194E+002
 51
2.6999806E+002
  0
LINE
  8
99
  6
CONTINUOUS
 62
1
 10
4.9443992E+002
 20
9.491677E+001
 11
4.9793992E+002
 21
9.491677E+001
  0
LINE
  8
99
  6
CONTINUOUS
 62
1
 10
4.9793992E+002
 20
9.491677E+001
 11
4.9793992E+002
 21
9.691677E+001
  0
LINE
  8
99
  6
CONTINUOUS
 62
1
 10
4.9793992E+002
 20
9.691677E+001
 11
4.9993992E+002
 21
9.691677E+001
  0
LINE
  8
99
  6
CONTINUOUS
 62
1
 10
4.9993992E+002
 20
9.691677E+001
 11
4.9993992E+002
 21
9.491677E+001
  0
LINE
  8
99
  6
CONTINUOUS
 62
1
 10
4.9993992E+002
 20
9.491677E+001
 11
5.0343992E+002
 21
9.491677E+001
  0
ARC
  8
99
  6
CONTINUOUS
 62
1
 10
5.0343994E+002
 20
9.5416756E+001
 40
4.9998578E-001
 50
2.6999837E+002
 51
3.6000163E+002
  0
LINE
  8
99
  6
CONTINUOUS
 62
1
 10
5.0393992E+002
 20
9.541677E+001
 11
5.0393992E+002
 21
9.991677E+001
  0
LINE
  8
99
  6
CONTINUOUS
 62
1
 10
5.0393992E+002
 20
9.991677E+001
 11
4.9393992E+002
 21
9.991677E+001
  0
LINE
  8
99
  6
CONTINUOUS
 62
1
 10
4.9593992E+002
 20
9.991677E+001
 11
4.9593992E+002
 21
1.1991677E+002
  0
LINE
  8
99
  6
CONTINUOUS
 62
1
 10
4.9593992E+002
 20
1.1991677E+002
 11
5.0193992E+002
 21
1.1991677E+002
  0
LINE
  8
99
  6
CONTINUOUS
 62
1
 10
5.0193992E+002
 20
1.1991677E+002
 11
5.0193992E+002
 21
9.991677E+001
  0
LINE
  8
99
  6
CONTINUOUS
 62
1
 10
4.9693992E+002
 20
1.1991677E+002
 11
4.9693992E+002
 21
9.991677E+001
  0
LINE
  8
99
  6
CONTINUOUS
 62
1
 10
5.0093992E+002
 20
9.991677E+001
 11
5.0093992E+002
 21
1.1991677E+002
  0
INSERT
  2
*XH39
  8
108
 10
4.4216638E+002
 20
9.9091498E+001
  0
LINE
  8
104
  6
CONTINUOUS
 62
40
 10
4.6093992E+002
 20
9.9716773E+001
 11
4.5776029E+002
 21
9.9716773E+001
  0
ARC
  8
104
  6
CONTINUOUS
 62
40
 10
4.5776032E+002
 20
9.8716763E+001
 40
1.0000099
 50
9.0001215E+001
 51
1.6499951E+002
  0
LINE
  8
104
  6
CONTINUOUS
 62
40
 10
4.5679438E+002
 20
9.8975593E+001
 11
4.5580876E+002
 21
9.6097205E+001
  0
ARC
  8
104
  6
CONTINUOUS
 62
40
 10
4.5435985E+002
 20
9.6485451E+001
 40
1.500017
 50
2.5500149E+002
 51
3.4499948E+002
  0
LINE
  8
104
  6
CONTINUOUS
 62
40
 10
4.5397166E+002
 20
9.5036536E+001
 11
4.3315782E+002
 21
1.0061358E+002
  0
ARC
  8
104
  6
CONTINUOUS
 62
40
 10
4.32899E+002
 20
9.9647672E+001
 40
9.9997863E-001
 50
7.5000126E+001
 51
1.4772068E+002
  0
ARC
  8
104
  6
CONTINUOUS
 62
40
 10
4.2993989E+002
 20
1.0151678E+002
 40
2.5000066
 50
1.9459414E+002
 51
3.2772214E+002
  0
LINE
  8
104
  6
CONTINUOUS
 62
40
 10
4.2752055E+002
 20
1.0088685E+002
 11
4.2746223E+002
 21
1.0099419E+002
  0
ARC
  8
104
  6
CONTINUOUS
 62
40
 10
4.2658357E+002
 20
1.0051678E+002
 40
9.9997778E-001
 50
2.8517059E+001
 51
9.0000373E+001
  0
LINE
  8
104
  6
CONTINUOUS
 62
40
 10
4.2658357E+002
 20
1.0151676E+002
 11
4.2393992E+002
 21
1.0151676E+002
  0
LINE
  8
104
  6
CONTINUOUS
 62
40
 10
4.2393992E+002
 20
1.0151676E+002
 11
4.2393992E+002
 21
1.0251676E+002
  0
LINE
  8
104
  6
CONTINUOUS
 62
40
 10
4.2393992E+002
 20
1.0251676E+002
 11
4.2629066E+002
 21
1.0251676E+002
  0
ARC
  8
104
  6
CONTINUOUS
 62
40
 10
4.2629063E+002
 20
1.0051673E+002
 40
2.0000357
 50
2.8026083E+001
 51
8.9999253E+001
  0
LINE
  8
104
  6
CONTINUOUS
 62
40
 10
4.2805613E+002
 20
1.0145649E+002
 11
4.2836595E+002
 21
1.0087449E+002
  0
ARC
  8
104
  6
CONTINUOUS
 62
40
 10
4.2992804E+002
 20
1.0147203E+002
 40
1.672477
 50
2.0093316E+002
 51
2.5923351E+002
  0
ARC
  8
104
  6
CONTINUOUS
 62
40
 10
4.2993027E+002
 20
1.0148375E+002
 40
1.6844121
 50
2.5923331E+002
 51
3.1725977E+002
  0
ARC
  8
104
  6
CONTINUOUS
 62
40
 10
4.3319825E+002
 20
9.9529761E+001
 40
2.1867598
 50
1.3913115E+002
 51
1.5823585E+002
  0
ARC
  8
104
  6
CONTINUOUS
 62
40
 10
4.3308239E+002
 20
9.9633816E+001
 40
2.0310605
 50
1.1914207E+002
 51
1.3921226E+002
  0
ARC
  8
104
  6
CONTINUOUS
 62
40
 10
4.3300773E+002
 20
9.9760048E+001
 40
1.8844553
 50
1.0848022E+002
 51
1.1902858E+002
  0
ARC
  8
104
  6
CONTINUOUS
 62
40
 10
4.3297929E+002
 20
9.9844759E+001
 40
1.7950953
 50
9.7580532E+001
 51
1.0847606E+002
  0
ARC
  8
104
  6
CONTINUOUS
 62
40
 10
4.3296897E+002
 20
9.9932864E+001
 40
1.7063997
 50
7.5087745E+001
 51
9.7627339E+001
  0
LINE
  8
104
  6
CONTINUOUS
 62
40
 10
4.3340809E+002
 20
1.0158179E+002
 11
4.5423048E+002
 21
9.6002448E+001
  0
ARC
  8
104
  6
CONTINUOUS
 62
40
 10
4.5435988E+002
 20
9.6485409E+001
 40
4.999964E-001
 50
2.5500056E+002
 51
3.4500117E+002
  0
LINE
  8
104
  6
CONTINUOUS
 62
40
 10
4.5484284E+002
 20
9.635601E+001
 11
4.5582847E+002
 21
9.9234412E+001
  0
ARC
  8
104
  6
CONTINUOUS
 62
40
 10
4.5776031E+002
 20
9.871675E+001
 40
1.9999927
 50
8.9999506E+001
 51
1.6499924E+002
  0
LINE
  8
104
  6
CONTINUOUS
 62
40
 10
4.5776033E+002
 20
1.0071674E+002
 11
4.6093992E+002
 21
1.0071674E+002
  0
LINE
  8
104
  6
CONTINUOUS
 62
40
 10
4.6093992E+002
 20
1.0071674E+002
 11
4.6093992E+002
 21
9.9716773E+001
  0
LINE
  8
106
  6
CENTERLINE
 62
1
 10
4.2993989E+002
 20
1.0355985E+002
 11
4.2993989E+002
 21
9.8057242E+001
  0
LINE
  8
106
  6
CENTERLINE
 62
1
 10
4.2637596E+002
 20
1.0151678E+002
 11
4.3301801E+002
 21
1.0151678E+002
  0
LINE
  8
99
  6
CONTINUOUS
 62
1
 10
4.593249E+002
 20
9.8116767E+001
 11
4.593249E+002
 21
9.7516761E+001
  0
LINE
  8
99
  6
CONTINUOUS
 62
1
 10
4.593249E+002
 20
8.9986762E+001
 11
4.593249E+002
 21
8.941677E+001
  0
LINE
  8
99
  6
CONTINUOUS
 62
1
 10
4.8155488E+002
 20
8.9386756E+001
 11
4.8155488E+002
 21
8.9986747E+001
  0
LINE
  8
99
  6
CONTINUOUS
 62
1
 10
4.8155488E+002
 20
9.7516761E+001
 11
4.8155488E+002
 21
9.8116767E+001
  0
INSERT
  2
*XH40
  8
108
 10
4.589556E+002
 20
9.5043619E+001
  0
INSERT
  2
*XH41
  8
108
 10
4.6243854E+002
 20
9.2897744E+001
  0
INSERT
  2
*XH42
  8
108
 10
4.8176904E+002
 20
9.5229643E+001
  0
INSERT
  2
*XH43
  8
108
 10
4.7910406E+002
 20
9.2778519E+001
  0
LINE
  8
106
  6
CENTERLINE
 62
1
 10
4.8020988E+002
 20
9.5483375E+001
 11
4.8020988E+002
 21
9.2559089E+001
  0
LINE
  8
106
  6
CENTERLINE
 62
1
 10
4.784113E+002
 20
9.4021232E+001
 11
4.8187275E+002
 21
9.4021232E+001
  0
LINE
  8
106
  6
CENTERLINE
 62
1
 10
4.606699E+002
 20
9.5548652E+001
 11
4.606699E+002
 21
9.2350211E+001
  0
LINE
  8
106
  6
CENTERLINE
 62
1
 10
4.5902717E+002
 20
9.4021232E+001
 11
4.6233189E+002
 21
9.4021232E+001
  0
LINE
  8
99
  6
CONTINUOUS
 62
1
 10
4.6408988E+002
 20
9.6516761E+001
 11
4.6408988E+002
 21
9.3956779E+001
  0
ARC
  8
99
  6
CONTINUOUS
 62
1
 10
4.6051987E+002
 20
9.3956783E+001
 40
3.5700116
 50
2.7000056E+002
 51
3.5999994E+002
  0
LINE
  8
99
  6
CONTINUOUS
 62
1
 10
4.6051991E+002
 20
9.0386771E+001
 11
4.5881819E+002
 21
9.0386771E+001
  0
LINE
  8
99
  6
CONTINUOUS
 62
1
 10
4.5881819E+002
 20
9.0386771E+001
 11
4.5881819E+002
 21
9.1386771E+001
  0
LINE
  8
99
  6
CONTINUOUS
 62
1
 10
4.5881819E+002
 20
9.1386771E+001
 11
4.6051988E+002
 21
9.1386771E+001
  0
ARC
  8
99
  6
CONTINUOUS
 62
1
 10
4.6051986E+002
 20
9.3956796E+001
 40
2.5700254
 50
2.7000041E+002
 51
3.5999961E+002
  0
LINE
  8
99
  6
CONTINUOUS
 62
1
 10
4.6308988E+002
 20
9.3956779E+001
 11
4.6308988E+002
 21
9.6516761E+001
  0
LINE
  8
99
  6
CONTINUOUS
 62
1
 10
4.6308988E+002
 20
9.6516761E+001
 11
4.5874989E+002
 21
9.6516761E+001
  0
ARC
  8
99
  6
CONTINUOUS
 62
1
 10
4.5874987E+002
 20
9.6016775E+001
 40
4.9998563E-001
 50
8.9998353E+001
 51
1.8000165E+002
  0
LINE
  8
99
  6
CONTINUOUS
 62
1
 10
4.5824989E+002
 20
9.6016761E+001
 11
4.5824989E+002
 21
9.0386771E+001
  0
LINE
  8
99
  6
CONTINUOUS
 62
1
 10
4.6258006E+002
 20
9.7516761E+001
 11
4.6308988E+002
 21
9.7016761E+001
  0
LINE
  8
99
  6
CONTINUOUS
 62
1
 10
4.6308988E+002
 20
9.7016761E+001
 11
4.6308988E+002
 21
9.6516761E+001
  0
LINE
  8
99
  6
CONTINUOUS
 62
1
 10
4.777899E+002
 20
9.7016761E+001
 11
4.777899E+002
 21
9.6516761E+001
  0
LINE
  8
99
  6
CONTINUOUS
 62
1
 10
4.767899E+002
 20
9.6516761E+001
 11
4.767899E+002
 21
9.3956779E+001
  0
ARC
  8
99
  6
CONTINUOUS
 62
1
 10
4.8035993E+002
 20
9.3956793E+001
 40
3.5700367
 50
1.8000022E+002
 51
2.6999954E+002
  0
LINE
  8
99
  6
CONTINUOUS
 62
1
 10
4.803599E+002
 20
9.0386756E+001
 11
4.8262989E+002
 21
9.0386756E+001
  0
LINE
  8
99
  6
CONTINUOUS
 62
1
 10
4.777899E+002
 20
9.6516761E+001
 11
4.8212989E+002
 21
9.6516761E+001
  0
ARC
  8
99
  6
CONTINUOUS
 62
1
 10
4.821299E+002
 20
9.6016796E+001
 40
4.9996509E-001
 50
3.59996E+002
 51
4.5000045E+002
  0
LINE
  8
99
  6
CONTINUOUS
 62
1
 10
4.8262986E+002
 20
9.6016761E+001
 11
4.8262986E+002
 21
9.0386756E+001
  0
CIRCLE
  8
99
  6
CONTINUOUS
 62
1
 10
4.606699E+002
 20
9.4021232E+001
 40
2.399994
  0
CIRCLE
  8
99
  6
CONTINUOUS
 62
1
 10
4.8020988E+002
 20
9.4021232E+001
 40
2.399994
  0
LINE
  8
99
  6
CONTINUOUS
 62
1
 10
4.777899E+002
 20
9.6516761E+001
 11
4.777899E+002
 21
9.3956763E+001
  0
ARC
  8
99
  6
CONTINUOUS
 62
1
 10
4.8035993E+002
 20
9.3956795E+001
 40
2.5700386
 50
1.800007E+002
 51
2.6999932E+002
  0
LINE
  8
99
  6
CONTINUOUS
 62
1
 10
4.803599E+002
 20
9.1386756E+001
 11
4.820948E+002
 21
9.1386756E+001
  0
LINE
  8
99
  6
CONTINUOUS
 62
1
 10
4.820948E+002
 20
9.1386756E+001
 11
4.820948E+002
 21
9.0386771E+001
  0
LINE
  8
99
  6
CONTINUOUS
 62
1
 10
4.777899E+002
 20
9.6516761E+001
 11
4.7554286E+002
 21
9.6516761E+001
  0
LINE
  8
99
  6
CONTINUOUS
 62
1
 10
4.6533699E+002
 20
9.6516761E+001
 11
4.6308988E+002
 21
9.6516761E+001
  0
LINE
  8
99
  6
CONTINUOUS
 62
1
 10
4.777899E+002
 20
9.7016761E+001
 11
4.7458601E+002
 21
9.7016761E+001
  0
LINE
  8
99
  6
CONTINUOUS
 62
1
 10
4.6629383E+002
 20
9.7016761E+001
 11
4.6308988E+002
 21
9.7016761E+001
  0
LINE
  8
99
  6
CONTINUOUS
 62
1
 10
4.7828068E+002
 20
9.7516761E+001
 11
4.777899E+002
 21
9.7016761E+001
  0
LINE
  8
99
  6
CONTINUOUS
 62
1
 10
4.5724989E+002
 20
9.0386771E+001
 11
4.6051991E+002
 21
9.0386771E+001
  0
LINE
  8
99
  6
CONTINUOUS
 62
1
 10
4.8043989E+002
 20
9.0386771E+001
 11
4.8362989E+002
 21
9.0386771E+001
  0
LINE
  8
99
  6
CONTINUOUS
 62
1
 10
4.7323994E+002
 20
9.7516746E+001
 11
4.8312989E+002
 21
9.7516746E+001
  0
ARC
  8
99
  6
CONTINUOUS
 62
1
 10
4.8312992E+002
 20
9.7016769E+001
 40
4.9997709E-001
 50
3.5999909E+002
 51
4.5000263E+002
  0
LINE
  8
99
  6
CONTINUOUS
 62
1
 10
4.8362989E+002
 20
9.7016761E+001
 11
4.8362989E+002
 21
9.0186759E+001
  0
ARC
  8
99
  6
CONTINUOUS
 62
1
 10
4.8342989E+002
 20
9.0186761E+001
 40
1.9999903E-001
 50
2.69996E+002
 51
3.5999942E+002
  0
LINE
  8
99
  6
CONTINUOUS
 62
1
 10
4.8342988E+002
 20
8.9986762E+001
 11
4.8043989E+002
 21
8.9986762E+001
  0
LINE
  8
99
  6
CONTINUOUS
 62
1
 10
4.6043989E+002
 20
8.9986762E+001
 11
4.5744987E+002
 21
8.9986762E+001
  0
ARC
  8
99
  6
CONTINUOUS
 62
1
 10
4.5744988E+002
 20
9.0186751E+001
 40
1.99989E-001
 50
1.7999771E+002
 51
2.6999771E+002
  0
LINE
  8
99
  6
CONTINUOUS
 62
1
 10
4.5724989E+002
 20
9.0186759E+001
 11
4.5724989E+002
 21
9.7016761E+001
  0
ARC
  8
99
  6
CONTINUOUS
 62
1
 10
4.5774988E+002
 20
9.7016759E+001
 40
4.9998702E-001
 50
8.9998512E+001
 51
1.7999977E+002
  0
LINE
  8
99
  6
CONTINUOUS
 62
1
 10
4.5774989E+002
 20
9.7516746E+001
 11
4.676399E+002
 21
9.7516746E+001
  0
LINE
  8
106
  6
CENTERLINE
 62
1
 10
4.7043989E+002
 20
9.9034293E+001
 11
4.7043989E+002
 21
8.8499015E+001
  0
LINE
  8
104
  6
CONTINUOUS
 62
40
 10
4.8043989E+002
 20
8.9386771E+001
 11
4.8372987E+002
 21
8.9386771E+001
  0
ARC
  8
104
  6
CONTINUOUS
 62
40
 10
4.8372988E+002
 20
8.9886762E+001
 40
4.9999099E-001
 50
2.6999897E+002
 51
3.5999931E+002
  0
LINE
  8
104
  6
CONTINUOUS
 62
40
 10
4.8422987E+002
 20
8.9886756E+001
 11
4.8422987E+002
 21
9.7116767E+001
  0
ARC
  8
104
  6
CONTINUOUS
 62
40
 10
4.8322986E+002
 20
9.711676E+001
 40
1.0000075
 50
4.297168E-004
 51
8.999957E+001
  0
LINE
  8
104
  6
CONTINUOUS
 62
40
 10
4.8322987E+002
 20
9.8116767E+001
 11
4.5764988E+002
 21
9.8116767E+001
  0
ARC
  8
104
  6
CONTINUOUS
 62
40
 10
4.5764987E+002
 20
9.7116777E+001
 40
9.9998989E-001
 50
8.9999421E+001
 51
1.8000058E+002
  0
LINE
  8
104
  6
CONTINUOUS
 62
40
 10
4.5664988E+002
 20
9.7116767E+001
 11
4.5664988E+002
 21
8.9886771E+001
  0
ARC
  8
104
  6
CONTINUOUS
 62
40
 10
4.5714989E+002
 20
8.9886775E+001
 40
5.0000352E-001
 50
1.800004E+002
 51
2.699996E+002
  0
LINE
  8
104
  6
CONTINUOUS
 62
40
 10
4.5714988E+002
 20
8.9386771E+001
 11
4.6043989E+002
 21
8.9386771E+001
  0
LINE
  8
104
  6
CONTINUOUS
 62
40
 10
4.2043992E+002
 20
9.8116767E+001
 11
4.4247608E+002
 21
9.8116767E+001
  0
LINE
  8
104
  6
CONTINUOUS
 62
40
 10
4.4633979E+002
 20
9.8116767E+001
 11
4.5544578E+002
 21
9.8116767E+001
  0
LINE
  8
104
  6
CONTINUOUS
 62
40
 10
4.5650034E+002
 20
9.8116767E+001
 11
4.5793989E+002
 21
9.8116767E+001
  0
CIRCLE
  8
99
  6
CONTINUOUS
 62
1
 10
4.2993992E+002
 20
1.0151678E+002
 40
1.5
  0
CIRCLE
  8
104
  6
CONTINUOUS
 62
40
 10
4.2993992E+002
 20
1.0151678E+002
 40
1.700012
  0
LINE
  8
106
  6
CENTERLINE
 62
1
 10
4.2993992E+002
 20
1.03922E+002
 11
4.2993992E+002
 21
9.9209205E+001
  0
LINE
  8
106
  6
CENTERLINE
 62
1
 10
4.2759626E+002
 20
1.0151678E+002
 11
4.3241618E+002
 21
1.0151678E+002
  0
INSERT
  2
*XH44
  8
108
 10
4.7609057E+002
 20
1.0007773E+002
  0
INSERT
  2
*XH45
  8
108
 10
4.2324746E+002
 20
9.9846229E+001
  0
LINE
  8
104
  6
CONTINUOUS
 62
40
 10
4.6193989E+002
 20
1.0491677E+002
 11
4.6193989E+002
 21
9.9716758E+001
  0
LINE
  8
104
  6
CONTINUOUS
 62
40
 10
4.6193989E+002
 20
9.9716758E+001
 11
4.5793989E+002
 21
9.9716758E+001
  0
LINE
  8
104
  6
CONTINUOUS
 62
40
 10
4.5793989E+002
 20
9.9716758E+001
 11
4.5793989E+002
 21
9.8116767E+001
  0
LINE
  8
104
  6
CONTINUOUS
 62
40
 10
4.2043992E+002
 20
1.0151676E+002
 11
4.2593992E+002
 21
1.0151676E+002
  0
LINE
  8
104
  6
CONTINUOUS
 62
40
 10
4.2593992E+002
 20
1.0151676E+002
 11
4.2593992E+002
 21
9.8116767E+001
  0
LINE
  8
104
  6
CONTINUOUS
 62
40
 10
4.6043989E+002
 20
8.941677E+001
 11
4.3121101E+002
 21
8.941677E+001
  0
ARC
  8
104
  6
CONTINUOUS
 62
40
 10
4.3121097E+002
 20
9.4416661E+001
 40
4.9998914
 50
2.2499955E+002
 51
2.7000043E+002
  0
LINE
  8
104
  6
CONTINUOUS
 62
40
 10
4.2767549E+002
 20
9.0881232E+001
 11
4.2043992E+002
 21
9.8116767E+001
  0
LINE
  8
104
  6
CONTINUOUS
 62
40
 10
4.8608988E+002
 20
8.9416755E+001
 11
4.8723594E+002
 21
8.9416755E+001
  0
LINE
  8
104
  6
CONTINUOUS
 62
40
 10
4.8723594E+002
 20
8.9416755E+001
 11
4.8730052E+002
 21
9.7541572E+001
  0
ARC
  8
104
  6
CONTINUOUS
 62
40
 10
4.897974E+002
 20
9.7416758E+001
 40
2.4999966
 50
8.9999794E+001
 51
1.7713829E+002
  0
LINE
  8
104
  6
CONTINUOUS
 62
40
 10
4.8883988E+002
 20
9.991677E+001
 11
5.0903993E+002
 21
9.991677E+001
  0
LINE
  8
99
  6
CONTINUOUS
 62
1
 10
5.1748994E+002
 20
9.991677E+001
 11
5.2498991E+002
 21
9.991677E+001
  0
LINE
  8
104
  6
CONTINUOUS
 62
40
 10
5.3333991E+002
 20
9.991677E+001
 11
5.5353993E+002
 21
9.991677E+001
  0
LINE
  8
106
  6
CENTERLINE
 62
1
 10
5.2123991E+002
 20
1.0641805E+002
 11
5.2123991E+002
 21
9.8767936E+001
  0
LINE
  8
106
  6
CENTERLINE
 62
1
 10
4.7043989E+002
 20
1.0850686E+002
 11
4.7043989E+002
 21
8.7282905E+001
  0
LINE
  8
106
  6
CENTERLINE
 62
1
 10
4.7043989E+002
 20
8.7478873E+001
 11
4.7043989E+002
 21
8.6313621E+001
  0
LINE
  8
104
  6
CONTINUOUS
 62
40
 10
5.5303993E+002
 20
1.0491677E+002
 11
5.3383991E+002
 21
1.0491677E+002
  0
LINE
  8
104
  6
CONTINUOUS
 62
40
 10
5.0853993E+002
 20
1.0491677E+002
 11
4.8933988E+002
 21
1.0491677E+002
  0
LINE
  8
104
  6
CONTINUOUS
 62
40
 10
4.7993989E+002
 20
1.0491677E+002
 11
4.7043989E+002
 21
1.0491677E+002
  0
LINE
  8
104
  6
CONTINUOUS
 62
40
 10
4.7043989E+002
 20
1.0491677E+002
 11
4.2043992E+002
 21
1.0491677E+002
  0
LINE
  8
104
  6
CONTINUOUS
 62
40
 10
4.2043992E+002
 20
1.0491677E+002
 11
4.2043992E+002
 21
9.8116767E+001
  0
LINE
  8
99
  6
CONTINUOUS
 62
1
 10
4.847274E+002
 20
8.9416755E+001
 11
4.8043989E+002
 21
8.9416755E+001
  0
LINE
  8
104
  6
CONTINUOUS
 62
40
 10
4.7993989E+002
 20
1.0491677E+002
 11
4.8933988E+002
 21
1.0491677E+002
  0
LINE
  8
104
  6
CONTINUOUS
 62
40
 10
4.8933988E+002
 20
1.0491677E+002
 11
4.892526E+002
 21
9.991677E+001
  0
LINE
  8
104
  6
CONTINUOUS
 62
40
 10
4.892526E+002
 20
9.991677E+001
 11
4.8658988E+002
 21
9.991677E+001
  0
LINE
  8
104
  6
CONTINUOUS
 62
40
 10
4.8658988E+002
 20
9.991677E+001
 11
4.8640659E+002
 21
8.9416755E+001
  0
LINE
  8
104
  6
CONTINUOUS
 62
40
 10
4.8640659E+002
 20
8.9416755E+001
 11
4.8484175E+002
 21
8.9416755E+001
  0
LINE
  8
104
  6
CONTINUOUS
 62
40
 10
4.8484175E+002
 20
8.9416755E+001
 11
4.8468989E+002
 21
9.8116767E+001
  0
LINE
  8
104
  6
CONTINUOUS
 62
40
 10
4.8468989E+002
 20
9.8116767E+001
 11
4.800586E+002
 21
9.8116767E+001
  0
LINE
  8
104
  6
CONTINUOUS
 62
40
 10
5.1798994E+002
 20
1.0491677E+002
 11
5.1790266E+002
 21
9.991677E+001
  0
LINE
  8
104
  6
CONTINUOUS
 62
40
 10
5.1790266E+002
 20
9.991677E+001
 11
5.0862718E+002
 21
9.991677E+001
  0
LINE
  8
104
  6
CONTINUOUS
 62
40
 10
5.0862718E+002
 20
9.991677E+001
 11
5.0853993E+002
 21
1.0491677E+002
  0
LINE
  8
104
  6
CONTINUOUS
 62
40
 10
5.0853993E+002
 20
1.0491677E+002
 11
5.1798994E+002
 21
1.0491677E+002
  0
INSERT
  2
*XH46
  8
108
 10
5.1255674E+002
 20
1.0201857E+002
  0
LINE
  8
104
  6
CONTINUOUS
 62
40
 10
5.3383991E+002
 20
1.0491677E+002
 11
5.3375263E+002
 21
9.991677E+001
  0
LINE
  8
104
  6
CONTINUOUS
 62
40
 10
5.3375263E+002
 20
9.991677E+001
 11
5.2457719E+002
 21
9.991677E+001
  0
LINE
  8
104
  6
CONTINUOUS
 62
40
 10
5.2457719E+002
 20
9.991677E+001
 11
5.2448991E+002
 21
1.0491675E+002
  0
LINE
  8
104
  6
CONTINUOUS
 62
40
 10
5.2448991E+002
 20
1.0491675E+002
 11
5.3383991E+002
 21
1.0491677E+002
  0
INSERT
  2
*XH47
  8
108
 10
5.2914042E+002
 20
1.0240544E+002
  0
LINE
  8
104
  6
CONTINUOUS
 62
40
 10
5.5618989E+002
 20
1.0491677E+002
 11
5.5610261E+002
 21
9.991677E+001
  0
LINE
  8
104
  6
CONTINUOUS
 62
40
 10
5.5610261E+002
 20
9.991677E+001
 11
5.5312715E+002
 21
9.991677E+001
  0
LINE
  8
104
  6
CONTINUOUS
 62
40
 10
5.5312715E+002
 20
9.991677E+001
 11
5.5303993E+002
 21
1.0491677E+002
  0
LINE
  8
104
  6
CONTINUOUS
 62
40
 10
5.5303993E+002
 20
1.0491677E+002
 11
5.5618989E+002
 21
1.0491677E+002
  0
INSERT
  2
*XH48
  8
108
 10
5.5460403E+002
 20
1.0239767E+002
  0
TEXT
  8
103
  6
CONTINUOUS
 62
40
 10
5.4005625E+002
 20
3.5265321E+001
 40
6.9999999
  1
8553
 41
6.1875E-001
 72
1
 11
5.3139375E+002
 21
3.1765321E+001
 73
2
  0
TEXT
  8
103
  6
CONTINUOUS
 62
40
 10
9.5555009E+001
 20
1.5580295E+002
 40
7.0
  1
Schwellenlager 1"
 41
6.6176473E-001
 72
1
 11
5.6180007E+001
 21
1.5230295E+002
 73
2
  0
TEXT
  8
103
  6
CONTINUOUS
 62
40
 10
6.3534421E+001
 20
1.3966582E+002
 40
7.0
  1
Art.-Nr.
 41
6.4687502E-001
 72
1
 11
4.542192E+001
 21
1.3616582E+002
 73
2
  0
TEXT
  8
103
  6
CONTINUOUS
 62
40
 10
8.8663979E+001
 20
1.4043426E+002
 40
6.9999999
  1
8555
 41
6.1875E-001
 72
1
 11
8.0001479E+001
 21
1.3693426E+002
 73
2
  0
LINE
  8
104
  6
CONTINUOUS
 62
40
 10
4.984465E+001
 20
1.8260111E+002
 11
4.984465E+001
 21
1.9460111E+002
  0
LINE
  8
104
  6
CONTINUOUS
 62
40
 10
6.2544631E+001
 20
1.8260111E+002
 11
6.2547134E+001
 21
1.9460111E+002
  0
LINE
  8
99
  6
CONTINUOUS
 62
1
 10
6.1189651E+001
 20
1.7090112E+002
 11
6.1189651E+001
 21
1.8160111E+002
  0
LINE
  8
99
  6
CONTINUOUS
 62
1
 10
6.1189651E+001
 20
1.8160111E+002
 11
6.1534103E+001
 21
1.8214324E+002
  0
LINE
  8
99
  6
CONTINUOUS
 62
1
 10
6.1534103E+001
 20
1.8214324E+002
 11
6.2169052E+001
 21
1.8248957E+002
  0
LINE
  8
99
  6
CONTINUOUS
 62
1
 10
6.2169052E+001
 20
1.8248957E+002
 11
6.2544631E+001
 21
1.8260111E+002
  0
LINE
  8
99
  6
CONTINUOUS
 62
1
 10
5.119963E+001
 20
1.8160111E+002
 11
6.1189651E+001
 21
1.8160111E+002
  0
LINE
  8
99
  6
CONTINUOUS
 62
1
 10
5.119963E+001
 20
1.7090112E+002
 11
5.119963E+001
 21
1.8160111E+002
  0
LINE
  8
99
  6
CONTINUOUS
 62
1
 10
5.119963E+001
 20
1.8160111E+002
 11
5.0974685E+001
 21
1.8204421E+002
  0
LINE
  8
99
  6
CONTINUOUS
 62
1
 10
5.0974685E+001
 20
1.8204421E+002
 11
4.984465E+001
 21
1.8260111E+002
  0
LINE
  8
104
  6
CONTINUOUS
 62
40
 10
6.2544631E+001
 20
1.8260111E+002
 11
6.2544631E+001
 21
1.7225611E+002
  0
LINE
  8
104
  6
CONTINUOUS
 62
40
 10
6.2544631E+001
 20
1.7225611E+002
 11
6.1189651E+001
 21
1.7090112E+002
  0
LINE
  8
104
  6
CONTINUOUS
 62
40
 10
6.1189651E+001
 20
1.7090112E+002
 11
5.119963E+001
 21
1.7090112E+002
  0
LINE
  8
104
  6
CONTINUOUS
 62
40
 10
5.119963E+001
 20
1.7090112E+002
 11
4.984465E+001
 21
1.7225611E+002
  0
LINE
  8
104
  6
CONTINUOUS
 62
40
 10
4.984465E+001
 20
1.7225611E+002
 11
4.984465E+001
 21
1.8260111E+002
  0
LINE
  8
99
  6
CONTINUOUS
 62
1
 10
4.984465E+001
 20
1.7225611E+002
 11
6.2544631E+001
 21
1.7225611E+002
  0
LINE
  8
104
  6
CONTINUOUS
 62
40
 10
6.6194656E+001
 20
1.9810111E+002
 11
6.6144637E+001
 21
1.9810111E+002
  0
ARC
  8
104
  6
CONTINUOUS
 62
40
 10
6.6144625E+001
 20
2.0170111E+002
 40
3.599994
 50
1.7999981E+002
 51
2.7000019E+002
  0
LINE
  8
104
  6
CONTINUOUS
 62
40
 10
6.2544631E+001
 20
2.0170112E+002
 11
6.2544631E+001
 21
2.023151E+002
  0
ARC
  8
104
  6
CONTINUOUS
 62
40
 10
6.0544582E+001
 20
2.0231508E+002
 40
2.0000489
 50
4.70042E-004
 51
5.7061183E+001
  0
ARC
  8
104
  6
CONTINUOUS
 62
40
 10
5.6194649E+001
 20
1.9560111E+002
 40
1.0000008E+001
 50
5.7061116E+001
 51
1.2293921E+002
  0
ARC
  8
104
  6
CONTINUOUS
 62
40
 10
5.1844673E+001
 20
2.0231509E+002
 40
2.000023
 50
1.2293943E+002
 51
1.799996E+002
  0
LINE
  8
104
  6
CONTINUOUS
 62
40
 10
4.984465E+001
 20
2.023151E+002
 11
4.984465E+001
 21
2.0170112E+002
  0
ARC
  8
104
  6
CONTINUOUS
 62
40
 10
4.6244651E+001
 20
2.0170111E+002
 40
3.5999989
 50
2.7000013E+002
 51
3.6000011E+002
  0
LINE
  8
104
  6
CONTINUOUS
 62
40
 10
4.6244659E+001
 20
1.9810111E+002
 11
4.6194656E+001
 21
1.9810111E+002
  0
LINE
  8
104
  6
CONTINUOUS
 62
40
 10
4.3489654E+001
 20
1.8260111E+002
 11
6.8899642E+001
 21
1.8260111E+002
  0
LINE
  8
104
  6
CONTINUOUS
 62
40
 10
6.8899642E+001
 20
1.8260111E+002
 11
6.8899642E+001
 21
1.9460111E+002
  0
LINE
  8
104
  6
CONTINUOUS
 62
40
 10
6.8899642E+001
 20
1.9460111E+002
 11
4.3489654E+001
 21
1.9460111E+002
  0
LINE
  8
104
  6
CONTINUOUS
 62
40
 10
4.3489654E+001
 20
1.9460111E+002
 11
4.3489654E+001
 21
1.8260111E+002
  0
LINE
  8
104
  6
CONTINUOUS
 62
40
 10
4.6194656E+001
 20
1.9460111E+002
 11
4.6194656E+001
 21
1.9810111E+002
  0
LINE
  8
104
  6
CONTINUOUS
 62
40
 10
4.6194656E+001
 20
1.9810111E+002
 11
6.6194656E+001
 21
1.9810111E+002
  0
LINE
  8
104
  6
CONTINUOUS
 62
40
 10
6.6194656E+001
 20
1.9810111E+002
 11
6.6194656E+001
 21
1.9460111E+002
  0
LINE
  8
106
  6
CENTERLINE
 62
1
 10
5.6194656E+001
 20
1.6316674E+002
 11
5.6194656E+001
 21
2.1190189E+002
  0
TEXT
  8
103
  6
CONTINUOUS
 62
40
 10
5.1457963E+002
 20
3.4929722E+001
 40
7.0
  1
Bodenlager mit Oberteil 57mm Art.-Nr.
 41
6.6891894E-001
 72
1
 11
4.2795463E+002
 21
3.1429722E+001
 73
2
  0
LINE
  8
99
  6
CONTINUOUS
 62
1
 10
3.5296189E+002
 20
9.991677E+001
 11
3.5296189E+002
 21
9.541677E+001
  0
ARC
  8
99
  6
CONTINUOUS
 62
1
 10
3.5346189E+002
 20
9.5416769E+001
 40
4.9999945E-001
 50
1.7999994E+002
 51
2.7000006E+002
  0
LINE
  8
99
  6
CONTINUOUS
 62
1
 10
3.5346189E+002
 20
9.491677E+001
 11
3.5696189E+002
 21
9.491677E+001
  0
LINE
  8
99
  6
CONTINUOUS
 62
1
 10
3.5696189E+002
 20
9.491677E+001
 11
3.5696189E+002
 21
9.691677E+001
  0
LINE
  8
99
  6
CONTINUOUS
 62
1
 10
3.5696189E+002
 20
9.691677E+001
 11
3.5896189E+002
 21
9.691677E+001
  0
LINE
  8
99
  6
CONTINUOUS
 62
1
 10
3.5896189E+002
 20
9.691677E+001
 11
3.5896189E+002
 21
9.491677E+001
  0
LINE
  8
99
  6
CONTINUOUS
 62
1
 10
3.5896189E+002
 20
9.491677E+001
 11
3.6246189E+002
 21
9.491677E+001
  0
ARC
  8
99
  6
CONTINUOUS
 62
1
 10
3.624619E+002
 20
9.5416795E+001
 40
5.0002545E-001
 50
2.6999936E+002
 51
3.5999708E+002
  0
LINE
  8
99
  6
CONTINUOUS
 62
1
 10
3.6296192E+002
 20
9.541677E+001
 11
3.6296192E+002
 21
9.991677E+001
  0
LINE
  8
99
  6
CONTINUOUS
 62
1
 10
3.6296192E+002
 20
9.991677E+001
 11
3.5296189E+002
 21
9.991677E+001
  0
LINE
  8
99
  6
CONTINUOUS
 62
1
 10
3.5496189E+002
 20
9.991677E+001
 11
3.5496189E+002
 21
1.1991677E+002
  0
LINE
  8
99
  6
CONTINUOUS
 62
1
 10
3.5496189E+002
 20
1.1991677E+002
 11
3.6096189E+002
 21
1.1991677E+002
  0
LINE
  8
99
  6
CONTINUOUS
 62
1
 10
3.6096189E+002
 20
1.1991677E+002
 11
3.6096189E+002
 21
9.991677E+001
  0
LINE
  8
99
  6
CONTINUOUS
 62
1
 10
3.5596189E+002
 20
1.1991677E+002
 11
3.5596189E+002
 21
9.991677E+001
  0
LINE
  8
99
  6
CONTINUOUS
 62
1
 10
3.5996189E+002
 20
9.991677E+001
 11
3.5996189E+002
 21
1.1991677E+002
  0
LINE
  8
104
  6
CONTINUOUS
 62
40
 10
3.4796189E+002
 20
8.941677E+001
 11
3.4796189E+002
 21
8.6716758E+001
  0
LINE
  8
104
  6
CONTINUOUS
 62
40
 10
3.6796189E+002
 20
8.941677E+001
 11
3.6796189E+002
 21
8.6716758E+001
  0
LINE
  8
106
  6
CENTERLINE
 62
1
 10
3.4796192E+002
 20
5.541677E+001
 11
3.4796192E+002
 21
4.4051032E+001
  0
LINE
  8
106
  6
CENTERLINE
 62
1
 10
3.6796189E+002
 20
5.541677E+001
 11
3.6796189E+002
 21
4.4871345E+001
  0
LINE
  8
104
  6
CONTINUOUS
 62
40
 10
3.4096189E+002
 20
8.941677E+001
 11
3.7496189E+002
 21
8.941677E+001
  0
LINE
  8
104
  6
CONTINUOUS
 62
40
 10
3.7496189E+002
 20
8.941677E+001
 11
3.7496189E+002
 21
1.0491677E+002
  0
LINE
  8
104
  6
CONTINUOUS
 62
40
 10
3.7496189E+002
 20
1.0491677E+002
 11
3.4096189E+002
 21
1.0491677E+002
  0
LINE
  8
104
  6
CONTINUOUS
 62
40
 10
3.4096189E+002
 20
1.0491677E+002
 11
3.4096189E+002
 21
8.941677E+001
  0
LINE
  8
104
  6
CONTINUOUS
 62
40
 10
3.4096189E+002
 20
9.991677E+001
 11
3.7496189E+002
 21
9.991677E+001
  0
LINE
  8
106
  6
CENTERLINE
 62
1
 10
3.5796189E+002
 20
1.2244945E+002
 11
3.5796189E+002
 21
3.9265876E+001
  0
LINE
  8
104
  6
CONTINUOUS
 62
40
 10
3.7596189E+002
 20
5.141677E+001
 11
3.3996189E+002
 21
5.141677E+001
  0
LINE
  8
104
  6
CONTINUOUS
 62
40
 10
3.4496192E+002
 20
5.241677E+001
 11
3.7096189E+002
 21
5.241677E+001
  0
LINE
  8
104
  6
CONTINUOUS
 62
40
 10
3.7096189E+002
 20
5.241677E+001
 11
3.6796189E+002
 21
5.2416755E+001
  0
LINE
  8
104
  6
CONTINUOUS
 62
40
 10
3.6796189E+002
 20
5.2416755E+001
 11
3.4496192E+002
 21
5.241677E+001
  0
LINE
  8
104
  6
CONTINUOUS
 62
40
 10
3.4496192E+002
 20
5.241677E+001
 11
3.4096189E+002
 21
5.241677E+001
  0
LINE
  8
104
  6
CONTINUOUS
 62
40
 10
3.4096189E+002
 20
5.241677E+001
 11
3.3996189E+002
 21
5.141677E+001
  0
LINE
  8
104
  6
CONTINUOUS
 62
40
 10
3.3996189E+002
 20
5.141677E+001
 11
3.3996189E+002
 21
4.791677E+001
  0
LINE
  8
104
  6
CONTINUOUS
 62
40
 10
3.3996189E+002
 20
4.791677E+001
 11
3.7596189E+002
 21
4.791677E+001
  0
LINE
  8
104
  6
CONTINUOUS
 62
40
 10
3.7596189E+002
 20
4.791677E+001
 11
3.7596189E+002
 21
5.141677E+001
  0
LINE
  8
104
  6
CONTINUOUS
 62
40
 10
3.7596189E+002
 20
5.141677E+001
 11
3.7496189E+002
 21
5.241677E+001
  0
LINE
  8
104
  6
CONTINUOUS
 62
40
 10
3.7496189E+002
 20
5.241677E+001
 11
3.7096189E+002
 21
5.241677E+001
  0
LINE
  8
104
  6
CONTINUOUS
 62
40
 10
3.7496189E+002
 20
5.241677E+001
 11
3.7346186E+002
 21
5.2416755E+001
  0
ARC
  8
104
  6
CONTINUOUS
 62
40
 10
3.7346182E+002
 20
5.5416741E+001
 40
2.9999866
 50
1.7999974E+002
 51
2.7000085E+002
  0
LINE
  8
104
  6
CONTINUOUS
 62
40
 10
3.7046183E+002
 20
5.5416755E+001
 11
3.7046186E+002
 21
8.6716758E+001
  0
LINE
  8
104
  6
CONTINUOUS
 62
40
 10
3.7046186E+002
 20
8.6716758E+001
 11
3.4546186E+002
 21
8.6716758E+001
  0
LINE
  8
104
  6
CONTINUOUS
 62
40
 10
3.4546186E+002
 20
8.6716758E+001
 11
3.4546186E+002
 21
5.541677E+001
  0
ARC
  8
104
  6
CONTINUOUS
 62
40
 10
3.4246185E+002
 20
5.5416781E+001
 40
3.0000109
 50
2.7000021E+002
 51
3.5999979E+002
  0
LINE
  8
104
  6
CONTINUOUS
 62
40
 10
3.4246186E+002
 20
5.241677E+001
 11
3.4096189E+002
 21
5.241677E+001
  0
TEXT
  8
103
  6
CONTINUOUS
 62
40
 10
3.515465E+002
 20
2.0708063E+002
 40
1.0E+001
  1
RTS 85 Pendeltueren
 41
6.6315789E-001
 72
1
 11
2.885465E+002
 21
2.0208063E+002
 73
2
  0
TEXT
  8
103
  6
CONTINUOUS
 62
40
 10
3.2816262E+002
 20
1.8202886E+002
 40
1.0E+001
  1
Stirnmontage
 41
6.5625E-001
 72
1
 11
2.8878762E+002
 21
1.7702886E+002
 73
2
  0
TEXT
  8
103
  6
CONTINUOUS
 62
40
 10
3.639053E+001
 20
4.0182644E+002
 40
5.0
  1
M 1:1
 41
6.3E-001
 72
1
 11
2.851553E+001
 21
3.9932644E+002
 73
2
  0
TEXT
  8
103
  6
CONTINUOUS
 62
40
 10
4.661168E+002
 20
3.1278785E+002
 40
6.9999999
  1
8534
 41
6.1875E-001
 72
1
 11
4.574543E+002
 21
3.0928785E+002
 73
2
  0
TEXT
  8
103
  6
CONTINUOUS
 62
40
 10
4.4455088E+002
 20
3.120194E+002
 40
7.0
  1
Tuerhebel mit Schiene Art.-Nr.
 41
6.6750002E-001
 72
1
 11
3.7446338E+002
 21
3.085194E+002
 73
2
  0
LINE
  8
MED-31
  6
CONTINUOUS
 62
40
 10
4.7448105E+002
 20
2.7468131E+002
 11
4.8048105E+002
 21
2.7468131E+002
  0
LINE
  8
MED-31
  6
CONTINUOUS
 62
40
 10
4.7508105E+002
 20
2.752813E+002
 11
4.7508105E+002
 21
2.7119315E+002
  0
LINE
  8
MED-31
  6
CONTINUOUS
 62
40
 10
4.7508105E+002
 20
2.6106946E+002
 11
4.7508105E+002
 21
2.5588131E+002
  0
LINE
  8
MED-31
  6
CONTINUOUS
 62
40
 10
4.7988104E+002
 20
2.752813E+002
 11
4.7988104E+002
 21
2.7113131E+002
  0
LINE
  8
MED-31
  6
CONTINUOUS
 62
40
 10
4.7988104E+002
 20
2.6113131E+002
 11
4.7988104E+002
 21
2.5588131E+002
  0
LINE
  8
MED-31
  6
CONTINUOUS
 62
40
 10
4.7448105E+002
 20
2.5588131E+002
 11
4.8048105E+002
 21
2.5588131E+002
  0
LINE
  8
MED-31
  6
CONTINUOUS
 62
40
 10
4.8048105E+002
 20
2.5588131E+002
 11
4.7448105E+002
 21
2.5588131E+002
  0
LINE
  8
MED-31
  6
CONTINUOUS
 62
40
 10
4.7928103E+002
 20
2.7588131E+002
 11
4.8048105E+002
 21
2.7468131E+002
  0
LINE
  8
MED-31
  6
CONTINUOUS
 62
40
 10
4.7448105E+002
 20
2.7468131E+002
 11
4.7568106E+002
 21
2.7588131E+002
  0
LINE
  8
MED-31
  6
CONTINUOUS
 62
40
 10
4.7448105E+002
 20
2.7468131E+002
 11
4.7448105E+002
 21
2.712347E+002
  0
LINE
  8
MED-31
  6
CONTINUOUS
 62
40
 10
4.7448105E+002
 20
2.6102791E+002
 11
4.7448105E+002
 21
2.5588131E+002
  0
LINE
  8
MED-31
  6
CONTINUOUS
 62
40
 10
4.8048105E+002
 20
2.7468131E+002
 11
4.8048105E+002
 21
2.7113131E+002
  0
LINE
  8
MED-31
  6
CONTINUOUS
 62
40
 10
4.8048105E+002
 20
2.6113131E+002
 11
4.8048105E+002
 21
2.5588131E+002
  0
LINE
  8
MED-31
  6
CONTINUOUS
 62
40
 10
4.7568106E+002
 20
2.7588131E+002
 11
4.7928103E+002
 21
2.7588131E+002
  0
ARC
  8
MED-31
  6
CONTINUOUS
 62
40
 10
4.7315092E+002
 20
2.5442114E+002
 40
2.5398294
 50
2.6999968E+002
 51
3.0463151E+002
  0
ARC
  8
MED-31
  6
CONTINUOUS
 62
40
 10
4.8181117E+002
 20
2.5442114E+002
 40
2.5398294
 50
2.3536849E+002
 51
2.7000032E+002
  0
LINE
  8
MED-31
  6
CONTINUOUS
 62
40
 10
4.745943E+002
 20
2.5588131E+002
 11
4.745943E+002
 21
2.523313E+002
  0
ARC
  8
MED-31
  6
CONTINUOUS
 62
40
 10
4.7748105E+002
 20
2.6136556E+002
 40
9.4842554
 50
2.5227957E+002
 51
2.8772044E+002
  0
LINE
  8
MED-31
  6
CONTINUOUS
 62
40
 10
4.803678E+002
 20
2.523313E+002
 11
4.803678E+002
 21
2.5588131E+002
  0
ARC
  8
MED-31
  6
CONTINUOUS
 62
40
 10
4.7315092E+002
 20
2.5442113E+002
 40
2.5398206
 50
2.3536843E+002
 51
2.6999968E+002
  0
LINE
  8
MED-31
  6
CONTINUOUS
 62
40
 10
4.8325455E+002
 20
2.5588131E+002
 11
4.7170755E+002
 21
2.5588131E+002
  0
ARC
  8
MED-31
  6
CONTINUOUS
 62
40
 10
4.8181117E+002
 20
2.5442113E+002
 40
2.5398206
 50
2.7000032E+002
 51
3.0463157E+002
  0
LINE
  8
MED-31
  6
CONTINUOUS
 62
40
 10
4.7315091E+002
 20
2.5188131E+002
 11
4.8181119E+002
 21
2.5188131E+002
  0
LINE
  8
MED-31
  6
CONTINUOUS
 62
40
 10
4.8325455E+002
 20
2.523313E+002
 11
4.8325455E+002
 21
2.5588131E+002
  0
LINE
  8
MED-31
  6
CONTINUOUS
 62
40
 10
4.7170755E+002
 20
2.5588131E+002
 11
4.7170755E+002
 21
2.523313E+002
  0
LINE
  8
MED-31
  6
CONTINUOUS
 62
40
 10
5.0098105E+002
 20
2.575813E+002
 11
5.0698105E+002
 21
2.575813E+002
  0
LINE
  8
MED-31
  6
CONTINUOUS
 62
40
 10
5.0158105E+002
 20
2.5698131E+002
 11
5.0158105E+002
 21
2.6113131E+002
  0
LINE
  8
MED-31
  6
CONTINUOUS
 62
40
 10
5.0158105E+002
 20
2.6813131E+002
 11
5.0158105E+002
 21
2.7638131E+002
  0
LINE
  8
MED-31
  6
CONTINUOUS
 62
40
 10
5.0638104E+002
 20
2.7638131E+002
 11
5.0638104E+002
 21
2.6813131E+002
  0
LINE
  8
MED-31
  6
CONTINUOUS
 62
40
 10
5.0638104E+002
 20
2.6113131E+002
 11
5.0638104E+002
 21
2.5698131E+002
  0
LINE
  8
MED-31
  6
CONTINUOUS
 62
40
 10
5.0098105E+002
 20
2.7638131E+002
 11
5.0698105E+002
 21
2.7638131E+002
  0
LINE
  8
MED-31
  6
CONTINUOUS
 62
40
 10
5.0698105E+002
 20
2.7638131E+002
 11
5.0098105E+002
 21
2.7638131E+002
  0
LINE
  8
MED-31
  6
CONTINUOUS
 62
40
 10
5.0578103E+002
 20
2.5638131E+002
 11
5.0698105E+002
 21
2.575813E+002
  0
LINE
  8
MED-31
  6
CONTINUOUS
 62
40
 10
5.0098105E+002
 20
2.575813E+002
 11
5.0218106E+002
 21
2.5638131E+002
  0
LINE
  8
MED-31
  6
CONTINUOUS
 62
40
 10
5.0098105E+002
 20
2.575813E+002
 11
5.0098105E+002
 21
2.6113131E+002
  0
LINE
  8
MED-31
  6
CONTINUOUS
 62
40
 10
5.0098105E+002
 20
2.6813131E+002
 11
5.0098105E+002
 21
2.7638131E+002
  0
LINE
  8
MED-31
  6
CONTINUOUS
 62
40
 10
5.0698105E+002
 20
2.575813E+002
 11
5.0698105E+002
 21
2.6113131E+002
  0
LINE
  8
MED-31
  6
CONTINUOUS
 62
40
 10
5.0698105E+002
 20
2.6813131E+002
 11
5.0698105E+002
 21
2.7638131E+002
  0
LINE
  8
MED-31
  6
CONTINUOUS
 62
40
 10
5.0218106E+002
 20
2.5638131E+002
 11
5.0578103E+002
 21
2.5638131E+002
  0
ARC
  8
MED-31
  6
CONTINUOUS
 62
40
 10
4.9965092E+002
 20
2.7784148E+002
 40
2.5398294
 50
5.5368487E+001
 51
9.0000319E+001
  0
ARC
  8
MED-31
  6
CONTINUOUS
 62
40
 10
5.0831117E+002
 20
2.7784148E+002
 40
2.5398294
 50
8.9999681E+001
 51
1.2463151E+002
  0
LINE
  8
MED-31
  6
CONTINUOUS
 62
40
 10
5.010943E+002
 20
2.7638131E+002
 11
5.010943E+002
 21
2.7993131E+002
  0
ARC
  8
MED-31
  6
CONTINUOUS
 62
40
 10
5.0398105E+002
 20
2.7089705E+002
 40
9.4842554
 50
7.2279563E+001
 51
1.0772043E+002
  0
LINE
  8
MED-31
  6
CONTINUOUS
 62
40
 10
5.068678E+002
 20
2.7993131E+002
 11
5.068678E+002
 21
2.7638131E+002
  0
ARC
  8
MED-31
  6
CONTINUOUS
 62
40
 10
4.9965092E+002
 20
2.7784149E+002
 40
2.5398206
 50
9.0000319E+001
 51
1.2463157E+002
  0
LINE
  8
MED-31
  6
CONTINUOUS
 62
40
 10
5.0975455E+002
 20
2.7638131E+002
 11
4.9820755E+002
 21
2.7638131E+002
  0
ARC
  8
MED-31
  6
CONTINUOUS
 62
40
 10
5.0831117E+002
 20
2.7784149E+002
 40
2.5398206
 50
5.5368425E+001
 51
8.9999681E+001
  0
LINE
  8
MED-31
  6
CONTINUOUS
 62
40
 10
4.9965091E+002
 20
2.8038131E+002
 11
5.0831119E+002
 21
2.8038131E+002
  0
LINE
  8
MED-31
  6
CONTINUOUS
 62
40
 10
5.0975455E+002
 20
2.7993131E+002
 11
5.0975455E+002
 21
2.7638131E+002
  0
LINE
  8
MED-31
  6
CONTINUOUS
 62
40
 10
4.9820755E+002
 20
2.7638131E+002
 11
4.9820755E+002
 21
2.7993131E+002
  0
TEXT
  8
103
  6
CONTINUOUS
 62
150
 10
5.0791855E+002
 20
2.7127726E+002
 40
3.5
  1
1 
 41
5.625E-001
 50
9.0E+001
 72
2
 11
5.0398105E+002
 21
2.7127726E+002
  0
LINE
  8
99
  6
CONTINUOUS
 62
1
 10
3.5336366E+002
 20
2.6838131E+002
 11
3.5567305E+002
 21
2.6838131E+002
  0
LINE
  8
99
  6
CONTINUOUS
 62
1
 10
3.5567305E+002
 20
2.6838131E+002
 11
3.5682776E+002
 21
2.6613131E+002
  0
LINE
  8
99
  6
CONTINUOUS
 62
1
 10
3.5682776E+002
 20
2.6613131E+002
 11
3.5567305E+002
 21
2.6388131E+002
  0
LINE
  8
99
  6
CONTINUOUS
 62
1
 10
3.5567305E+002
 20
2.6388131E+002
 11
3.5336366E+002
 21
2.6388131E+002
  0
LINE
  8
99
  6
CONTINUOUS
 62
1
 10
3.5336366E+002
 20
2.6388131E+002
 11
3.5220895E+002
 21
2.6613131E+002
  0
LINE
  8
99
  6
CONTINUOUS
 62
1
 10
3.5220895E+002
 20
2.6613131E+002
 11
3.5336366E+002
 21
2.6838131E+002
  0
ARC
  8
99
  6
CONTINUOUS
 62
1
 10
3.5997406E+002
 20
2.6613131E+002
 40
5.9999986
 50
3.2605299E+002
 51
3.9394701E+002
  0
CIRCLE
  8
104
  6
CONTINUOUS
 62
40
 10
3.5447409E+002
 20
2.6613131E+002
 40
6.0
  0
CIRCLE
  8
99
  6
CONTINUOUS
 62
1
 10
3.5447409E+002
 20
2.6613131E+002
 40
1.1E+001
  0
LINE
  8
104
  6
CONTINUOUS
 62
40
 10
2.8284566E+002
 20
2.8363131E+002
 11
2.7084568E+002
 21
2.8363131E+002
  0
LINE
  8
104
  6
CONTINUOUS
 62
40
 10
2.7084568E+002
 20
2.8363131E+002
 11
2.7084568E+002
 21
2.4863131E+002
  0
LINE
  8
104
  6
CONTINUOUS
 62
40
 10
2.7084568E+002
 20
2.4863131E+002
 11
2.8284566E+002
 21
2.4863131E+002
  0
LINE
  8
106
  6
CENTERLINE
 62
1
 10
4.7747406E+002
 20
2.7823375E+002
 11
4.7747406E+002
 21
2.5058336E+002
  0
LINE
  8
106
  6
CENTERLINE
 62
1
 10
5.0397406E+002
 20
2.822943E+002
 11
5.0397406E+002
 21
2.5367711E+002
  0
LINE
  8
106
  6
CENTERLINE
 62
1
 10
2.6360932E+002
 20
2.7813131E+002
 11
3.0123726E+002
 21
2.7813131E+002
  0
LINE
  8
106
  6
CENTERLINE
 62
1
 10
2.6264252E+002
 20
2.5413131E+002
 11
3.0123726E+002
 21
2.5413131E+002
  0
LINE
  8
104
  6
CONTINUOUS
 62
40
 10
2.8284566E+002
 20
2.8363131E+002
 11
2.8284566E+002
 21
2.732813E+002
  0
LINE
  8
104
  6
CONTINUOUS
 62
40
 10
2.8284566E+002
 20
2.5898131E+002
 11
2.8284566E+002
 21
2.4863131E+002
  0
LINE
  8
99
  6
CONTINUOUS
 62
1
 10
2.8284566E+002
 20
2.732813E+002
 11
2.9624566E+002
 21
2.732813E+002
  0
LINE
  8
99
  6
CONTINUOUS
 62
1
 10
2.9624566E+002
 20
2.732813E+002
 11
2.9674567E+002
 21
2.727813E+002
  0
LINE
  8
99
  6
CONTINUOUS
 62
1
 10
2.9674567E+002
 20
2.727813E+002
 11
2.9674567E+002
 21
2.5948131E+002
  0
LINE
  8
99
  6
CONTINUOUS
 62
1
 10
2.9674567E+002
 20
2.5948131E+002
 11
2.9624567E+002
 21
2.5898131E+002
  0
LINE
  8
99
  6
CONTINUOUS
 62
1
 10
2.9624567E+002
 20
2.5898131E+002
 11
2.8284566E+002
 21
2.5898131E+002
  0
LINE
  8
99
  6
CONTINUOUS
 62
1
 10
2.8284566E+002
 20
2.5898131E+002
 11
2.8284566E+002
 21
2.732813E+002
  0
LINE
  8
106
  6
CENTERLINE
 62
1
 10
2.8947408E+002
 20
2.744941E+002
 11
2.8947408E+002
 21
2.5786519E+002
  0
LINE
  8
99
  6
CONTINUOUS
 62
1
 10
3.1247407E+002
 20
2.8082662E+002
 11
3.1247407E+002
 21
2.5220943E+002
  0
LINE
  8
99
  6
CONTINUOUS
 62
1
 10
3.3720135E+002
 20
2.7771628E+002
 11
3.3720135E+002
 21
2.5414303E+002
  0
LINE
  8
99
  6
CONTINUOUS
 62
1
 10
4.4497406E+002
 20
2.7043093E+002
 11
4.4497406E+002
 21
2.6197053E+002
  0
LINE
  8
99
  6
CONTINUOUS
 62
1
 10
4.6597406E+002
 20
2.6961178E+002
 11
4.6597406E+002
 21
2.6265084E+002
  0
LINE
  8
104
  6
CONTINUOUS
 62
40
 10
2.6534568E+002
 20
2.505367E+002
 11
2.4809987E+002
 21
2.5382164E+002
  0
ARC
  8
104
  6
CONTINUOUS
 62
40
 10
2.484741E+002
 20
2.5578635E+002
 40
2.0000236
 50
1.8000069E+002
 51
2.5921567E+002
  0
LINE
  8
104
  6
CONTINUOUS
 62
40
 10
2.4647407E+002
 20
2.5578632E+002
 11
2.4647407E+002
 21
2.5768131E+002
  0
ARC
  8
104
  6
CONTINUOUS
 62
40
 10
2.4847407E+002
 20
2.576813E+002
 40
1.9999988
 50
8.9999535E+001
 51
1.7999961E+002
  0
LINE
  8
104
  6
CONTINUOUS
 62
40
 10
2.4847409E+002
 20
2.5968129E+002
 11
2.6197408E+002
 21
2.5968129E+002
  0
ARC
  8
104
  6
CONTINUOUS
 62
40
 10
2.6197406E+002
 20
2.616813E+002
 40
2.0000028
 50
2.7000054E+002
 51
3.6000035E+002
  0
LINE
  8
104
  6
CONTINUOUS
 62
40
 10
2.6397407E+002
 20
2.6168131E+002
 11
2.6397407E+002
 21
2.705813E+002
  0
ARC
  8
104
  6
CONTINUOUS
 62
40
 10
2.6197408E+002
 20
2.7058131E+002
 40
1.9999832
 50
3.5999995E+002
 51
4.5000002E+002
  0
LINE
  8
104
  6
CONTINUOUS
 62
40
 10
2.6197408E+002
 20
2.7258129E+002
 11
2.4847407E+002
 21
2.7258129E+002
  0
ARC
  8
104
  6
CONTINUOUS
 62
40
 10
2.4847408E+002
 20
2.745813E+002
 40
2.0000109
 50
1.7999988E+002
 51
2.6999969E+002
  0
LINE
  8
104
  6
CONTINUOUS
 62
40
 10
2.4647407E+002
 20
2.745813E+002
 11
2.4647407E+002
 21
2.7647631E+002
  0
ARC
  8
104
  6
CONTINUOUS
 62
40
 10
2.4847407E+002
 20
2.7647631E+002
 40
1.9999946
 50
1.0078364E+002
 51
1.8E+002
  0
LINE
  8
104
  6
CONTINUOUS
 62
40
 10
2.4809987E+002
 20
2.7844098E+002
 11
2.6534568E+002
 21
2.817259E+002
  0
LINE
  8
104
  6
CONTINUOUS
 62
40
 10
2.8284566E+002
 20
2.8363131E+002
 11
2.9547408E+002
 21
2.8363131E+002
  0
LINE
  8
104
  6
CONTINUOUS
 62
40
 10
2.9547408E+002
 20
2.8363131E+002
 11
4.7597406E+002
 21
2.7113131E+002
  0
LINE
  8
104
  6
CONTINUOUS
 62
40
 10
4.7597406E+002
 20
2.7113131E+002
 11
4.9697406E+002
 21
2.7113131E+002
  0
LINE
  8
104
  6
CONTINUOUS
 62
40
 10
4.9697406E+002
 20
2.7113131E+002
 11
4.9697406E+002
 21
2.7013131E+002
  0
LINE
  8
104
  6
CONTINUOUS
 62
40
 10
4.9697406E+002
 20
2.7013131E+002
 11
4.9697406E+002
 21
2.6813131E+002
  0
LINE
  8
104
  6
CONTINUOUS
 62
40
 10
4.9697406E+002
 20
2.6813131E+002
 11
4.9797406E+002
 21
2.6813131E+002
  0
LINE
  8
104
  6
CONTINUOUS
 62
40
 10
4.9797406E+002
 20
2.6813131E+002
 11
5.0997409E+002
 21
2.6813131E+002
  0
LINE
  8
104
  6
CONTINUOUS
 62
40
 10
5.0997409E+002
 20
2.6813131E+002
 11
5.0997409E+002
 21
2.6613131E+002
  0
LINE
  8
104
  6
CONTINUOUS
 62
40
 10
5.0997409E+002
 20
2.6613131E+002
 11
5.0997409E+002
 21
2.6313131E+002
  0
ARC
  8
104
  6
CONTINUOUS
 62
40
 10
5.0797407E+002
 20
2.6313133E+002
 40
2.0000225
 50
2.6999978E+002
 51
3.5999936E+002
  0
LINE
  8
104
  6
CONTINUOUS
 62
40
 10
5.0797406E+002
 20
2.6113131E+002
 11
4.7597406E+002
 21
2.6113131E+002
  0
LINE
  8
104
  6
CONTINUOUS
 62
40
 10
4.7597406E+002
 20
2.6113131E+002
 11
2.9547408E+002
 21
2.4863131E+002
  0
LINE
  8
104
  6
CONTINUOUS
 62
40
 10
2.9547408E+002
 20
2.4863131E+002
 11
2.8284566E+002
 21
2.4863131E+002
  0
LINE
  8
104
  6
CONTINUOUS
 62
40
 10
2.8284566E+002
 20
2.4863131E+002
 11
2.8284566E+002
 21
2.8363131E+002
  0
ARC
  8
105
  6
HIDDEN
 62
1
 10
5.0247406E+002
 20
2.6213131E+002
 40
5.4999981
 50
3.4952431E+002
 51
5.5047569E+002
  0
ARC
  8
105
  6
HIDDEN
 62
1
 10
5.0247406E+002
 20
2.6213131E+002
 40
5.5000008
 50
2.6402061E+002
 51
3.2502997E+002
  0
ARC
  8
99
  6
CONTINUOUS
 62
1
 10
5.0247406E+002
 20
2.6213131E+002
 40
5.499999
 50
1.9047567E+002
 51
2.6402062E+002
  0
ARC
  8
99
  6
CONTINUOUS
 62
1
 10
5.0247406E+002
 20
2.621313E+002
 40
5.4999999
 50
3.2503007E+002
 51
3.495244E+002
  0
ARC
  8
105
  6
HIDDEN
 62
1
 10
4.3547413E+002
 20
2.7013131E+002
 40
5.5000006
 50
1.3239946E+002
 51
3.9967737E+002
  0
ARC
  8
99
  6
CONTINUOUS
 62
1
 10
4.3547413E+002
 20
2.7013131E+002
 40
5.5000006
 50
3.9677367E+001
 51
1.3239946E+002
  0
ARC
  8
105
  6
HIDDEN
 62
1
 10
3.014741E+002
 20
2.701313E+002
 40
5.4999952
 50
2.1071549E+002
 51
5.104985E+002
  0
ARC
  8
99
  6
CONTINUOUS
 62
1
 10
3.014741E+002
 20
2.701313E+002
 40
5.4999952
 50
1.504985E+002
 51
2.1071549E+002
  0
LINE
  8
106
  6
CENTERLINE
 62
1
 10
2.8947408E+002
 20
2.7013131E+002
 11
2.8947408E+002
 21
2.6213131E+002
  0
LINE
  8
106
  6
CENTERLINE
 62
1
 10
3.014741E+002
 20
2.7734667E+002
 11
3.014741E+002
 21
2.6213131E+002
  0
LINE
  8
106
  6
CENTERLINE
 62
1
 10
3.5447409E+002
 20
2.7524949E+002
 11
3.5447409E+002
 21
2.5773337E+002
  0
LINE
  8
106
  6
CENTERLINE
 62
1
 10
3.6847409E+002
 20
2.7013131E+002
 11
3.6847409E+002
 21
2.5545151E+002
  0
LINE
  8
106
  6
CENTERLINE
 62
1
 10
4.3547412E+002
 20
2.7699053E+002
 11
4.3547412E+002
 21
2.6213131E+002
  0
LINE
  8
106
  6
CENTERLINE
 62
1
 10
5.0247406E+002
 20
2.7013131E+002
 11
5.0247406E+002
 21
2.5422487E+002
  0
LINE
  8
106
  6
CENTERLINE
 62
1
 10
2.9320251E+002
 20
2.7013131E+002
 11
3.1072835E+002
 21
2.7013131E+002
  0
LINE
  8
106
  6
CENTERLINE
 62
1
 10
3.6127997E+002
 20
2.6213131E+002
 11
3.758786E+002
 21
2.6213131E+002
  0
LINE
  8
106
  6
CENTERLINE
 62
1
 10
4.2671832E+002
 20
2.7013131E+002
 11
4.4511511E+002
 21
2.7013131E+002
  0
LINE
  8
106
  6
CENTERLINE
 62
1
 10
4.9207068E+002
 20
2.6213131E+002
 11
5.1186645E+002
 21
2.6213131E+002
  0
CIRCLE
  8
105
  6
HIDDEN
 62
1
 10
3.6847409E+002
 20
2.6213131E+002
 40
5.5
  0
CIRCLE
  8
104
  6
CONTINUOUS
 62
40
 10
2.8947408E+002
 20
2.6613131E+002
 40
2.5
  0
LINE
  8
99
  6
CONTINUOUS
 62
1
 10
2.4897409E+002
 20
2.7248131E+002
 11
2.4897409E+002
 21
2.5978132E+002
  0
LINE
  8
99
  6
CONTINUOUS
 62
1
 10
2.5197409E+002
 20
2.7248131E+002
 11
2.5197409E+002
 21
2.5978132E+002
  0
LINE
  8
99
  6
CONTINUOUS
 62
1
 10
2.5397409E+002
 20
2.7248131E+002
 11
2.5397409E+002
 21
2.5978132E+002
  0
LINE
  8
99
  6
CONTINUOUS
 62
1
 10
2.5697409E+002
 20
2.7248131E+002
 11
2.5697409E+002
 21
2.5978132E+002
  0
LINE
  8
106
  6
CENTERLINE
 62
1
 10
2.5297409E+002
 20
2.7556603E+002
 11
2.5297409E+002
 21
2.5720577E+002
  0
LINE
  8
99
  6
CONTINUOUS
 62
1
 10
4.7247406E+002
 20
2.8038131E+002
 11
5.1447406E+002
 21
2.8038131E+002
  0
LINE
  8
99
  6
CONTINUOUS
 62
1
 10
4.7247406E+002
 20
2.5188131E+002
 11
5.1447406E+002
 21
2.5188131E+002
  0
LINE
  8
99
  6
CONTINUOUS
 62
1
 10
2.4097407E+002
 20
2.6913131E+002
 11
2.4097407E+002
 21
2.6663131E+002
  0
LINE
  8
99
  6
CONTINUOUS
 62
1
 10
2.4097407E+002
 20
2.6563131E+002
 11
2.4097407E+002
 21
2.6313131E+002
  0
LINE
  8
99
  6
CONTINUOUS
 62
1
 10
2.6097407E+002
 20
2.6813131E+002
 11
2.5697409E+002
 21
2.6813131E+002
  0
LINE
  8
99
  6
CONTINUOUS
 62
1
 10
2.5397409E+002
 20
2.6813131E+002
 11
2.5197409E+002
 21
2.6813131E+002
  0
LINE
  8
99
  6
CONTINUOUS
 62
1
 10
2.4897409E+002
 20
2.6813131E+002
 11
2.3997407E+002
 21
2.6813131E+002
  0
LINE
  8
99
  6
CONTINUOUS
 62
1
 10
2.3997407E+002
 20
2.6413131E+002
 11
2.4897409E+002
 21
2.6413131E+002
  0
LINE
  8
99
  6
CONTINUOUS
 62
1
 10
2.5197409E+002
 20
2.6413131E+002
 11
2.5397409E+002
 21
2.6413131E+002
  0
LINE
  8
99
  6
CONTINUOUS
 62
1
 10
2.5697409E+002
 20
2.6413131E+002
 11
2.6097407E+002
 21
2.6413131E+002
  0
LINE
  8
104
  6
CONTINUOUS
 62
40
 10
2.6297408E+002
 20
2.6813132E+002
 11
2.6184009E+002
 21
2.6813132E+002
  0
ARC
  8
104
  6
CONTINUOUS
 62
40
 10
2.6184007E+002
 20
2.6863129E+002
 40
4.9996971E-001
 50
2.0999998E+002
 51
2.7000315E+002
  0
LINE
  8
104
  6
CONTINUOUS
 62
40
 10
2.6140708E+002
 20
2.6838131E+002
 11
2.6097407E+002
 21
2.6913131E+002
  0
LINE
  8
104
  6
CONTINUOUS
 62
40
 10
2.6097407E+002
 20
2.6913131E+002
 11
2.5697409E+002
 21
2.6913131E+002
  0
LINE
  8
104
  6
CONTINUOUS
 62
40
 10
2.5397409E+002
 20
2.6913131E+002
 11
2.5197409E+002
 21
2.6913131E+002
  0
LINE
  8
104
  6
CONTINUOUS
 62
40
 10
2.4897409E+002
 20
2.6913131E+002
 11
2.4097407E+002
 21
2.6913131E+002
  0
LINE
  8
104
  6
CONTINUOUS
 62
40
 10
2.4097407E+002
 20
2.6913131E+002
 11
2.3997407E+002
 21
2.6813131E+002
  0
LINE
  8
104
  6
CONTINUOUS
 62
40
 10
2.3997407E+002
 20
2.6813131E+002
 11
2.3997407E+002
 21
2.6663131E+002
  0
LINE
  8
104
  6
CONTINUOUS
 62
40
 10
2.3997407E+002
 20
2.6663131E+002
 11
2.4197407E+002
 21
2.6663131E+002
  0
LINE
  8
104
  6
CONTINUOUS
 62
40
 10
2.4197407E+002
 20
2.6663131E+002
 11
2.4197407E+002
 21
2.6563131E+002
  0
LINE
  8
104
  6
CONTINUOUS
 62
40
 10
2.4197407E+002
 20
2.6563131E+002
 11
2.3997408E+002
 21
2.6563131E+002
  0
LINE
  8
104
  6
CONTINUOUS
 62
40
 10
2.3997408E+002
 20
2.6563131E+002
 11
2.3997408E+002
 21
2.6413131E+002
  0
LINE
  8
104
  6
CONTINUOUS
 62
40
 10
2.3997408E+002
 20
2.6413131E+002
 11
2.4097407E+002
 21
2.6313131E+002
  0
LINE
  8
104
  6
CONTINUOUS
 62
40
 10
2.4097407E+002
 20
2.6313131E+002
 11
2.4897409E+002
 21
2.6313131E+002
  0
LINE
  8
104
  6
CONTINUOUS
 62
40
 10
2.5197409E+002
 20
2.6313131E+002
 11
2.5397409E+002
 21
2.6313131E+002
  0
LINE
  8
104
  6
CONTINUOUS
 62
40
 10
2.5697409E+002
 20
2.6313131E+002
 11
2.6097407E+002
 21
2.6313131E+002
  0
LINE
  8
104
  6
CONTINUOUS
 62
40
 10
2.6097407E+002
 20
2.6313131E+002
 11
2.6140708E+002
 21
2.6388131E+002
  0
ARC
  8
104
  6
CONTINUOUS
 62
40
 10
2.6150587E+002
 20
2.6382387E+002
 40
1.142742E-001
 50
1.4128306E+002
 51
1.4982384E+002
  0
ARC
  8
104
  6
CONTINUOUS
 62
40
 10
2.6153278E+002
 20
2.6380233E+002
 40
1.487405E-001
 50
1.3412813E+002
 51
1.4129353E+002
  0
ARC
  8
104
  6
CONTINUOUS
 62
40
 10
2.6156668E+002
 20
2.637675E+002
 40
1.9734738E-001
 50
1.2821737E+002
 51
1.3415199E+002
  0
ARC
  8
104
  6
CONTINUOUS
 62
40
 10
2.6160707E+002
 20
2.637164E+002
 40
2.6248352E-001
 50
1.2333648E+002
 51
1.2824335E+002
  0
ARC
  8
104
  6
CONTINUOUS
 62
40
 10
2.6167843E+002
 20
2.6360521E+002
 40
3.9459437E-001
 50
1.1562904E+002
 51
1.2312137E+002
  0
ARC
  8
104
  6
CONTINUOUS
 62
40
 10
2.6179096E+002
 20
2.6337384E+002
 40
6.5187877E-001
 50
1.1039146E+002
 51
1.157498E+002
  0
ARC
  8
104
  6
CONTINUOUS
 62
40
 10
2.6198521E+002
 20
2.6283632E+002
 40
1.2234034
 50
1.0307922E+002
 51
1.1014752E+002
  0
ARC
  8
104
  6
CONTINUOUS
 62
40
 10
2.6226678E+002
 20
2.6166788E+002
 40
2.4252744
 50
9.8843073E+001
 51
1.0331198E+002
  0
ARC
  8
104
  6
CONTINUOUS
 62
40
 10
2.6265288E+002
 20
2.5909688E+002
 40
5.025082
 50
9.3170378E+001
 51
9.8686498E+001
  0
ARC
  8
104
  6
CONTINUOUS
 62
40
 10
2.6294944E+002
 20
2.5445341E+002
 40
9.6779294
 50
8.9854121E+001
 51
9.3403067E+001
  0
LINE
  8
104
  6
CONTINUOUS
 62
40
 10
2.6097407E+002
 20
2.6913131E+002
 11
2.6097407E+002
 21
2.6313131E+002
  0
LINE
  8
105
  6
HIDDEN
 62
1
 10
2.8884568E+002
 20
2.5763131E+002
 11
2.8884568E+002
 21
2.5063131E+002
  0
LINE
  8
105
  6
HIDDEN
 62
1
 10
2.7084568E+002
 20
2.5763131E+002
 11
2.9484566E+002
 21
2.5763131E+002
  0
LINE
  8
105
  6
HIDDEN
 62
1
 10
2.9484566E+002
 20
2.5763131E+002
 11
2.9484566E+002
 21
2.5063131E+002
  0
LINE
  8
105
  6
HIDDEN
 62
1
 10
2.9484566E+002
 20
2.5063131E+002
 11
2.7084568E+002
 21
2.5063131E+002
  0
LINE
  8
105
  6
HIDDEN
 62
1
 10
2.7084568E+002
 20
2.5163131E+002
 11
2.9484566E+002
 21
2.5163131E+002
  0
LINE
  8
105
  6
HIDDEN
 62
1
 10
2.9484566E+002
 20
2.5663131E+002
 11
2.7084568E+002
 21
2.5663131E+002
  0
LINE
  8
104
  6
CONTINUOUS
 62
40
 10
2.6534568E+002
 20
2.5913131E+002
 11
2.6534568E+002
 21
2.4913131E+002
  0
LINE
  8
104
  6
CONTINUOUS
 62
40
 10
2.6534568E+002
 20
2.4913131E+002
 11
2.7084568E+002
 21
2.4913131E+002
  0
LINE
  8
104
  6
CONTINUOUS
 62
40
 10
2.7084568E+002
 20
2.4913131E+002
 11
2.7084568E+002
 21
2.5113131E+002
  0
LINE
  8
104
  6
CONTINUOUS
 62
40
 10
2.7084568E+002
 20
2.5113131E+002
 11
2.7084568E+002
 21
2.5713131E+002
  0
LINE
  8
104
  6
CONTINUOUS
 62
40
 10
2.7084568E+002
 20
2.5713131E+002
 11
2.7084568E+002
 21
2.5913131E+002
  0
LINE
  8
104
  6
CONTINUOUS
 62
40
 10
2.7084568E+002
 20
2.5913131E+002
 11
2.6534568E+002
 21
2.5913131E+002
  0
LINE
  8
105
  6
HIDDEN
 62
1
 10
2.8884568E+002
 20
2.8163131E+002
 11
2.8884568E+002
 21
2.7463131E+002
  0
LINE
  8
105
  6
HIDDEN
 62
1
 10
2.7084568E+002
 20
2.8163131E+002
 11
2.9484566E+002
 21
2.8163131E+002
  0
LINE
  8
105
  6
HIDDEN
 62
1
 10
2.9484566E+002
 20
2.8163131E+002
 11
2.9484566E+002
 21
2.7463131E+002
  0
LINE
  8
105
  6
HIDDEN
 62
1
 10
2.9484566E+002
 20
2.7463131E+002
 11
2.7084568E+002
 21
2.7463131E+002
  0
LINE
  8
105
  6
HIDDEN
 62
1
 10
2.7084568E+002
 20
2.7563131E+002
 11
2.9484566E+002
 21
2.7563131E+002
  0
LINE
  8
105
  6
HIDDEN
 62
1
 10
2.9484566E+002
 20
2.8063131E+002
 11
2.7084568E+002
 21
2.8063131E+002
  0
LINE
  8
104
  6
CONTINUOUS
 62
40
 10
2.6534568E+002
 20
2.8313131E+002
 11
2.6534568E+002
 21
2.7313131E+002
  0
LINE
  8
104
  6
CONTINUOUS
 62
40
 10
2.6534568E+002
 20
2.7313131E+002
 11
2.7084568E+002
 21
2.7313131E+002
  0
LINE
  8
104
  6
CONTINUOUS
 62
40
 10
2.7084568E+002
 20
2.7313131E+002
 11
2.7084568E+002
 21
2.7513131E+002
  0
LINE
  8
104
  6
CONTINUOUS
 62
40
 10
2.7084568E+002
 20
2.7513131E+002
 11
2.7084568E+002
 21
2.8113131E+002
  0
LINE
  8
104
  6
CONTINUOUS
 62
40
 10
2.7084568E+002
 20
2.8113131E+002
 11
2.7084568E+002
 21
2.8313131E+002
  0
LINE
  8
104
  6
CONTINUOUS
 62
40
 10
2.7084568E+002
 20
2.8313131E+002
 11
2.6534568E+002
 21
2.8313131E+002
  0
ARC
  8
99
  6
CONTINUOUS
 62
1
 10
3.5997406E+002
 20
2.6613131E+002
 40
5.9999986
 50
3.2605299E+002
 51
3.9394701E+002
  0
CIRCLE
  8
99
  6
CONTINUOUS
 62
1
 10
3.5447409E+002
 20
2.6613131E+002
 40
6.0
  0
CIRCLE
  8
104
  6
CONTINUOUS
 62
40
 10
3.5447409E+002
 20
2.6613131E+002
 40
1.1E+001
  0
LINE
  8
99
  6
CONTINUOUS
 62
1
 10
2.8284566E+002
 20
2.8363131E+002
 11
2.7084568E+002
 21
2.8363131E+002
  0
LINE
  8
99
  6
CONTINUOUS
 62
1
 10
2.7084568E+002
 20
2.8363131E+002
 11
2.7084568E+002
 21
2.4863131E+002
  0
LINE
  8
99
  6
CONTINUOUS
 62
1
 10
2.7084568E+002
 20
2.4863131E+002
 11
2.8284566E+002
 21
2.4863131E+002
  0
LINE
  8
99
  6
CONTINUOUS
 62
1
 10
2.8284566E+002
 20
2.8363131E+002
 11
2.8284566E+002
 21
2.732813E+002
  0
LINE
  8
99
  6
CONTINUOUS
 62
1
 10
2.8284566E+002
 20
2.5898131E+002
 11
2.8284566E+002
 21
2.4863131E+002
  0
LINE
  8
104
  6
CONTINUOUS
 62
40
 10
2.8284566E+002
 20
2.732813E+002
 11
2.9624566E+002
 21
2.732813E+002
  0
LINE
  8
104
  6
CONTINUOUS
 62
40
 10
2.9624566E+002
 20
2.732813E+002
 11
2.9674567E+002
 21
2.727813E+002
  0
LINE
  8
104
  6
CONTINUOUS
 62
40
 10
2.9674567E+002
 20
2.727813E+002
 11
2.9674567E+002
 21
2.5948131E+002
  0
LINE
  8
104
  6
CONTINUOUS
 62
40
 10
2.9674567E+002
 20
2.5948131E+002
 11
2.9624567E+002
 21
2.5898131E+002
  0
LINE
  8
104
  6
CONTINUOUS
 62
40
 10
2.9624567E+002
 20
2.5898131E+002
 11
2.8284566E+002
 21
2.5898131E+002
  0
LINE
  8
104
  6
CONTINUOUS
 62
40
 10
2.8284566E+002
 20
2.5898131E+002
 11
2.8284566E+002
 21
2.732813E+002
  0
LINE
  8
106
  6
CENTERLINE
 62
1
 10
2.8947408E+002
 20
2.744941E+002
 11
2.8947408E+002
 21
2.5786519E+002
  0
LINE
  8
99
  6
CONTINUOUS
 62
1
 10
3.1247407E+002
 20
2.8082662E+002
 11
3.1247407E+002
 21
2.5220943E+002
  0
LINE
  8
99
  6
CONTINUOUS
 62
1
 10
3.3720135E+002
 20
2.7771628E+002
 11
3.3720135E+002
 21
2.5414303E+002
  0
LINE
  8
99
  6
CONTINUOUS
 62
1
 10
4.4497406E+002
 20
2.7043093E+002
 11
4.4497406E+002
 21
2.6197053E+002
  0
LINE
  8
99
  6
CONTINUOUS
 62
1
 10
4.6597406E+002
 20
2.6961178E+002
 11
4.6597406E+002
 21
2.6265084E+002
  0
LINE
  8
104
  6
CONTINUOUS
 62
40
 10
2.6534568E+002
 20
2.505367E+002
 11
2.4809987E+002
 21
2.5382164E+002
  0
ARC
  8
104
  6
CONTINUOUS
 62
40
 10
2.484741E+002
 20
2.5578635E+002
 40
2.0000236
 50
1.8000069E+002
 51
2.5921567E+002
  0
LINE
  8
104
  6
CONTINUOUS
 62
40
 10
2.4647407E+002
 20
2.5578632E+002
 11
2.4647407E+002
 21
2.5768131E+002
  0
ARC
  8
104
  6
CONTINUOUS
 62
40
 10
2.4847407E+002
 20
2.576813E+002
 40
1.9999988
 50
8.9999535E+001
 51
1.7999961E+002
  0
LINE
  8
104
  6
CONTINUOUS
 62
40
 10
2.4847409E+002
 20
2.5968129E+002
 11
2.6197408E+002
 21
2.5968129E+002
  0
ARC
  8
104
  6
CONTINUOUS
 62
40
 10
2.6197406E+002
 20
2.616813E+002
 40
2.0000028
 50
2.7000054E+002
 51
3.6000035E+002
  0
LINE
  8
104
  6
CONTINUOUS
 62
40
 10
2.6397407E+002
 20
2.6168131E+002
 11
2.6397407E+002
 21
2.705813E+002
  0
ARC
  8
104
  6
CONTINUOUS
 62
40
 10
2.6197408E+002
 20
2.7058131E+002
 40
1.9999832
 50
3.5999995E+002
 51
4.5000002E+002
  0
LINE
  8
104
  6
CONTINUOUS
 62
40
 10
2.6197408E+002
 20
2.7258129E+002
 11
2.4847407E+002
 21
2.7258129E+002
  0
ARC
  8
104
  6
CONTINUOUS
 62
40
 10
2.4847408E+002
 20
2.745813E+002
 40
2.0000109
 50
1.7999988E+002
 51
2.6999969E+002
  0
LINE
  8
104
  6
CONTINUOUS
 62
40
 10
2.4647407E+002
 20
2.745813E+002
 11
2.4647407E+002
 21
2.7647631E+002
  0
ARC
  8
104
  6
CONTINUOUS
 62
40
 10
2.4847407E+002
 20
2.7647631E+002
 40
1.9999946
 50
1.0078364E+002
 51
1.8E+002
  0
LINE
  8
104
  6
CONTINUOUS
 62
40
 10
2.4809987E+002
 20
2.7844098E+002
 11
2.6534568E+002
 21
2.817259E+002
  0
LINE
  8
104
  6
CONTINUOUS
 62
40
 10
2.8284566E+002
 20
2.8363131E+002
 11
2.9547408E+002
 21
2.8363131E+002
  0
LINE
  8
104
  6
CONTINUOUS
 62
40
 10
2.9547408E+002
 20
2.8363131E+002
 11
4.7597406E+002
 21
2.7113131E+002
  0
LINE
  8
104
  6
CONTINUOUS
 62
40
 10
4.7597406E+002
 20
2.7113131E+002
 11
4.9697406E+002
 21
2.7113131E+002
  0
LINE
  8
104
  6
CONTINUOUS
 62
40
 10
4.9697406E+002
 20
2.7113131E+002
 11
4.9697406E+002
 21
2.7013131E+002
  0
LINE
  8
104
  6
CONTINUOUS
 62
40
 10
4.9697406E+002
 20
2.7013131E+002
 11
4.9697406E+002
 21
2.6813131E+002
  0
LINE
  8
104
  6
CONTINUOUS
 62
40
 10
4.9697406E+002
 20
2.6813131E+002
 11
4.9797406E+002
 21
2.6813131E+002
  0
LINE
  8
104
  6
CONTINUOUS
 62
40
 10
4.9797406E+002
 20
2.6813131E+002
 11
5.0997409E+002
 21
2.6813131E+002
  0
LINE
  8
104
  6
CONTINUOUS
 62
40
 10
5.0997409E+002
 20
2.6813131E+002
 11
5.0997409E+002
 21
2.6613131E+002
  0
LINE
  8
104
  6
CONTINUOUS
 62
40
 10
5.0997409E+002
 20
2.6613131E+002
 11
5.0997409E+002
 21
2.6313131E+002
  0
ARC
  8
104
  6
CONTINUOUS
 62
40
 10
5.0797407E+002
 20
2.6313133E+002
 40
2.0000225
 50
2.6999978E+002
 51
3.5999936E+002
  0
LINE
  8
104
  6
CONTINUOUS
 62
40
 10
5.0797406E+002
 20
2.6113131E+002
 11
4.7597406E+002
 21
2.6113131E+002
  0
LINE
  8
104
  6
CONTINUOUS
 62
40
 10
4.7597406E+002
 20
2.6113131E+002
 11
2.9547408E+002
 21
2.4863131E+002
  0
LINE
  8
104
  6
CONTINUOUS
 62
40
 10
2.9547408E+002
 20
2.4863131E+002
 11
2.8284566E+002
 21
2.4863131E+002
  0
LINE
  8
104
  6
CONTINUOUS
 62
40
 10
2.8284566E+002
 20
2.4863131E+002
 11
2.8284566E+002
 21
2.8363131E+002
  0
LINE
  8
106
  6
CENTERLINE
 62
1
 10
2.3827925E+002
 20
2.6613131E+002
 11
5.1369672E+002
 21
2.6613131E+002
  0
ARC
  8
99
  6
CONTINUOUS
 62
1
 10
5.0247407E+002
 20
2.621313E+002
 40
3.249993
 50
1.9792004E+002
 51
2.426521E+002
  0
ARC
  8
105
  6
HIDDEN
 62
1
 10
4.3547413E+002
 20
2.7013131E+002
 40
5.5000006
 50
1.3239946E+002
 51
3.9967737E+002
  0
ARC
  8
99
  6
CONTINUOUS
 62
1
 10
4.3547413E+002
 20
2.7013131E+002
 40
5.5000006
 50
3.9677367E+001
 51
1.3239946E+002
  0
ARC
  8
105
  6
HIDDEN
 62
1
 10
3.014741E+002
 20
2.701313E+002
 40
5.4999952
 50
2.1071549E+002
 51
5.104985E+002
  0
ARC
  8
99
  6
CONTINUOUS
 62
1
 10
3.014741E+002
 20
2.701313E+002
 40
5.4999952
 50
1.504985E+002
 51
2.1071549E+002
  0
LINE
  8
106
  6
CENTERLINE
 62
1
 10
2.8947408E+002
 20
2.7013131E+002
 11
2.8947408E+002
 21
2.6213131E+002
  0
LINE
  8
106
  6
CENTERLINE
 62
1
 10
3.014741E+002
 20
2.7734667E+002
 11
3.014741E+002
 21
2.6213131E+002
  0
LINE
  8
106
  6
CENTERLINE
 62
1
 10
3.5447409E+002
 20
2.7524949E+002
 11
3.5447409E+002
 21
2.5773337E+002
  0
LINE
  8
106
  6
CENTERLINE
 62
1
 10
3.6847409E+002
 20
2.7013131E+002
 11
3.6847409E+002
 21
2.5545151E+002
  0
LINE
  8
106
  6
CENTERLINE
 62
1
 10
4.3547412E+002
 20
2.7699053E+002
 11
4.3547412E+002
 21
2.6213131E+002
  0
LINE
  8
106
  6
CENTERLINE
 62
1
 10
5.0247406E+002
 20
2.7013131E+002
 11
5.0247406E+002
 21
2.5422487E+002
  0
LINE
  8
106
  6
CENTERLINE
 62
1
 10
2.9320251E+002
 20
2.7013131E+002
 11
3.1072835E+002
 21
2.7013131E+002
  0
LINE
  8
106
  6
CENTERLINE
 62
1
 10
3.6127997E+002
 20
2.6213131E+002
 11
3.758786E+002
 21
2.6213131E+002
  0
LINE
  8
106
  6
CENTERLINE
 62
1
 10
4.2671832E+002
 20
2.7013131E+002
 11
4.4511511E+002
 21
2.7013131E+002
  0
LINE
  8
106
  6
CENTERLINE
 62
1
 10
4.9207068E+002
 20
2.6213131E+002
 11
5.1186645E+002
 21
2.6213131E+002
  0
CIRCLE
  8
105
  6
HIDDEN
 62
1
 10
3.6847409E+002
 20
2.6213131E+002
 40
5.5
  0
CIRCLE
  8
99
  6
CONTINUOUS
 62
1
 10
2.8947408E+002
 20
2.6613131E+002
 40
2.5
  0
LINE
  8
104
  6
CONTINUOUS
 62
40
 10
2.4897409E+002
 20
2.7248131E+002
 11
2.4897409E+002
 21
2.5978132E+002
  0
LINE
  8
104
  6
CONTINUOUS
 62
40
 10
2.5197409E+002
 20
2.7248131E+002
 11
2.5197409E+002
 21
2.5978132E+002
  0
LINE
  8
104
  6
CONTINUOUS
 62
40
 10
2.5397409E+002
 20
2.7248131E+002
 11
2.5397409E+002
 21
2.5978132E+002
  0
LINE
  8
104
  6
CONTINUOUS
 62
40
 10
2.5697409E+002
 20
2.7248131E+002
 11
2.5697409E+002
 21
2.5978132E+002
  0
LINE
  8
106
  6
CENTERLINE
 62
1
 10
2.5297409E+002
 20
2.7556603E+002
 11
2.5297409E+002
 21
2.5720577E+002
  0
LINE
  8
104
  6
CONTINUOUS
 62
40
 10
2.4909906E+002
 20
2.7863131E+002
 11
2.4547407E+002
 21
2.7863131E+002
  0
ARC
  8
104
  6
CONTINUOUS
 62
40
 10
2.4547408E+002
 20
2.7613131E+002
 40
2.5000006
 50
9.0000196E+001
 51
1.7999999E+002
  0
LINE
  8
104
  6
CONTINUOUS
 62
40
 10
2.4297408E+002
 20
2.7613131E+002
 11
2.4297408E+002
 21
2.7248131E+002
  0
LINE
  8
104
  6
CONTINUOUS
 62
40
 10
2.4297408E+002
 20
2.7248131E+002
 11
2.6297408E+002
 21
2.7248131E+002
  0
LINE
  8
104
  6
CONTINUOUS
 62
40
 10
2.6297408E+002
 20
2.7248131E+002
 11
2.6297408E+002
 21
2.5978132E+002
  0
LINE
  8
104
  6
CONTINUOUS
 62
40
 10
2.6297408E+002
 20
2.5978132E+002
 11
2.4297408E+002
 21
2.5978132E+002
  0
LINE
  8
104
  6
CONTINUOUS
 62
40
 10
2.4297408E+002
 20
2.5978132E+002
 11
2.4297408E+002
 21
2.5613132E+002
  0
ARC
  8
104
  6
CONTINUOUS
 62
40
 10
2.454741E+002
 20
2.5613132E+002
 40
2.500014
 50
1.7999998E+002
 51
2.6999984E+002
  0
LINE
  8
104
  6
CONTINUOUS
 62
40
 10
2.4547409E+002
 20
2.5363131E+002
 11
2.4909911E+002
 21
2.5363131E+002
  0
LINE
  8
104
  6
CONTINUOUS
 62
40
 10
3.6767413E+002
 20
2.5363131E+002
 11
4.7147406E+002
 21
2.5363131E+002
  0
LINE
  8
104
  6
CONTINUOUS
 62
40
 10
4.7147406E+002
 20
2.5363131E+002
 11
4.7170755E+002
 21
2.5360367E+002
  0
LINE
  8
104
  6
CONTINUOUS
 62
40
 10
4.7247406E+002
 20
2.5197316E+002
 11
4.7247406E+002
 21
2.4888131E+002
  0
LINE
  8
104
  6
CONTINUOUS
 62
40
 10
4.7247406E+002
 20
2.4888131E+002
 11
5.1447406E+002
 21
2.4888131E+002
  0
LINE
  8
104
  6
CONTINUOUS
 62
40
 10
5.1447406E+002
 20
2.4888131E+002
 11
5.1447406E+002
 21
2.8338131E+002
  0
LINE
  8
104
  6
CONTINUOUS
 62
40
 10
5.1447406E+002
 20
2.8338131E+002
 11
4.7247403E+002
 21
2.8338131E+002
  0
LINE
  8
104
  6
CONTINUOUS
 62
40
 10
4.7247403E+002
 20
2.8338131E+002
 11
4.7247403E+002
 21
2.7963131E+002
  0
ARC
  8
104
  6
CONTINUOUS
 62
40
 10
4.7147405E+002
 20
2.7963129E+002
 40
9.9998171E-001
 50
2.7000073E+002
 51
3.6000105E+002
  0
LINE
  8
104
  6
CONTINUOUS
 62
40
 10
4.7147406E+002
 20
2.7863131E+002
 11
3.6767409E+002
 21
2.7863131E+002
  0
LINE
  8
104
  6
CONTINUOUS
 62
40
 10
4.7247406E+002
 20
2.8038131E+002
 11
5.1447406E+002
 21
2.8038131E+002
  0
LINE
  8
104
  6
CONTINUOUS
 62
40
 10
4.7247406E+002
 20
2.5188131E+002
 11
5.1447406E+002
 21
2.5188131E+002
  0
LINE
  8
105
  6
HIDDEN
 62
1
 10
2.7084568E+002
 20
3.485252E+002
 11
2.8884568E+002
 21
3.485252E+002
  0
LINE
  8
105
  6
HIDDEN
 62
1
 10
2.8884568E+002
 20
3.485252E+002
 11
2.8884568E+002
 21
3.4152523E+002
  0
LINE
  8
105
  6
HIDDEN
 62
1
 10
2.8884568E+002
 20
3.4152523E+002
 11
2.7084568E+002
 21
3.4152523E+002
  0
LINE
  8
105
  6
HIDDEN
 62
1
 10
2.8884568E+002
 20
3.4152523E+002
 11
2.9484566E+002
 21
3.4152523E+002
  0
LINE
  8
105
  6
HIDDEN
 62
1
 10
2.9484566E+002
 20
3.4152523E+002
 11
2.9484566E+002
 21
3.485252E+002
  0
LINE
  8
105
  6
HIDDEN
 62
1
 10
2.9484566E+002
 20
3.485252E+002
 11
2.8884568E+002
 21
3.485252E+002
  0
LINE
  8
105
  6
HIDDEN
 62
1
 10
2.8884568E+002
 20
3.475252E+002
 11
2.9484566E+002
 21
3.475252E+002
  0
LINE
  8
105
  6
HIDDEN
 62
1
 10
2.8884568E+002
 20
3.4252521E+002
 11
2.9484566E+002
 21
3.4252521E+002
  0
LINE
  8
105
  6
HIDDEN
 62
1
 10
2.7084568E+002
 20
3.4252521E+002
 11
2.8884568E+002
 21
3.4252521E+002
  0
LINE
  8
105
  6
HIDDEN
 62
1
 10
2.7084568E+002
 20
3.475252E+002
 11
2.8884568E+002
 21
3.475252E+002
  0
LINE
  8
105
  6
HIDDEN
 62
1
 10
2.6534568E+002
 20
3.500252E+002
 11
2.6534568E+002
 21
3.4002523E+002
  0
LINE
  8
105
  6
HIDDEN
 62
1
 10
2.6534568E+002
 20
3.4002523E+002
 11
2.7084568E+002
 21
3.4002523E+002
  0
LINE
  8
105
  6
HIDDEN
 62
1
 10
2.7084568E+002
 20
3.4002523E+002
 11
2.7084568E+002
 21
3.4202523E+002
  0
LINE
  8
105
  6
HIDDEN
 62
1
 10
2.7084568E+002
 20
3.4202523E+002
 11
2.7084568E+002
 21
3.480252E+002
  0
LINE
  8
105
  6
HIDDEN
 62
1
 10
2.7084568E+002
 20
3.480252E+002
 11
2.7084568E+002
 21
3.500252E+002
  0
LINE
  8
105
  6
HIDDEN
 62
1
 10
2.7084568E+002
 20
3.500252E+002
 11
2.6534568E+002
 21
3.500252E+002
  0
LINE
  8
105
  6
HIDDEN
 62
1
 10
3.4847409E+002
 20
3.490252E+002
 11
3.6047409E+002
 21
3.490252E+002
  0
LINE
  8
105
  6
HIDDEN
 62
1
 10
3.6047409E+002
 20
3.490252E+002
 11
3.6047409E+002
 21
3.4402523E+002
  0
LINE
  8
105
  6
HIDDEN
 62
1
 10
3.6047409E+002
 20
3.4402523E+002
 11
3.5747409E+002
 21
3.4402523E+002
  0
LINE
  8
105
  6
HIDDEN
 62
1
 10
3.5747409E+002
 20
3.4402523E+002
 11
3.5747409E+002
 21
3.3052523E+002
  0
LINE
  8
105
  6
HIDDEN
 62
1
 10
3.5747409E+002
 20
3.3052523E+002
 11
3.5147409E+002
 21
3.3052523E+002
  0
LINE
  8
105
  6
HIDDEN
 62
1
 10
3.5147409E+002
 20
3.3052523E+002
 11
3.5147409E+002
 21
3.4402523E+002
  0
LINE
  8
105
  6
HIDDEN
 62
1
 10
3.5147409E+002
 20
3.4402523E+002
 11
3.4847409E+002
 21
3.4402523E+002
  0
LINE
  8
105
  6
HIDDEN
 62
1
 10
3.4847409E+002
 20
3.4402523E+002
 11
3.4847409E+002
 21
3.490252E+002
  0
LINE
  8
105
  6
HIDDEN
 62
1
 10
3.5147409E+002
 20
3.4402523E+002
 11
3.5747409E+002
 21
3.4402523E+002
  0
LINE
  8
105
  6
HIDDEN
 62
1
 10
3.5247409E+002
 20
3.4402523E+002
 11
3.5247409E+002
 21
3.3052523E+002
  0
LINE
  8
105
  6
HIDDEN
 62
1
 10
3.5647409E+002
 20
3.3052523E+002
 11
3.5647409E+002
 21
3.4402523E+002
  0
LINE
  8
106
  6
CENTERLINE
 62
1
 10
3.5447409E+002
 20
3.5156304E+002
 11
3.5447409E+002
 21
3.2806991E+002
  0
LINE
  8
105
  6
HIDDEN
 62
1
 10
2.4097407E+002
 20
3.3852523E+002
 11
2.4097407E+002
 21
3.3252523E+002
  0
LINE
  8
105
  6
HIDDEN
 62
1
 10
2.3997407E+002
 20
3.3752523E+002
 11
2.469011E+002
 21
3.3752523E+002
  0
LINE
  8
105
  6
HIDDEN
 62
1
 10
2.3997407E+002
 20
3.3352523E+002
 11
2.4690111E+002
 21
3.3352523E+002
  0
LINE
  8
106
  6
CENTERLINE
 62
1
 10
2.3845137E+002
 20
3.3552523E+002
 11
2.6474868E+002
 21
3.3552523E+002
  0
LINE
  8
105
  6
HIDDEN
 62
1
 10
2.4750005E+002
 20
3.3851217E+002
 11
2.4749995E+002
 21
3.3852523E+002
  0
LINE
  8
105
  6
HIDDEN
 62
1
 10
2.4749995E+002
 20
3.3852523E+002
 11
2.4097407E+002
 21
3.3852523E+002
  0
LINE
  8
105
  6
HIDDEN
 62
1
 10
2.4097407E+002
 20
3.3852523E+002
 11
2.3997408E+002
 21
3.3752523E+002
  0
LINE
  8
105
  6
HIDDEN
 62
1
 10
2.3997408E+002
 20
3.3752523E+002
 11
2.3997408E+002
 21
3.3602523E+002
  0
LINE
  8
105
  6
HIDDEN
 62
1
 10
2.3997408E+002
 20
3.3602523E+002
 11
2.3997408E+002
 21
3.3502523E+002
  0
LINE
  8
105
  6
HIDDEN
 62
1
 10
2.3997408E+002
 20
3.3502523E+002
 11
2.3997408E+002
 21
3.3352523E+002
  0
LINE
  8
105
  6
HIDDEN
 62
1
 10
2.3997408E+002
 20
3.3352523E+002
 11
2.4097407E+002
 21
3.3252523E+002
  0
LINE
  8
105
  6
HIDDEN
 62
1
 10
2.4097407E+002
 20
3.3252523E+002
 11
2.4754967E+002
 21
3.3252523E+002
  0
LINE
  8
105
  6
HIDDEN
 62
1
 10
3.4872409E+002
 20
3.4402523E+002
 11
3.6022409E+002
 21
3.4402523E+002
  0
LINE
  8
105
  6
HIDDEN
 62
1
 10
3.4997409E+002
 20
3.4277523E+002
 11
3.5147409E+002
 21
3.4277523E+002
  0
LINE
  8
105
  6
HIDDEN
 62
1
 10
3.5747409E+002
 20
3.4277523E+002
 11
3.5897409E+002
 21
3.4277523E+002
  0
LINE
  8
105
  6
HIDDEN
 62
1
 10
3.4997409E+002
 20
3.4202523E+002
 11
3.5147409E+002
 21
3.4202523E+002
  0
LINE
  8
105
  6
HIDDEN
 62
1
 10
3.5747409E+002
 20
3.4202523E+002
 11
3.5897409E+002
 21
3.4202523E+002
  0
LINE
  8
106
  6
CENTERLINE
 62
1
 10
3.5447409E+002
 20
3.4506454E+002
 11
3.5447409E+002
 21
3.4110067E+002
  0
LINE
  8
105
  6
HIDDEN
 62
1
 10
3.6022409E+002
 20
3.4402523E+002
 11
3.5897409E+002
 21
3.4277523E+002
  0
LINE
  8
105
  6
HIDDEN
 62
1
 10
3.5897409E+002
 20
3.4277523E+002
 11
3.5897409E+002
 21
3.4202523E+002
  0
LINE
  8
105
  6
HIDDEN
 62
1
 10
3.5897409E+002
 20
3.4202523E+002
 11
3.6547409E+002
 21
3.4202523E+002
  0
LINE
  8
105
  6
HIDDEN
 62
1
 10
3.6547409E+002
 20
3.4202523E+002
 11
3.6547409E+002
 21
3.4402523E+002
  0
LINE
  8
105
  6
HIDDEN
 62
1
 10
3.6547409E+002
 20
3.4402523E+002
 11
3.6022409E+002
 21
3.4402523E+002
  0
LINE
  8
105
  6
HIDDEN
 62
1
 10
3.4347409E+002
 20
3.4402523E+002
 11
3.4347409E+002
 21
3.4202523E+002
  0
LINE
  8
105
  6
HIDDEN
 62
1
 10
3.4347409E+002
 20
3.4202523E+002
 11
3.4997409E+002
 21
3.4202523E+002
  0
LINE
  8
105
  6
HIDDEN
 62
1
 10
3.4997409E+002
 20
3.4202523E+002
 11
3.4997409E+002
 21
3.4277523E+002
  0
LINE
  8
105
  6
HIDDEN
 62
1
 10
3.4997409E+002
 20
3.4277523E+002
 11
3.4872409E+002
 21
3.4402523E+002
  0
LINE
  8
105
  6
HIDDEN
 62
1
 10
3.4872409E+002
 20
3.4402523E+002
 11
3.4347409E+002
 21
3.4402523E+002
  0
LINE
  8
105
  6
HIDDEN
 62
1
 10
2.6397407E+002
 20
3.3202523E+002
 11
2.6397407E+002
 21
3.2902523E+002
  0
LINE
  8
105
  6
HIDDEN
 62
1
 10
2.6297408E+002
 20
3.3202523E+002
 11
2.6297408E+002
 21
3.3902523E+002
  0
LINE
  8
106
  6
CENTERLINE
 62
1
 10
2.6377219E+002
 20
3.4502523E+002
 11
2.95742E+002
 21
3.4502523E+002
  0
LINE
  8
105
  6
HIDDEN
 62
1
 10
2.7084568E+002
 20
3.3902523E+002
 11
2.7084568E+002
 21
3.510252E+002
  0
LINE
  8
105
  6
HIDDEN
 62
1
 10
2.7084568E+002
 20
3.510252E+002
 11
2.8284568E+002
 21
3.510252E+002
  0
ARC
  8
105
  6
HIDDEN
 62
1
 10
3.6844385E+002
 20
3.4002524E+002
 40
1.9999873
 50
8.9999538E+001
 51
1.6800001E+002
  0
LINE
  8
105
  6
HIDDEN
 62
1
 10
3.6648756E+002
 20
3.4044106E+002
 11
3.6597407E+002
 21
3.3802523E+002
  0
LINE
  8
105
  6
HIDDEN
 62
1
 10
3.6597407E+002
 20
3.3802523E+002
 11
3.6648756E+002
 21
3.3560943E+002
  0
ARC
  8
105
  6
HIDDEN
 62
1
 10
3.6844386E+002
 20
3.3602523E+002
 40
1.9999993
 50
1.9199936E+002
 51
2.6999999E+002
  0
ARC
  8
105
  6
HIDDEN
 62
1
 10
3.4150426E+002
 20
3.4002523E+002
 40
2.0000023
 50
1.2000334E+001
 51
9.0000115E+001
  0
LINE
  8
105
  6
HIDDEN
 62
1
 10
3.4346056E+002
 20
3.4044106E+002
 11
3.4397407E+002
 21
3.3802523E+002
  0
LINE
  8
105
  6
HIDDEN
 62
1
 10
3.4397407E+002
 20
3.3802523E+002
 11
3.4346056E+002
 21
3.356094E+002
  0
ARC
  8
105
  6
HIDDEN
 62
1
 10
3.4150421E+002
 20
3.3602525E+002
 40
2.0000522
 50
2.7000123E+002
 51
3.4799942E+002
  0
LINE
  8
105
  6
HIDDEN
 62
1
 10
4.7310919E+002
 20
3.4402523E+002
 11
4.7270346E+002
 21
3.4402523E+002
  0
LINE
  8
105
  6
HIDDEN
 62
1
 10
4.7270346E+002
 20
3.4402523E+002
 11
4.6597406E+002
 21
3.4402523E+002
  0
LINE
  8
105
  6
HIDDEN
 62
1
 10
4.6597406E+002
 20
3.4402523E+002
 11
4.4497406E+002
 21
3.4202523E+002
  0
LINE
  8
105
  6
HIDDEN
 62
1
 10
4.4497406E+002
 20
3.4202523E+002
 11
3.5747409E+002
 21
3.4202523E+002
  0
LINE
  8
105
  6
HIDDEN
 62
1
 10
3.5147409E+002
 20
3.4202523E+002
 11
3.3720137E+002
 21
3.4202523E+002
  0
LINE
  8
105
  6
HIDDEN
 62
1
 10
3.3720137E+002
 20
3.4202523E+002
 11
3.1280547E+002
 21
3.5090459E+002
  0
ARC
  8
105
  6
HIDDEN
 62
1
 10
3.1212124E+002
 20
3.4902445E+002
 40
2.000778
 50
7.0002149E+001
 51
8.9994707E+001
  0
LINE
  8
105
  6
HIDDEN
 62
1
 10
3.1212142E+002
 20
3.5102523E+002
 11
2.8284568E+002
 21
3.5102523E+002
  0
LINE
  8
105
  6
HIDDEN
 62
1
 10
2.8284568E+002
 20
3.5102523E+002
 11
2.8284568E+002
 21
3.3902523E+002
  0
LINE
  8
105
  6
HIDDEN
 62
1
 10
2.8284568E+002
 20
3.3902523E+002
 11
2.8194567E+002
 21
3.3902523E+002
  0
LINE
  8
105
  6
HIDDEN
 62
1
 10
2.8194567E+002
 20
3.3902523E+002
 11
2.7520601E+002
 21
3.3902523E+002
  0
LINE
  8
105
  6
HIDDEN
 62
1
 10
2.7520601E+002
 20
3.3902523E+002
 11
2.488376E+002
 21
3.3902523E+002
  0
ARC
  8
105
  6
HIDDEN
 62
1
 10
2.4883757E+002
 20
3.3702526E+002
 40
1.9999695
 50
8.9999153E+001
 51
1.6800043E+002
  0
LINE
  8
105
  6
HIDDEN
 62
1
 10
2.468813E+002
 20
3.3744106E+002
 11
2.4647409E+002
 21
3.3552523E+002
  0
LINE
  8
105
  6
HIDDEN
 62
1
 10
2.4647409E+002
 20
3.3552523E+002
 11
2.468813E+002
 21
3.3360943E+002
  0
ARC
  8
105
  6
HIDDEN
 62
1
 10
2.4883763E+002
 20
3.3402523E+002
 40
2.0000342
 50
1.9199929E+002
 51
2.6999897E+002
  0
LINE
  8
105
  6
HIDDEN
 62
1
 10
2.488376E+002
 20
3.320252E+002
 11
2.9985259E+002
 21
3.320252E+002
  0
ARC
  8
105
  6
HIDDEN
 62
1
 10
2.9985257E+002
 20
3.3402521E+002
 40
2.0000153
 50
2.7000054E+002
 51
3.4565664E+002
  0
ARC
  8
105
  6
HIDDEN
 62
1
 10
3.1161296E+002
 20
3.3100877E+002
 40
1.0141059E+001
 50
1.1748599E+002
 51
1.6560588E+002
  0
ARC
  8
105
  6
HIDDEN
 62
1
 10
3.1156209E+002
 20
3.3110666E+002
 40
1.0030743E+001
 50
6.9015315E+001
 51
1.1748629E+002
  0
LINE
  8
105
  6
HIDDEN
 62
1
 10
3.1515429E+002
 20
3.4047213E+002
 11
3.2674636E+002
 21
3.3625295E+002
  0
LINE
  8
105
  6
HIDDEN
 62
1
 10
3.2674636E+002
 20
3.3625295E+002
 11
3.3097407E+002
 21
3.3202523E+002
  0
LINE
  8
105
  6
HIDDEN
 62
1
 10
3.3097407E+002
 20
3.3202523E+002
 11
3.3697407E+002
 21
3.3202523E+002
  0
LINE
  8
105
  6
HIDDEN
 62
1
 10
3.3697407E+002
 20
3.3202523E+002
 11
3.3897407E+002
 21
3.3402523E+002
  0
LINE
  8
105
  6
HIDDEN
 62
1
 10
3.3897407E+002
 20
3.3402523E+002
 11
3.5147409E+002
 21
3.3402523E+002
  0
LINE
  8
105
  6
HIDDEN
 62
1
 10
3.5747409E+002
 20
3.3402523E+002
 11
3.7097407E+002
 21
3.3402523E+002
  0
LINE
  8
105
  6
HIDDEN
 62
1
 10
3.7097407E+002
 20
3.3402523E+002
 11
3.7297407E+002
 21
3.3202523E+002
  0
LINE
  8
105
  6
HIDDEN
 62
1
 10
3.7297407E+002
 20
3.3202523E+002
 11
3.7897407E+002
 21
3.3202523E+002
  0
LINE
  8
105
  6
HIDDEN
 62
1
 10
3.7897407E+002
 20
3.3202523E+002
 11
3.8097407E+002
 21
3.3402523E+002
  0
LINE
  8
105
  6
HIDDEN
 62
1
 10
3.8097407E+002
 20
3.3402523E+002
 11
4.4497406E+002
 21
3.3402523E+002
  0
LINE
  8
105
  6
HIDDEN
 62
1
 10
4.4497406E+002
 20
3.3402523E+002
 11
4.6597406E+002
 21
3.3202524E+002
  0
LINE
  8
105
  6
HIDDEN
 62
1
 10
4.6597406E+002
 20
3.3202524E+002
 11
4.7247403E+002
 21
3.3202524E+002
  0
LINE
  8
105
  6
HIDDEN
 62
1
 10
4.7247403E+002
 20
3.3202524E+002
 11
4.7247403E+002
 21
3.3202497E+002
  0
LINE
  8
105
  6
HIDDEN
 62
1
 10
4.4097415E+002
 20
3.3202523E+002
 11
4.3872409E+002
 21
3.2977517E+002
  0
LINE
  8
105
  6
HIDDEN
 62
1
 10
4.3872409E+002
 20
3.2977517E+002
 11
4.3872409E+002
 21
3.2902523E+002
  0
LINE
  8
105
  6
HIDDEN
 62
1
 10
4.3872409E+002
 20
3.2902523E+002
 11
4.3222406E+002
 21
3.2902523E+002
  0
LINE
  8
105
  6
HIDDEN
 62
1
 10
4.3222406E+002
 20
3.2902523E+002
 11
4.3222406E+002
 21
3.2977521E+002
  0
LINE
  8
105
  6
HIDDEN
 62
1
 10
4.3222406E+002
 20
3.2977521E+002
 11
4.2997412E+002
 21
3.3202523E+002
  0
LINE
  8
105
  6
HIDDEN
 62
1
 10
3.0697416E+002
 20
3.3202523E+002
 11
3.047241E+002
 21
3.2977517E+002
  0
LINE
  8
105
  6
HIDDEN
 62
1
 10
3.047241E+002
 20
3.2977517E+002
 11
3.047241E+002
 21
3.2902523E+002
  0
LINE
  8
105
  6
HIDDEN
 62
1
 10
3.047241E+002
 20
3.2902523E+002
 11
2.9822407E+002
 21
3.2902523E+002
  0
LINE
  8
105
  6
HIDDEN
 62
1
 10
2.9822407E+002
 20
3.2902523E+002
 11
2.9822407E+002
 21
3.2977521E+002
  0
LINE
  8
105
  6
HIDDEN
 62
1
 10
2.9822407E+002
 20
3.2977521E+002
 11
2.9597413E+002
 21
3.3202523E+002
  0
LINE
  8
106
  6
CENTERLINE
 62
1
 10
5.0247406E+002
 20
3.3599972E+002
 11
5.0247406E+002
 21
3.2329218E+002
  0
LINE
  8
106
  6
CENTERLINE
 62
1
 10
4.3547409E+002
 20
3.3402523E+002
 11
4.3547409E+002
 21
3.2401308E+002
  0
LINE
  8
106
  6
CENTERLINE
 62
1
 10
3.6844386E+002
 20
3.3402523E+002
 11
3.6847409E+002
 21
3.2308721E+002
  0
LINE
  8
106
  6
CENTERLINE
 62
1
 10
3.014741E+002
 20
3.3579476E+002
 11
3.014741E+002
 21
3.2595666E+002
  0
LINE
  8
105
  6
HIDDEN
 62
1
 10
3.7397415E+002
 20
3.3202523E+002
 11
3.7172409E+002
 21
3.2977517E+002
  0
LINE
  8
105
  6
HIDDEN
 62
1
 10
3.7172409E+002
 20
3.2977517E+002
 11
3.7172409E+002
 21
3.2902523E+002
  0
LINE
  8
105
  6
HIDDEN
 62
1
 10
3.7172409E+002
 20
3.2902523E+002
 11
3.6522406E+002
 21
3.2902523E+002
  0
LINE
  8
105
  6
HIDDEN
 62
1
 10
3.6522406E+002
 20
3.2902523E+002
 11
3.6522406E+002
 21
3.2977521E+002
  0
LINE
  8
105
  6
HIDDEN
 62
1
 10
3.6522406E+002
 20
3.2977521E+002
 11
3.6297412E+002
 21
3.3202523E+002
  0
LINE
  8
105
  6
HIDDEN
 62
1
 10
5.0797412E+002
 20
3.3202523E+002
 11
5.0572406E+002
 21
3.2977517E+002
  0
LINE
  8
105
  6
HIDDEN
 62
1
 10
5.0572406E+002
 20
3.2977517E+002
 11
5.0572406E+002
 21
3.2902523E+002
  0
LINE
  8
105
  6
HIDDEN
 62
1
 10
5.0572406E+002
 20
3.2902523E+002
 11
4.9922403E+002
 21
3.2902523E+002
  0
LINE
  8
105
  6
HIDDEN
 62
1
 10
4.9922403E+002
 20
3.2902523E+002
 11
4.9922403E+002
 21
3.2977521E+002
  0
LINE
  8
105
  6
HIDDEN
 62
1
 10
4.9922403E+002
 20
3.2977521E+002
 11
4.9697409E+002
 21
3.3202523E+002
  0
LINE
  8
105
  6
HIDDEN
 62
1
 10
3.5747409E+002
 20
3.3052523E+002
 11
3.5747409E+002
 21
3.3352523E+002
  0
LINE
  8
105
  6
HIDDEN
 62
1
 10
3.5147409E+002
 20
3.3052523E+002
 11
3.5147409E+002
 21
3.3352523E+002
  0
LINE
  8
105
  6
HIDDEN
 62
1
 10
3.4747411E+002
 20
3.3202523E+002
 11
3.4897413E+002
 21
3.3352523E+002
  0
LINE
  8
105
  6
HIDDEN
 62
1
 10
3.4897413E+002
 20
3.3352523E+002
 11
3.5147409E+002
 21
3.3352523E+002
  0
LINE
  8
105
  6
HIDDEN
 62
1
 10
3.5747409E+002
 20
3.3352523E+002
 11
3.5997411E+002
 21
3.3352523E+002
  0
LINE
  8
105
  6
HIDDEN
 62
1
 10
3.5997411E+002
 20
3.3352523E+002
 11
3.6147406E+002
 21
3.3202523E+002
  0
LINE
  8
105
  6
HIDDEN
 62
1
 10
3.4897411E+002
 20
3.2902523E+002
 11
3.5047411E+002
 21
3.3052523E+002
  0
LINE
  8
105
  6
HIDDEN
 62
1
 10
3.5047411E+002
 20
3.3052523E+002
 11
3.5147409E+002
 21
3.3052523E+002
  0
LINE
  8
105
  6
HIDDEN
 62
1
 10
3.5747409E+002
 20
3.3052523E+002
 11
3.5847406E+002
 21
3.3052523E+002
  0
LINE
  8
105
  6
HIDDEN
 62
1
 10
3.5847406E+002
 20
3.3052523E+002
 11
3.5997406E+002
 21
3.2902523E+002
  0
LINE
  8
106
  6
CENTERLINE
 62
1
 10
2.8947408E+002
 20
3.3560697E+002
 11
2.8947408E+002
 21
3.2556948E+002
  0
LINE
  8
106
  6
CENTERLINE
 62
1
 10
3.5447409E+002
 20
3.4420394E+002
 11
3.5447409E+002
 21
3.2490999E+002
  0
LINE
  8
106
  6
CENTERLINE
 62
1
 10
4.3547409E+002
 20
3.3539593E+002
 11
4.3547409E+002
 21
3.2401308E+002
  0
LINE
  8
105
  6
HIDDEN
 62
1
 10
5.1447403E+002
 20
3.3202523E+002
 11
5.1447403E+002
 21
3.4252523E+002
  0
ARC
  8
105
  6
HIDDEN
 62
1
 10
5.1197402E+002
 20
3.4252522E+002
 40
2.5000044
 50
1.009746E-004
 51
8.9999899E+001
  0
LINE
  8
105
  6
HIDDEN
 62
1
 10
5.1197403E+002
 20
3.4502523E+002
 11
4.7497403E+002
 21
3.4502523E+002
  0
ARC
  8
105
  6
HIDDEN
 62
1
 10
4.7497402E+002
 20
3.4252523E+002
 40
2.5000038
 50
8.9999743E+001
 51
1.7999991E+002
  0
LINE
  8
105
  6
HIDDEN
 62
1
 10
4.7247401E+002
 20
3.4252523E+002
 11
4.7247401E+002
 21
3.2902523E+002
  0
LINE
  8
105
  6
HIDDEN
 62
1
 10
5.1447403E+002
 20
3.3202523E+002
 11
4.7247403E+002
 21
3.3202523E+002
  0
LINE
  8
105
  6
HIDDEN
 62
1
 10
4.7247403E+002
 20
3.3202523E+002
 11
3.6147406E+002
 21
3.3202523E+002
  0
LINE
  8
105
  6
HIDDEN
 62
1
 10
3.4747411E+002
 20
3.3202523E+002
 11
2.4297407E+002
 21
3.3202523E+002
  0
LINE
  8
105
  6
HIDDEN
 62
1
 10
2.4297407E+002
 20
3.3202523E+002
 11
2.4297407E+002
 21
3.2902523E+002
  0
LINE
  8
105
  6
HIDDEN
 62
1
 10
2.4297407E+002
 20
3.2902523E+002
 11
5.1447403E+002
 21
3.2902523E+002
  0
LINE
  8
105
  6
HIDDEN
 62
1
 10
5.1447403E+002
 20
3.2902523E+002
 11
5.1447403E+002
 21
3.3202523E+002
  0
LINE
  8
99
  6
CONTINUOUS
 62
1
 10
1.282115E+002
 20
3.2897307E+002
 11
1.282115E+002
 21
3.1197307E+002
  0
LINE
  8
99
  6
CONTINUOUS
 62
1
 10
1.282115E+002
 20
3.1197307E+002
 11
1.342115E+002
 21
3.1197307E+002
  0
LINE
  8
99
  6
CONTINUOUS
 62
1
 10
1.342115E+002
 20
3.1197307E+002
 11
1.342115E+002
 21
3.2897307E+002
  0
LINE
  8
99
  6
CONTINUOUS
 62
1
 10
1.292115E+002
 20
3.2897307E+002
 11
1.292115E+002
 21
3.1197307E+002
  0
LINE
  8
99
  6
CONTINUOUS
 62
1
 10
1.332115E+002
 20
3.1197307E+002
 11
1.332115E+002
 21
3.2897307E+002
  0
LINE
  8
106
  6
CENTERLINE
 62
1
 10
1.312115E+002
 20
3.310102E+002
 11
1.312115E+002
 21
3.1050239E+002
  0
LINE
  8
99
  6
CONTINUOUS
 62
1
 10
1.362115E+002
 20
3.2897307E+002
 11
1.362115E+002
 21
3.1197307E+002
  0
LINE
  8
99
  6
CONTINUOUS
 62
1
 10
1.362115E+002
 20
3.1197307E+002
 11
1.422115E+002
 21
3.1197307E+002
  0
LINE
  8
99
  6
CONTINUOUS
 62
1
 10
1.422115E+002
 20
3.1197307E+002
 11
1.422115E+002
 21
3.2897307E+002
  0
LINE
  8
99
  6
CONTINUOUS
 62
1
 10
1.372115E+002
 20
3.2897307E+002
 11
1.372115E+002
 21
3.1197307E+002
  0
LINE
  8
99
  6
CONTINUOUS
 62
1
 10
1.412115E+002
 20
3.1197307E+002
 11
1.412115E+002
 21
3.2897307E+002
  0
LINE
  8
106
  6
CENTERLINE
 62
1
 10
1.392115E+002
 20
3.3087348E+002
 11
1.392115E+002
 21
3.1009223E+002
  0
LINE
  8
104
  6
CONTINUOUS
 62
40
 10
1.5246149E+002
 20
3.439731E+002
 11
1.5246149E+002
 21
3.509731E+002
  0
LINE
  8
104
  6
CONTINUOUS
 62
40
 10
1.5246149E+002
 20
3.509731E+002
 11
1.1796149E+002
 21
3.509731E+002
  0
LINE
  8
104
  6
CONTINUOUS
 62
40
 10
1.1796149E+002
 20
3.509731E+002
 11
1.1796149E+002
 21
3.4397307E+002
  0
LINE
  8
104
  6
CONTINUOUS
 62
40
 10
1.2496149E+002
 20
3.3447307E+002
 11
1.3021149E+002
 21
3.3447307E+002
  0
LINE
  8
104
  6
CONTINUOUS
 62
40
 10
1.4021149E+002
 20
3.3447307E+002
 11
1.4546149E+002
 21
3.3447307E+002
  0
LINE
  8
104
  6
CONTINUOUS
 62
40
 10
1.4546149E+002
 20
3.4147307E+002
 11
1.4014799E+002
 21
3.4147307E+002
  0
LINE
  8
104
  6
CONTINUOUS
 62
40
 10
1.3027499E+002
 20
3.4147307E+002
 11
1.2496149E+002
 21
3.4147307E+002
  0
LINE
  8
99
  6
CONTINUOUS
 62
1
 10
1.2496149E+002
 20
3.4047307E+002
 11
1.3021149E+002
 21
3.4047307E+002
  0
LINE
  8
99
  6
CONTINUOUS
 62
1
 10
1.4021149E+002
 20
3.4047307E+002
 11
1.4546149E+002
 21
3.4047307E+002
  0
LINE
  8
99
  6
CONTINUOUS
 62
1
 10
1.4546149E+002
 20
3.3547307E+002
 11
1.4021149E+002
 21
3.3547307E+002
  0
LINE
  8
99
  6
CONTINUOUS
 62
1
 10
1.3021149E+002
 20
3.3547307E+002
 11
1.2496149E+002
 21
3.3547307E+002
  0
ARC
  8
104
  6
CONTINUOUS
 62
40
 10
1.4396149E+002
 20
3.4054806E+002
 40
5.4999961
 50
3.3208376E+002
 51
3.8791641E+002
  0
LINE
  8
104
  6
CONTINUOUS
 62
40
 10
1.4882147E+002
 20
3.3797307E+002
 11
1.4546149E+002
 21
3.3797307E+002
  0
ARC
  8
104
  6
CONTINUOUS
 62
40
 10
1.4396149E+002
 20
3.3539808E+002
 40
5.4999996
 50
3.3208369E+002
 51
3.8791631E+002
  0
ARC
  8
104
  6
CONTINUOUS
 62
40
 10
1.2646149E+002
 20
3.3539808E+002
 40
5.5000027
 50
1.5208379E+002
 51
2.0791637E+002
  0
LINE
  8
104
  6
CONTINUOUS
 62
40
 10
1.2160151E+002
 20
3.3797307E+002
 11
1.2496149E+002
 21
3.3797307E+002
  0
ARC
  8
104
  6
CONTINUOUS
 62
40
 10
1.2646149E+002
 20
3.4054806E+002
 40
5.4999961
 50
1.5208359E+002
 51
2.0791624E+002
  0
LINE
  8
106
  6
CENTERLINE
 62
1
 10
1.2496149E+002
 20
3.3797307E+002
 11
1.3257223E+002
 21
3.3797307E+002
  0
LINE
  8
106
  6
CENTERLINE
 62
1
 10
1.3810934E+002
 20
3.3797307E+002
 11
1.4546149E+002
 21
3.3797307E+002
  0
LINE
  8
104
  6
CONTINUOUS
 62
40
 10
1.2496149E+002
 20
3.4312307E+002
 11
1.2496149E+002
 21
3.329731E+002
  0
LINE
  8
104
  6
CONTINUOUS
 62
40
 10
1.2496149E+002
 20
3.329731E+002
 11
1.2496149E+002
 21
3.3282308E+002
  0
LINE
  8
104
  6
CONTINUOUS
 62
40
 10
1.2496149E+002
 20
3.3282308E+002
 11
1.2096149E+002
 21
3.3282308E+002
  0
LINE
  8
104
  6
CONTINUOUS
 62
40
 10
1.4546149E+002
 20
3.4312307E+002
 11
1.4546149E+002
 21
3.329731E+002
  0
LINE
  8
104
  6
CONTINUOUS
 62
40
 10
1.4546149E+002
 20
3.329731E+002
 11
1.4546149E+002
 21
3.3282308E+002
  0
LINE
  8
104
  6
CONTINUOUS
 62
40
 10
1.4546149E+002
 20
3.3282308E+002
 11
1.4946149E+002
 21
3.3282308E+002
  0
LINE
  8
104
  6
CONTINUOUS
 62
40
 10
1.2096149E+002
 20
3.4312307E+002
 11
1.4946149E+002
 21
3.4312307E+002
  0
LINE
  8
104
  6
CONTINUOUS
 62
40
 10
1.2521149E+002
 20
3.439731E+002
 11
1.2521149E+002
 21
3.4312307E+002
  0
LINE
  8
104
  6
CONTINUOUS
 62
40
 10
1.2521149E+002
 20
3.4312307E+002
 11
1.2521149E+002
 21
3.449731E+002
  0
LINE
  8
104
  6
CONTINUOUS
 62
40
 10
1.2521149E+002
 20
3.449731E+002
 11
1.4521149E+002
 21
3.449731E+002
  0
LINE
  8
104
  6
CONTINUOUS
 62
40
 10
1.4521149E+002
 20
3.449731E+002
 11
1.4521149E+002
 21
3.439731E+002
  0
LINE
  8
104
  6
CONTINUOUS
 62
40
 10
1.4521149E+002
 20
3.439731E+002
 11
1.4521149E+002
 21
3.4312307E+002
  0
LINE
  8
104
  6
CONTINUOUS
 62
40
 10
1.3021149E+002
 20
3.3162545E+002
 11
1.3021149E+002
 21
3.409731E+002
  0
ARC
  8
104
  6
CONTINUOUS
 62
40
 10
1.3221149E+002
 20
3.4097309E+002
 40
1.9999975
 50
8.9999928E+001
 51
1.7999964E+002
  0
LINE
  8
104
  6
CONTINUOUS
 62
40
 10
1.3221149E+002
 20
3.4297309E+002
 11
1.3821149E+002
 21
3.4297309E+002
  0
ARC
  8
104
  6
CONTINUOUS
 62
40
 10
1.382115E+002
 20
3.4097309E+002
 40
1.9999966
 50
3.312657E-004
 51
9.0000098E+001
  0
LINE
  8
104
  6
CONTINUOUS
 62
40
 10
1.4021149E+002
 20
3.409731E+002
 11
1.4021149E+002
 21
3.3162545E+002
  0
LINE
  8
104
  6
CONTINUOUS
 62
40
 10
1.4946149E+002
 20
3.439731E+002
 11
1.5246149E+002
 21
3.439731E+002
  0
LINE
  8
104
  6
CONTINUOUS
 62
40
 10
1.5246149E+002
 20
3.439731E+002
 11
1.5246149E+002
 21
3.3097309E+002
  0
ARC
  8
104
  6
CONTINUOUS
 62
40
 10
1.5046149E+002
 20
3.3097307E+002
 40
2.0
 50
2.7E+002
 51
3.6000043E+002
  0
LINE
  8
104
  6
CONTINUOUS
 62
40
 10
1.5046149E+002
 20
3.2897307E+002
 11
1.1996149E+002
 21
3.2897307E+002
  0
ARC
  8
104
  6
CONTINUOUS
 62
40
 10
1.199615E+002
 20
3.3097308E+002
 40
2.0000031
 50
1.7999966E+002
 51
2.6999991E+002
  0
LINE
  8
104
  6
CONTINUOUS
 62
40
 10
1.1796149E+002
 20
3.3097309E+002
 11
1.1796149E+002
 21
3.4397307E+002
  0
LINE
  8
104
  6
CONTINUOUS
 62
40
 10
1.1796149E+002
 20
3.4397307E+002
 11
1.2096149E+002
 21
3.4397307E+002
  0
LINE
  8
104
  6
CONTINUOUS
 62
40
 10
1.2096149E+002
 20
3.4397307E+002
 11
1.2096149E+002
 21
3.3162545E+002
  0
LINE
  8
104
  6
CONTINUOUS
 62
40
 10
1.2096149E+002
 20
3.3162545E+002
 11
1.4946149E+002
 21
3.3162545E+002
  0
LINE
  8
104
  6
CONTINUOUS
 62
40
 10
1.4946149E+002
 20
3.3162545E+002
 11
1.4946149E+002
 21
3.439731E+002
  0
LINE
  8
104
  6
CONTINUOUS
 62
40
 10
1.7964667E+002
 20
3.6079879E+002
 11
1.7327573E+002
 21
3.6079879E+002
  0
LINE
  8
104
  6
CONTINUOUS
 62
40
 10
1.7327573E+002
 20
3.6079879E+002
 11
1.7327573E+002
 21
3.584731E+002
  0
LINE
  8
104
  6
CONTINUOUS
 62
40
 10
9.0776339E+001
 20
3.6079879E+002
 11
9.7880709E+001
 21
3.6079879E+002
  0
LINE
  8
104
  6
CONTINUOUS
 62
40
 10
9.7880709E+001
 20
3.6079879E+002
 11
9.7880709E+001
 21
3.584731E+002
  0
LINE
  8
104
  6
CONTINUOUS
 62
40
 10
9.0857554E+001
 20
3.584731E+002
 11
1.1115986E+002
 21
3.584731E+002
  0
LINE
  8
104
  6
CONTINUOUS
 62
40
 10
1.1726313E+002
 20
3.584731E+002
 11
1.5315986E+002
 21
3.584731E+002
  0
LINE
  8
104
  6
CONTINUOUS
 62
40
 10
1.5926313E+002
 20
3.584731E+002
 11
1.7956543E+002
 21
3.584731E+002
  0
LINE
  8
104
  6
CONTINUOUS
 62
40
 10
9.087498E+001
 20
3.959731E+002
 11
9.0211497E+001
 21
3.769731E+002
  0
LINE
  8
104
  6
CONTINUOUS
 62
40
 10
9.0211497E+001
 20
3.769731E+002
 11
9.0857554E+001
 21
3.584731E+002
  0
LINE
  8
104
  6
CONTINUOUS
 62
40
 10
9.387498E+001
 20
3.959731E+002
 11
9.3211497E+001
 21
3.769731E+002
  0
LINE
  8
104
  6
CONTINUOUS
 62
40
 10
9.3211497E+001
 20
3.769731E+002
 11
9.3776339E+001
 21
3.6079879E+002
  0
LINE
  8
104
  6
CONTINUOUS
 62
40
 10
1.7954801E+002
 20
3.959731E+002
 11
1.8021149E+002
 21
3.769731E+002
  0
LINE
  8
104
  6
CONTINUOUS
 62
40
 10
1.8021149E+002
 20
3.769731E+002
 11
1.7956543E+002
 21
3.584731E+002
  0
LINE
  8
104
  6
CONTINUOUS
 62
40
 10
1.7954801E+002
 20
3.959731E+002
 11
1.7521149E+002
 21
3.959731E+002
  0
LINE
  8
104
  6
CONTINUOUS
 62
40
 10
9.5211497E+001
 20
3.959731E+002
 11
9.087498E+001
 21
3.959731E+002
  0
LINE
  8
104
  6
CONTINUOUS
 62
40
 10
1.7654804E+002
 20
3.959731E+002
 11
1.7721152E+002
 21
3.769731E+002
  0
LINE
  8
104
  6
CONTINUOUS
 62
40
 10
1.7721152E+002
 20
3.769731E+002
 11
1.766467E+002
 21
3.6079879E+002
  0
LINE
  8
99
  6
CONTINUOUS
 62
1
 10
1.280615E+002
 20
3.524731E+002
 11
1.280615E+002
 21
3.514731E+002
  0
LINE
  8
99
  6
CONTINUOUS
 62
1
 10
1.4236149E+002
 20
3.524731E+002
 11
1.4236149E+002
 21
3.514731E+002
  0
LINE
  8
106
  6
CENTERLINE
 62
1
 10
1.352115E+002
 20
4.030356E+002
 11
1.352115E+002
 21
3.2737275E+002
  0
LINE
  8
104
  6
CONTINUOUS
 62
40
 10
1.192115E+002
 20
3.584731E+002
 11
1.192115E+002
 21
3.564731E+002
  0
ARC
  8
104
  6
CONTINUOUS
 62
40
 10
1.2121149E+002
 20
3.564731E+002
 40
1.9999946
 50
1.7999985E+002
 51
2.7000015E+002
  0
LINE
  8
104
  6
CONTINUOUS
 62
40
 10
1.212115E+002
 20
3.544731E+002
 11
1.492115E+002
 21
3.544731E+002
  0
ARC
  8
104
  6
CONTINUOUS
 62
40
 10
1.4921151E+002
 20
3.564731E+002
 40
1.9999907
 50
2.6999962E+002
 51
3.6000027E+002
  0
LINE
  8
104
  6
CONTINUOUS
 62
40
 10
1.512115E+002
 20
3.564731E+002
 11
1.512115E+002
 21
3.584731E+002
  0
LINE
  8
104
  6
CONTINUOUS
 62
40
 10
1.4536149E+002
 20
3.544731E+002
 11
1.4536149E+002
 21
3.534731E+002
  0
ARC
  8
104
  6
CONTINUOUS
 62
40
 10
1.443615E+002
 20
3.534731E+002
 40
9.9999022E-001
 50
2.6999944E+002
 51
3.6000056E+002
  0
LINE
  8
104
  6
CONTINUOUS
 62
40
 10
1.4436149E+002
 20
3.524731E+002
 11
1.260615E+002
 21
3.524731E+002
  0
ARC
  8
104
  6
CONTINUOUS
 62
40
 10
1.260615E+002
 20
3.534731E+002
 40
9.9999112E-001
 50
1.7999949E+002
 51
2.7000028E+002
  0
LINE
  8
104
  6
CONTINUOUS
 62
40
 10
1.2506151E+002
 20
3.534731E+002
 11
1.2506151E+002
 21
3.544731E+002
  0
LINE
  8
105
  6
HIDDEN
 62
1
 10
1.280615E+002
 20
3.524731E+002
 11
1.280615E+002
 21
3.4047312E+002
  0
LINE
  8
105
  6
HIDDEN
 62
1
 10
1.280615E+002
 20
3.4047312E+002
 11
1.4236149E+002
 21
3.4047312E+002
  0
LINE
  8
105
  6
HIDDEN
 62
1
 10
1.4236149E+002
 20
3.4047312E+002
 11
1.4236149E+002
 21
3.524731E+002
  0
LINE
  8
105
  6
HIDDEN
 62
1
 10
1.072115E+002
 20
3.969731E+002
 11
1.072115E+002
 21
3.939731E+002
  0
LINE
  8
105
  6
HIDDEN
 62
1
 10
1.112115E+002
 20
3.939731E+002
 11
1.112115E+002
 21
3.969731E+002
  0
LINE
  8
105
  6
HIDDEN
 62
1
 10
1.5921149E+002
 20
3.969731E+002
 11
1.5921149E+002
 21
3.939731E+002
  0
LINE
  8
105
  6
HIDDEN
 62
1
 10
1.6321149E+002
 20
3.939731E+002
 11
1.6321149E+002
 21
3.969731E+002
  0
LINE
  8
106
  6
CENTERLINE
 62
1
 10
1.0435798E+002
 20
3.779731E+002
 11
1.2377204E+002
 21
3.779731E+002
  0
LINE
  8
106
  6
CENTERLINE
 62
1
 10
1.4687751E+002
 20
3.779731E+002
 11
1.6533454E+002
 21
3.779731E+002
  0
LINE
  8
99
  6
CONTINUOUS
 62
1
 10
1.6621149E+002
 20
3.929731E+002
 11
1.6621149E+002
 21
3.889731E+002
  0
LINE
  8
99
  6
CONTINUOUS
 62
1
 10
1.6621149E+002
 20
3.889731E+002
 11
1.6221149E+002
 21
3.889731E+002
  0
LINE
  8
99
  6
CONTINUOUS
 62
1
 10
1.6221149E+002
 20
3.889731E+002
 11
1.6221149E+002
 21
3.9039043E+002
  0
LINE
  8
99
  6
CONTINUOUS
 62
1
 10
1.6221149E+002
 20
3.9039043E+002
 11
1.6021149E+002
 21
3.9039043E+002
  0
LINE
  8
99
  6
CONTINUOUS
 62
1
 10
1.6021149E+002
 20
3.9039043E+002
 11
1.6021149E+002
 21
3.889731E+002
  0
LINE
  8
99
  6
CONTINUOUS
 62
1
 10
1.6021149E+002
 20
3.889731E+002
 11
1.562115E+002
 21
3.889731E+002
  0
LINE
  8
99
  6
CONTINUOUS
 62
1
 10
1.562115E+002
 20
3.889731E+002
 11
1.562115E+002
 21
3.929731E+002
  0
LINE
  8
99
  6
CONTINUOUS
 62
1
 10
1.3881718E+002
 20
3.699731E+002
 11
1.3850999E+002
 21
3.709731E+002
  0
LINE
  8
99
  6
CONTINUOUS
 62
1
 10
1.7360581E+002
 20
3.699731E+002
 11
1.7398413E+002
 21
3.709731E+002
  0
LINE
  8
99
  6
CONTINUOUS
 62
1
 10
1.3160582E+002
 20
3.699731E+002
 11
1.3187995E+002
 21
3.709731E+002
  0
LINE
  8
99
  6
CONTINUOUS
 62
1
 10
9.6817172E+001
 20
3.699731E+002
 11
9.6493708E+001
 21
3.709731E+002
  0
LINE
  8
105
  6
HIDDEN
 62
1
 10
1.062115E+002
 20
3.939731E+002
 11
1.062115E+002
 21
3.969731E+002
  0
LINE
  8
105
  6
HIDDEN
 62
1
 10
1.122115E+002
 20
3.939731E+002
 11
1.122115E+002
 21
3.969731E+002
  0
LINE
  8
105
  6
HIDDEN
 62
1
 10
1.582115E+002
 20
3.939731E+002
 11
1.582115E+002
 21
3.969731E+002
  0
LINE
  8
105
  6
HIDDEN
 62
1
 10
1.6421149E+002
 20
3.939731E+002
 11
1.6421149E+002
 21
3.969731E+002
  0
LINE
  8
104
  6
CONTINUOUS
 62
40
 10
1.1899629E+002
 20
3.7521062E+002
 11
1.1899629E+002
 21
3.8073562E+002
  0
LINE
  8
104
  6
CONTINUOUS
 62
40
 10
1.1899629E+002
 20
3.8073562E+002
 11
1.142115E+002
 21
3.834981E+002
  0
LINE
  8
104
  6
CONTINUOUS
 62
40
 10
1.142115E+002
 20
3.834981E+002
 11
1.0942671E+002
 21
3.8073562E+002
  0
LINE
  8
104
  6
CONTINUOUS
 62
40
 10
1.0942671E+002
 20
3.8073562E+002
 11
1.0942671E+002
 21
3.7521059E+002
  0
LINE
  8
104
  6
CONTINUOUS
 62
40
 10
1.0942671E+002
 20
3.7521059E+002
 11
1.142115E+002
 21
3.7244811E+002
  0
LINE
  8
104
  6
CONTINUOUS
 62
40
 10
1.142115E+002
 20
3.7244811E+002
 11
1.1899629E+002
 21
3.7521062E+002
  0
LINE
  8
104
  6
CONTINUOUS
 62
40
 10
1.6099631E+002
 20
3.7521062E+002
 11
1.6099631E+002
 21
3.8073562E+002
  0
LINE
  8
104
  6
CONTINUOUS
 62
40
 10
1.6099631E+002
 20
3.8073562E+002
 11
1.562115E+002
 21
3.834981E+002
  0
LINE
  8
104
  6
CONTINUOUS
 62
40
 10
1.562115E+002
 20
3.834981E+002
 11
1.5142671E+002
 21
3.8073562E+002
  0
LINE
  8
104
  6
CONTINUOUS
 62
40
 10
1.5142671E+002
 20
3.8073562E+002
 11
1.5142671E+002
 21
3.7521059E+002
  0
LINE
  8
104
  6
CONTINUOUS
 62
40
 10
1.5142671E+002
 20
3.7521059E+002
 11
1.562115E+002
 21
3.7244811E+002
  0
LINE
  8
104
  6
CONTINUOUS
 62
40
 10
1.562115E+002
 20
3.7244811E+002
 11
1.6099631E+002
 21
3.7521062E+002
  0
CIRCLE
  8
99
  6
CONTINUOUS
 62
1
 10
1.562115E+002
 20
3.779731E+002
 40
4.499992
  0
CIRCLE
  8
104
  6
CONTINUOUS
 62
40
 10
1.5621151E+002
 20
3.779731E+002
 40
6.500008
  0
CIRCLE
  8
104
  6
CONTINUOUS
 62
40
 10
1.1421151E+002
 20
3.779731E+002
 40
6.5
  0
CIRCLE
  8
99
  6
CONTINUOUS
 62
1
 10
1.1421151E+002
 20
3.779731E+002
 40
4.5
  0
LINE
  8
106
  6
CENTERLINE
 62
1
 10
1.142115E+002
 20
3.8598348E+002
 11
1.142115E+002
 21
3.6950158E+002
  0
LINE
  8
106
  6
CENTERLINE
 62
1
 10
1.562115E+002
 20
3.8598348E+002
 11
1.562115E+002
 21
3.6950158E+002
  0
LINE
  8
99
  6
CONTINUOUS
 62
1
 10
1.142115E+002
 20
3.929731E+002
 11
1.142115E+002
 21
3.889731E+002
  0
LINE
  8
99
  6
CONTINUOUS
 62
1
 10
1.142115E+002
 20
3.889731E+002
 11
1.102115E+002
 21
3.889731E+002
  0
LINE
  8
99
  6
CONTINUOUS
 62
1
 10
1.102115E+002
 20
3.889731E+002
 11
1.102115E+002
 21
3.9039043E+002
  0
LINE
  8
99
  6
CONTINUOUS
 62
1
 10
1.102115E+002
 20
3.9039043E+002
 11
1.082115E+002
 21
3.9039043E+002
  0
LINE
  8
99
  6
CONTINUOUS
 62
1
 10
1.082115E+002
 20
3.9039043E+002
 11
1.082115E+002
 21
3.889731E+002
  0
LINE
  8
99
  6
CONTINUOUS
 62
1
 10
1.082115E+002
 20
3.889731E+002
 11
1.042115E+002
 21
3.889731E+002
  0
LINE
  8
99
  6
CONTINUOUS
 62
1
 10
1.042115E+002
 20
3.889731E+002
 11
1.042115E+002
 21
3.929731E+002
  0
LINE
  8
99
  6
CONTINUOUS
 62
1
 10
1.032115E+002
 20
3.939731E+002
 11
1.032115E+002
 21
3.929731E+002
  0
LINE
  8
99
  6
CONTINUOUS
 62
1
 10
1.032115E+002
 20
3.929731E+002
 11
1.152115E+002
 21
3.929731E+002
  0
LINE
  8
99
  6
CONTINUOUS
 62
1
 10
1.152115E+002
 20
3.929731E+002
 11
1.152115E+002
 21
3.939731E+002
  0
LINE
  8
99
  6
CONTINUOUS
 62
1
 10
1.552115E+002
 20
3.939731E+002
 11
1.552115E+002
 21
3.929731E+002
  0
LINE
  8
99
  6
CONTINUOUS
 62
1
 10
1.552115E+002
 20
3.929731E+002
 11
1.6721149E+002
 21
3.929731E+002
  0
LINE
  8
99
  6
CONTINUOUS
 62
1
 10
1.6721149E+002
 20
3.929731E+002
 11
1.6721149E+002
 21
3.939731E+002
  0
LINE
  8
105
  6
HIDDEN
 62
1
 10
1.7171149E+002
 20
3.969731E+002
 11
1.7171149E+002
 21
3.939731E+002
  0
LINE
  8
105
  6
HIDDEN
 62
1
 10
1.507115E+002
 20
3.969731E+002
 11
1.507115E+002
 21
3.939731E+002
  0
LINE
  8
105
  6
HIDDEN
 62
1
 10
1.197115E+002
 20
3.969731E+002
 11
1.197115E+002
 21
3.939731E+002
  0
LINE
  8
105
  6
HIDDEN
 62
1
 10
9.8711497E+001
 20
3.969731E+002
 11
9.8711497E+001
 21
3.939731E+002
  0
ARC
  8
104
  6
CONTINUOUS
 62
40
 10
1.562115E+002
 20
3.769731E+002
 40
2.0999998E+001
 50
2.9824256E+002
 51
3.8520879E+002
  0
ARC
  8
104
  6
CONTINUOUS
 62
40
 10
1.142115E+002
 20
3.769731E+002
 40
2.1000004E+001
 50
1.5479122E+002
 51
2.4175742E+002
  0
ARC
  8
104
  6
CONTINUOUS
 62
40
 10
1.1421149E+002
 20
3.769731E+002
 40
1.8749998E+001
 50
2.0192134E+002
 51
3.3807866E+002
  0
ARC
  8
104
  6
CONTINUOUS
 62
40
 10
1.5621149E+002
 20
3.769731E+002
 40
1.8749991E+001
 50
2.0192135E+002
 51
3.3807865E+002
  0
LINE
  8
104
  6
CONTINUOUS
 62
40
 10
1.7521149E+002
 20
3.709731E+002
 11
9.5211497E+001
 21
3.709731E+002
  0
LINE
  8
104
  6
CONTINUOUS
 62
40
 10
9.5211497E+001
 20
3.709731E+002
 11
9.5211497E+001
 21
3.969731E+002
  0
LINE
  8
104
  6
CONTINUOUS
 62
40
 10
9.5211497E+001
 20
3.969731E+002
 11
1.7521149E+002
 21
3.969731E+002
  0
LINE
  8
104
  6
CONTINUOUS
 62
40
 10
1.7521149E+002
 20
3.969731E+002
 11
1.7521149E+002
 21
3.709731E+002
  0
LINE
  8
104
  6
CONTINUOUS
 62
40
 10
9.5211497E+001
 20
3.939731E+002
 11
1.7521149E+002
 21
3.939731E+002
  0
LINE
  8
106
  6
CENTERLINE
 62
1
 10
1.6121149E+002
 20
4.000024E+002
 11
1.6121149E+002
 21
3.8719024E+002
  0
LINE
  8
106
  6
CENTERLINE
 62
1
 10
1.092115E+002
 20
3.9986568E+002
 11
1.092115E+002
 21
3.8800613E+002
  0
LINE
  8
106
  6
CENTERLINE
 62
1
 10
4.9347407E+002
 20
3.6665804E+002
 11
4.9347407E+002
 21
3.4751742E+002
  0
LINE
  8
106
  6
CENTERLINE
 62
1
 10
5.0747404E+002
 20
3.4697054E+002
 11
5.0747404E+002
 21
3.6775179E+002
  0
LINE
  8
105
  6
HIDDEN
 62
1
 10
2.9662408E+002
 20
3.525252E+002
 11
2.8232409E+002
 21
3.4052524E+002
  0
LINE
  8
105
  6
HIDDEN
 62
1
 10
2.8232409E+002
 20
3.525252E+002
 11
2.9662408E+002
 21
3.4052524E+002
  0
LINE
  8
105
  6
HIDDEN
 62
1
 10
2.2967407E+002
 20
3.9302517E+002
 11
2.2967407E+002
 21
3.970252E+002
  0
LINE
  8
105
  6
HIDDEN
 62
1
 10
2.3327408E+002
 20
3.9302517E+002
 11
2.3327408E+002
 21
3.970252E+002
  0
LINE
  8
99
  6
CONTINUOUS
 62
1
 10
2.8232409E+002
 20
3.525252E+002
 11
2.8232409E+002
 21
3.515252E+002
  0
LINE
  8
99
  6
CONTINUOUS
 62
1
 10
2.9662408E+002
 20
3.525252E+002
 11
2.9662408E+002
 21
3.515252E+002
  0
LINE
  8
99
  6
CONTINUOUS
 62
1
 10
2.2847409E+002
 20
3.9302517E+002
 11
2.2847409E+002
 21
3.9125274E+002
  0
LINE
  8
99
  6
CONTINUOUS
 62
1
 10
2.2847409E+002
 20
3.9125274E+002
 11
2.3447409E+002
 21
3.9125274E+002
  0
LINE
  8
99
  6
CONTINUOUS
 62
1
 10
2.3447409E+002
 20
3.9125274E+002
 11
2.3447409E+002
 21
3.9302517E+002
  0
LINE
  8
105
  6
HIDDEN
 62
1
 10
2.2847409E+002
 20
3.9302517E+002
 11
2.2847409E+002
 21
3.9703063E+002
  0
LINE
  8
105
  6
HIDDEN
 62
1
 10
2.3447409E+002
 20
3.9302517E+002
 11
2.3447409E+002
 21
3.970201E+002
  0
LINE
  8
106
  6
CENTERLINE
 62
1
 10
2.3147409E+002
 20
3.9057189E+002
 11
2.3147409E+002
 21
4.008485E+002
  0
LINE
  8
99
  6
CONTINUOUS
 62
1
 10
2.2967407E+002
 20
3.9302517E+002
 11
2.2967407E+002
 21
3.9125274E+002
  0
LINE
  8
99
  6
CONTINUOUS
 62
1
 10
2.3327408E+002
 20
3.9302517E+002
 11
2.3327408E+002
 21
3.9125274E+002
  0
LINE
  8
104
  6
CONTINUOUS
 62
40
 10
2.2597409E+002
 20
3.925252E+002
 11
2.2847922E+002
 21
3.925252E+002
  0
LINE
  8
104
  6
CONTINUOUS
 62
40
 10
2.3447922E+002
 20
3.925252E+002
 11
2.3547409E+002
 21
3.925252E+002
  0
LINE
  8
104
  6
CONTINUOUS
 62
40
 10
2.2597409E+002
 20
3.925252E+002
 11
2.2497409E+002
 21
3.9104519E+002
  0
LINE
  8
104
  6
CONTINUOUS
 62
40
 10
2.2497409E+002
 20
3.9104519E+002
 11
2.2497409E+002
 21
3.765252E+002
  0
LINE
  8
106
  6
CENTERLINE
 62
1
 10
2.3147409E+002
 20
3.895252E+002
 11
2.3147409E+002
 21
3.6765203E+002
  0
LINE
  8
104
  6
CONTINUOUS
 62
40
 10
2.2597409E+002
 20
3.895252E+002
 11
2.2597409E+002
 21
3.925252E+002
  0
LINE
  8
104
  6
CONTINUOUS
 62
40
 10
2.2597409E+002
 20
3.895252E+002
 11
2.2577548E+002
 21
3.8845159E+002
  0
LINE
  8
104
  6
CONTINUOUS
 62
40
 10
2.2577548E+002
 20
3.8845159E+002
 11
2.2547934E+002
 21
3.8763714E+002
  0
LINE
  8
104
  6
CONTINUOUS
 62
40
 10
2.2547934E+002
 20
3.8763714E+002
 11
2.2533124E+002
 21
3.863044E+002
  0
LINE
  8
104
  6
CONTINUOUS
 62
40
 10
2.2533124E+002
 20
3.863044E+002
 11
2.2503506E+002
 21
3.8519378E+002
  0
LINE
  8
104
  6
CONTINUOUS
 62
40
 10
2.2503506E+002
 20
3.8519378E+002
 11
2.2497409E+002
 21
3.8431109E+002
  0
LINE
  8
104
  6
CONTINUOUS
 62
40
 10
2.2497409E+002
 20
3.8431109E+002
 11
2.2497409E+002
 21
3.838576E+002
  0
LINE
  8
104
  6
CONTINUOUS
 62
40
 10
2.2497409E+002
 20
3.838576E+002
 11
2.2508713E+002
 21
3.8350127E+002
  0
LINE
  8
104
  6
CONTINUOUS
 62
40
 10
2.2508713E+002
 20
3.8350127E+002
 11
2.2526529E+002
 21
3.8314495E+002
  0
LINE
  8
104
  6
CONTINUOUS
 62
40
 10
2.2526529E+002
 20
3.8314495E+002
 11
2.2544345E+002
 21
3.829182E+002
  0
LINE
  8
104
  6
CONTINUOUS
 62
40
 10
2.2594293E+002
 20
3.655252E+002
 11
2.2562741E+002
 21
3.6646139E+002
  0
LINE
  8
104
  6
CONTINUOUS
 62
40
 10
2.2562741E+002
 20
3.6646139E+002
 11
2.2533124E+002
 21
3.6764605E+002
  0
LINE
  8
104
  6
CONTINUOUS
 62
40
 10
2.2533124E+002
 20
3.6764605E+002
 11
2.2503506E+002
 21
3.6927495E+002
  0
LINE
  8
104
  6
CONTINUOUS
 62
40
 10
2.2503506E+002
 20
3.6927495E+002
 11
2.2496103E+002
 21
3.7060769E+002
  0
LINE
  8
104
  6
CONTINUOUS
 62
40
 10
2.2496103E+002
 20
3.7060769E+002
 11
2.2518317E+002
 21
3.7179235E+002
  0
LINE
  8
104
  6
CONTINUOUS
 62
40
 10
2.2518317E+002
 20
3.7179235E+002
 11
2.2527475E+002
 21
3.725252E+002
  0
LINE
  8
104
  6
CONTINUOUS
 62
40
 10
2.2597409E+002
 20
3.655252E+002
 11
2.2597409E+002
 21
3.6266479E+002
  0
LINE
  8
104
  6
CONTINUOUS
 62
40
 10
2.2497409E+002
 20
3.725252E+002
 11
2.2497409E+002
 21
3.6366503E+002
  0
LINE
  8
104
  6
CONTINUOUS
 62
40
 10
2.2497409E+002
 20
3.6366503E+002
 11
2.2611362E+002
 21
3.625252E+002
  0
LINE
  8
104
  6
CONTINUOUS
 62
40
 10
5.0147404E+002
 20
3.960252E+002
 11
5.0147404E+002
 21
3.965252E+002
  0
LINE
  8
104
  6
CONTINUOUS
 62
40
 10
5.0147404E+002
 20
3.965252E+002
 11
4.8554268E+002
 21
3.965252E+002
  0
LINE
  8
104
  6
CONTINUOUS
 62
40
 10
4.8554268E+002
 20
3.965252E+002
 11
4.8554268E+002
 21
3.960252E+002
  0
LINE
  8
104
  6
CONTINUOUS
 62
40
 10
2.3547409E+002
 20
3.895252E+002
 11
2.2585757E+002
 21
3.895252E+002
  0
LINE
  8
104
  6
CONTINUOUS
 62
40
 10
2.3547409E+002
 20
3.655252E+002
 11
2.2594293E+002
 21
3.655252E+002
  0
LINE
  8
104
  6
CONTINUOUS
 62
40
 10
2.3547409E+002
 20
3.625252E+002
 11
2.2611362E+002
 21
3.625252E+002
  0
LINE
  8
104
  6
CONTINUOUS
 62
40
 10
2.3547409E+002
 20
3.685252E+002
 11
2.3547409E+002
 21
3.6244765E+002
  0
ARC
  8
104
  6
CONTINUOUS
 62
40
 10
2.3747406E+002
 20
3.6244762E+002
 40
1.9999669
 50
1.7999905E+002
 51
2.7000095E+002
  0
LINE
  8
104
  6
CONTINUOUS
 62
40
 10
2.3747409E+002
 20
3.6044765E+002
 11
2.4056299E+002
 21
3.6044765E+002
  0
LINE
  8
104
  6
CONTINUOUS
 62
40
 10
2.3547409E+002
 20
3.8740008E+002
 11
2.3547409E+002
 21
3.925252E+002
  0
LINE
  8
104
  6
CONTINUOUS
 62
40
 10
2.3547409E+002
 20
3.925252E+002
 11
2.355376E+002
 21
3.930252E+002
  0
LINE
  8
104
  6
CONTINUOUS
 62
40
 10
2.3847409E+002
 20
3.945252E+002
 11
2.4061502E+002
 21
3.945252E+002
  0
LINE
  8
104
  6
CONTINUOUS
 62
40
 10
2.5294885E+002
 20
3.960252E+002
 11
2.4255151E+002
 21
3.960252E+002
  0
ARC
  8
104
  6
CONTINUOUS
 62
40
 10
2.4255155E+002
 20
3.9402516E+002
 40
2.0000393
 50
9.0001167E+001
 51
1.7799906E+002
  0
LINE
  8
104
  6
CONTINUOUS
 62
40
 10
2.4055273E+002
 20
3.9409499E+002
 11
2.4039554E+002
 21
3.8959362E+002
  0
ARC
  8
104
  6
CONTINUOUS
 62
40
 10
2.3839684E+002
 20
3.8966332E+002
 40
1.999917
 50
2.7499812E+002
 51
3.580026E+002
  0
LINE
  8
104
  6
CONTINUOUS
 62
40
 10
2.3857107E+002
 20
3.8767101E+002
 11
2.3587002E+002
 21
3.8743471E+002
  0
LINE
  8
104
  6
CONTINUOUS
 62
40
 10
2.8947408E+002
 20
3.960252E+002
 11
2.6452547E+002
 21
3.960252E+002
  0
LINE
  8
104
  6
CONTINUOUS
 62
40
 10
2.6452547E+002
 20
3.960252E+002
 11
2.6452547E+002
 21
3.965252E+002
  0
LINE
  8
104
  6
CONTINUOUS
 62
40
 10
2.6452547E+002
 20
3.965252E+002
 11
2.5427173E+002
 21
3.965252E+002
  0
ARC
  8
104
  6
CONTINUOUS
 62
40
 10
2.5427177E+002
 20
3.9452516E+002
 40
2.0000393
 50
9.0001274E+001
 51
1.7224867E+002
  0
LINE
  8
104
  6
CONTINUOUS
 62
40
 10
2.5229001E+002
 20
3.9479491E+002
 11
2.516896E+002
 21
3.9038329E+002
  0
ARC
  8
104
  6
CONTINUOUS
 62
40
 10
2.4970788E+002
 20
3.9065302E+002
 40
1.9999955
 50
2.7499937E+002
 51
3.5224915E+002
  0
LINE
  8
104
  6
CONTINUOUS
 62
40
 10
2.4988217E+002
 20
3.8866064E+002
 11
2.2729977E+002
 21
3.8668493E+002
  0
ARC
  8
104
  6
CONTINUOUS
 62
40
 10
2.2747411E+002
 20
3.846925E+002
 40
2.0000375
 50
9.5000682E+001
 51
1.7999846E+002
  0
LINE
  8
104
  6
CONTINUOUS
 62
40
 10
2.2547407E+002
 20
3.8469256E+002
 11
2.2547407E+002
 21
3.785252E+002
  0
ARC
  8
104
  6
CONTINUOUS
 62
40
 10
2.2747405E+002
 20
3.7852518E+002
 40
1.9999791
 50
1.799994E+002
 51
2.7000103E+002
  0
LINE
  8
104
  6
CONTINUOUS
 62
40
 10
2.2747409E+002
 20
3.765252E+002
 11
2.3747409E+002
 21
3.765252E+002
  0
LINE
  8
104
  6
CONTINUOUS
 62
40
 10
2.8496297E+002
 20
3.775252E+002
 11
2.3747409E+002
 21
3.775252E+002
  0
LINE
  8
104
  6
CONTINUOUS
 62
40
 10
2.3747409E+002
 20
3.775252E+002
 11
2.3747409E+002
 21
3.765252E+002
  0
LINE
  8
104
  6
CONTINUOUS
 62
40
 10
2.3747409E+002
 20
3.775252E+002
 11
2.3529306E+002
 21
3.775252E+002
  0
LINE
  8
104
  6
CONTINUOUS
 62
40
 10
4.8547407E+002
 20
3.960252E+002
 11
4.8570527E+002
 21
3.923333E+002
  0
LINE
  8
104
  6
CONTINUOUS
 62
40
 10
4.8570527E+002
 20
3.923333E+002
 11
4.8599385E+002
 21
3.8848522E+002
  0
ARC
  8
104
  6
CONTINUOUS
 62
40
 10
5.0400082E+002
 20
3.9005717E+002
 40
1.8075451E+001
 50
1.8498907E+002
 51
1.8846734E+002
  0
ARC
  8
104
  6
CONTINUOUS
 62
40
 10
5.4415586E+002
 20
3.9584542E+002
 40
5.8645393E+001
 50
1.8828416E+002
 51
1.8987122E+002
  0
ARC
  8
104
  6
CONTINUOUS
 62
40
 10
4.996479E+002
 20
3.8794835E+002
 40
1.3443358E+001
 50
1.8923204E+002
 51
1.947626E+002
  0
ARC
  8
104
  6
CONTINUOUS
 62
40
 10
4.9245708E+002
 20
3.860838E+002
 40
6.0148632
 50
1.9504193E+002
 51
1.9973127E+002
  0
ARC
  8
104
  6
CONTINUOUS
 62
40
 10
4.9009014E+002
 20
3.8522932E+002
 40
3.4984218
 50
1.9964604E+002
 51
2.0637513E+002
  0
ARC
  8
104
  6
CONTINUOUS
 62
40
 10
4.9190155E+002
 20
3.861612E+002
 40
5.535344
 50
2.0668732E+002
 51
2.2812259E+002
  0
LINE
  8
104
  6
CONTINUOUS
 62
40
 10
5.0147404E+002
 20
3.960252E+002
 11
5.0124296E+002
 21
3.923333E+002
  0
LINE
  8
104
  6
CONTINUOUS
 62
40
 10
5.0124296E+002
 20
3.923333E+002
 11
5.0095427E+002
 21
3.8848522E+002
  0
ARC
  8
104
  6
CONTINUOUS
 62
40
 10
4.8296593E+002
 20
3.900541E+002
 40
1.8056622E+001
 50
3.515336E+002
 51
3.5501548E+002
  0
ARC
  8
104
  6
CONTINUOUS
 62
40
 10
4.4285182E+002
 20
3.9583558E+002
 40
5.8585094E+001
 50
3.5012828E+002
 51
3.5171697E+002
  0
ARC
  8
104
  6
CONTINUOUS
 62
40
 10
4.8732005E+002
 20
3.8794336E+002
 40
1.3423049E+001
 50
3.4523657E+002
 51
3.5077544E+002
  0
ARC
  8
104
  6
CONTINUOUS
 62
40
 10
4.9449934E+002
 20
3.8608174E+002
 40
6.0064441
 50
3.4026075E+002
 51
3.4495678E+002
  0
ARC
  8
104
  6
CONTINUOUS
 62
40
 10
4.9686218E+002
 20
3.8522838E+002
 40
3.4942417
 50
3.3360818E+002
 51
3.4034595E+002
  0
ARC
  8
104
  6
CONTINUOUS
 62
40
 10
4.9504684E+002
 20
3.8616099E+002
 40
5.5350017
 50
3.1187674E+002
 51
3.3331335E+002
  0
LINE
  8
104
  6
CONTINUOUS
 62
40
 10
4.8547407E+002
 20
3.775252E+002
 11
4.8607014E+002
 21
3.604554E+002
  0
ARC
  8
104
  6
CONTINUOUS
 62
40
 10
4.8806886E+002
 20
3.6052516E+002
 40
1.9999341
 50
1.8199889E+002
 51
2.700018E+002
  0
LINE
  8
104
  6
CONTINUOUS
 62
40
 10
4.8806892E+002
 20
3.5852523E+002
 11
4.9887919E+002
 21
3.5852523E+002
  0
ARC
  8
104
  6
CONTINUOUS
 62
40
 10
4.9887921E+002
 20
3.6052521E+002
 40
1.9999845
 50
2.6999962E+002
 51
3.5799971E+002
  0
LINE
  8
104
  6
CONTINUOUS
 62
40
 10
5.0087797E+002
 20
3.604554E+002
 11
5.0147404E+002
 21
3.7752532E+002
  0
LINE
  8
104
  6
CONTINUOUS
 62
40
 10
3.4902898E+002
 20
3.960252E+002
 11
3.5189668E+002
 21
3.960252E+002
  0
ARC
  8
104
  6
CONTINUOUS
 62
40
 10
3.5189661E+002
 20
3.9402512E+002
 40
2.0000762
 50
2.0019643
 51
8.9997811E+001
  0
LINE
  8
104
  6
CONTINUOUS
 62
40
 10
3.5389546E+002
 20
3.9409499E+002
 11
3.5447407E+002
 21
3.775252E+002
  0
LINE
  8
104
  6
CONTINUOUS
 62
40
 10
3.5447407E+002
 20
3.775252E+002
 11
3.5387797E+002
 21
3.604554E+002
  0
ARC
  8
104
  6
CONTINUOUS
 62
40
 10
3.5187921E+002
 20
3.6052521E+002
 40
1.99998
 50
2.699995E+002
 51
3.5799984E+002
  0
LINE
  8
104
  6
CONTINUOUS
 62
40
 10
3.5187919E+002
 20
3.5852523E+002
 11
3.4626112E+002
 21
3.5852523E+002
  0
LINE
  8
106
  6
CENTERLINE
 62
1
 10
2.8947408E+002
 20
4.030877E+002
 11
2.8947408E+002
 21
3.3627524E+002
  0
LINE
  8
104
  6
CONTINUOUS
 62
40
 10
2.7347408E+002
 20
3.585252E+002
 11
2.7347408E+002
 21
3.560252E+002
  0
ARC
  8
104
  6
CONTINUOUS
 62
40
 10
2.7497404E+002
 20
3.5602516E+002
 40
1.4999615
 50
1.7999853E+002
 51
2.7000147E+002
  0
LINE
  8
104
  6
CONTINUOUS
 62
40
 10
2.7497408E+002
 20
3.545252E+002
 11
3.0397408E+002
 21
3.545252E+002
  0
ARC
  8
104
  6
CONTINUOUS
 62
40
 10
3.039741E+002
 20
3.560252E+002
 40
1.4999977
 50
2.6999934E+002
 51
3.6000009E+002
  0
LINE
  8
104
  6
CONTINUOUS
 62
40
 10
3.054741E+002
 20
3.560252E+002
 11
3.054741E+002
 21
3.585252E+002
  0
LINE
  8
104
  6
CONTINUOUS
 62
40
 10
2.9962408E+002
 20
3.545252E+002
 11
2.9962408E+002
 21
3.525252E+002
  0
LINE
  8
104
  6
CONTINUOUS
 62
40
 10
2.9962408E+002
 20
3.525252E+002
 11
2.7932409E+002
 21
3.525252E+002
  0
LINE
  8
104
  6
CONTINUOUS
 62
40
 10
2.7932409E+002
 20
3.525252E+002
 11
2.7932409E+002
 21
3.545252E+002
  0
LINE
  8
105
  6
HIDDEN
 62
1
 10
2.8232409E+002
 20
3.515252E+002
 11
2.8232409E+002
 21
3.4052524E+002
  0
LINE
  8
105
  6
HIDDEN
 62
1
 10
2.8232409E+002
 20
3.4052524E+002
 11
2.9662408E+002
 21
3.4052524E+002
  0
LINE
  8
105
  6
HIDDEN
 62
1
 10
2.9662408E+002
 20
3.4052524E+002
 11
2.9662408E+002
 21
3.515252E+002
  0
LINE
  8
104
  6
CONTINUOUS
 62
40
 10
3.0943029E+002
 20
3.585252E+002
 11
3.0943029E+002
 21
3.605252E+002
  0
LINE
  8
104
  6
CONTINUOUS
 62
40
 10
3.0943029E+002
 20
3.605252E+002
 11
2.6108086E+002
 21
3.605252E+002
  0
LINE
  8
104
  6
CONTINUOUS
 62
40
 10
2.6108086E+002
 20
3.605252E+002
 11
2.6108086E+002
 21
3.585252E+002
  0
LINE
  8
104
  6
CONTINUOUS
 62
40
 10
5.1681938E+002
 20
3.587752E+002
 11
5.2197415E+002
 21
3.587752E+002
  0
LINE
  8
104
  6
CONTINUOUS
 62
40
 10
5.2197415E+002
 20
3.587752E+002
 11
5.2297415E+002
 21
3.597752E+002
  0
LINE
  8
104
  6
CONTINUOUS
 62
40
 10
5.2297415E+002
 20
3.597752E+002
 11
5.2297415E+002
 21
3.952752E+002
  0
LINE
  8
104
  6
CONTINUOUS
 62
40
 10
5.2297415E+002
 20
3.952752E+002
 11
5.2197415E+002
 21
3.962752E+002
  0
LINE
  8
104
  6
CONTINUOUS
 62
40
 10
5.2197415E+002
 20
3.962752E+002
 11
5.1681938E+002
 21
3.962752E+002
  0
LINE
  8
104
  6
CONTINUOUS
 62
40
 10
5.1681938E+002
 20
3.962752E+002
 11
5.1681938E+002
 21
3.960252E+002
  0
LINE
  8
104
  6
CONTINUOUS
 62
40
 10
5.1681059E+002
 20
3.585252E+002
 11
5.1747415E+002
 21
3.775252E+002
  0
LINE
  8
104
  6
CONTINUOUS
 62
40
 10
5.1747415E+002
 20
3.775252E+002
 11
5.1682805E+002
 21
3.960252E+002
  0
LINE
  8
104
  6
CONTINUOUS
 62
40
 10
5.1682805E+002
 20
3.960252E+002
 11
5.0046513E+002
 21
3.960252E+002
  0
LINE
  8
104
  6
CONTINUOUS
 62
40
 10
4.8698555E+002
 20
3.960252E+002
 11
2.8947408E+002
 21
3.960252E+002
  0
LINE
  8
104
  6
CONTINUOUS
 62
40
 10
2.6452547E+002
 20
3.960252E+002
 11
2.620313E+002
 21
3.960252E+002
  0
LINE
  8
104
  6
CONTINUOUS
 62
40
 10
2.504418E+002
 20
3.585252E+002
 11
5.1681059E+002
 21
3.585252E+002
  0
LINE
  8
104
  6
CONTINUOUS
 62
40
 10
2.504418E+002
 20
3.585252E+002
 11
2.4256149E+002
 21
3.585252E+002
  0
ARC
  8
104
  6
CONTINUOUS
 62
40
 10
2.4256149E+002
 20
3.605252E+002
 40
2.0000048
 50
1.8222219E+002
 51
2.7000012E+002
  0
LINE
  8
104
  6
CONTINUOUS
 62
40
 10
2.4056299E+002
 20
3.6044765E+002
 11
2.3993918E+002
 21
3.765252E+002
  0
LINE
  8
104
  6
CONTINUOUS
 62
40
 10
2.3993918E+002
 20
3.765252E+002
 11
2.3997409E+002
 21
3.775252E+002
  0
LINE
  8
105
  6
HIDDEN
 62
1
 10
5.3747415E+002
 20
3.9702523E+002
 11
5.3747415E+002
 21
3.940252E+002
  0
LINE
  8
105
  6
HIDDEN
 62
1
 10
5.4147415E+002
 20
3.940252E+002
 11
5.4147415E+002
 21
3.9702523E+002
  0
LINE
  8
104
  6
CONTINUOUS
 62
40
 10
2.3647409E+002
 20
3.725252E+002
 11
2.3647409E+002
 21
3.685252E+002
  0
LINE
  8
104
  6
CONTINUOUS
 62
40
 10
2.3647409E+002
 20
3.685252E+002
 11
2.3247409E+002
 21
3.685252E+002
  0
LINE
  8
104
  6
CONTINUOUS
 62
40
 10
2.3247409E+002
 20
3.685252E+002
 11
2.3247409E+002
 21
3.6994253E+002
  0
LINE
  8
104
  6
CONTINUOUS
 62
40
 10
2.3247409E+002
 20
3.6994253E+002
 11
2.3047409E+002
 21
3.6994253E+002
  0
LINE
  8
104
  6
CONTINUOUS
 62
40
 10
2.3047409E+002
 20
3.6994253E+002
 11
2.3047409E+002
 21
3.685252E+002
  0
LINE
  8
104
  6
CONTINUOUS
 62
40
 10
2.3047409E+002
 20
3.685252E+002
 11
2.2647409E+002
 21
3.685252E+002
  0
LINE
  8
104
  6
CONTINUOUS
 62
40
 10
2.2647409E+002
 20
3.685252E+002
 11
2.2647409E+002
 21
3.725252E+002
  0
LINE
  8
99
  6
CONTINUOUS
 62
1
 10
5.4447415E+002
 20
3.9242519E+002
 11
5.4447415E+002
 21
3.8842519E+002
  0
LINE
  8
99
  6
CONTINUOUS
 62
1
 10
5.4447415E+002
 20
3.8842519E+002
 11
5.4047415E+002
 21
3.8842519E+002
  0
LINE
  8
99
  6
CONTINUOUS
 62
1
 10
5.4047415E+002
 20
3.8842519E+002
 11
5.4047415E+002
 21
3.8984252E+002
  0
LINE
  8
99
  6
CONTINUOUS
 62
1
 10
5.4047415E+002
 20
3.8984252E+002
 11
5.3847415E+002
 21
3.8984252E+002
  0
LINE
  8
99
  6
CONTINUOUS
 62
1
 10
5.3847415E+002
 20
3.8984252E+002
 11
5.3847415E+002
 21
3.8842519E+002
  0
LINE
  8
99
  6
CONTINUOUS
 62
1
 10
5.3847415E+002
 20
3.8842519E+002
 11
5.3447415E+002
 21
3.8842519E+002
  0
LINE
  8
99
  6
CONTINUOUS
 62
1
 10
5.3447415E+002
 20
3.8842519E+002
 11
5.3447415E+002
 21
3.9242519E+002
  0
LINE
  8
105
  6
HIDDEN
 62
1
 10
2.2847409E+002
 20
3.725252E+002
 11
2.2847409E+002
 21
3.8678768E+002
  0
LINE
  8
105
  6
HIDDEN
 62
1
 10
2.2927408E+002
 20
3.725252E+002
 11
2.2927408E+002
 21
3.8685766E+002
  0
LINE
  8
105
  6
HIDDEN
 62
1
 10
2.3367407E+002
 20
3.725252E+002
 11
2.3367407E+002
 21
3.8724261E+002
  0
LINE
  8
105
  6
HIDDEN
 62
1
 10
2.3447409E+002
 20
3.8731261E+002
 11
2.3447409E+002
 21
3.725252E+002
  0
LINE
  8
104
  6
CONTINUOUS
 62
40
 10
2.2847409E+002
 20
3.8678768E+002
 11
2.2847409E+002
 21
3.8834924E+002
  0
LINE
  8
104
  6
CONTINUOUS
 62
40
 10
2.2847409E+002
 20
3.8834924E+002
 11
2.3447409E+002
 21
3.8834924E+002
  0
LINE
  8
104
  6
CONTINUOUS
 62
40
 10
2.3447409E+002
 20
3.8834924E+002
 11
2.3447409E+002
 21
3.8731261E+002
  0
LINE
  8
99
  6
CONTINUOUS
 62
1
 10
2.2927408E+002
 20
3.8685766E+002
 11
2.2927408E+002
 21
3.8834924E+002
  0
LINE
  8
99
  6
CONTINUOUS
 62
1
 10
2.3367407E+002
 20
3.8724261E+002
 11
2.3367407E+002
 21
3.8834924E+002
  0
LINE
  8
105
  6
HIDDEN
 62
1
 10
5.3647415E+002
 20
3.9702523E+002
 11
5.3647415E+002
 21
3.940252E+002
  0
LINE
  8
105
  6
HIDDEN
 62
1
 10
5.4247415E+002
 20
3.9702523E+002
 11
5.4247415E+002
 21
3.940252E+002
  0
LINE
  8
99
  6
CONTINUOUS
 62
1
 10
5.3322415E+002
 20
3.940252E+002
 11
5.3322415E+002
 21
3.9242519E+002
  0
LINE
  8
99
  6
CONTINUOUS
 62
1
 10
5.3322415E+002
 20
3.9242519E+002
 11
5.4572415E+002
 21
3.9242519E+002
  0
LINE
  8
99
  6
CONTINUOUS
 62
1
 10
5.4572415E+002
 20
3.9242519E+002
 11
5.4572415E+002
 21
3.940252E+002
  0
LINE
  8
106
  6
CENTERLINE
 62
1
 10
5.3947415E+002
 20
3.8781698E+002
 11
5.3947415E+002
 21
3.993709E+002
  0
LINE
  8
104
  6
CONTINUOUS
 62
40
 10
5.2757413E+002
 20
3.830252E+002
 11
5.3257413E+002
 21
3.830252E+002
  0
LINE
  8
104
  6
CONTINUOUS
 62
40
 10
5.3257413E+002
 20
3.830252E+002
 11
5.3257413E+002
 21
3.730252E+002
  0
LINE
  8
99
  6
CONTINUOUS
 62
1
 10
5.2757413E+002
 20
3.780252E+002
 11
5.3198086E+002
 21
3.780252E+002
  0
LINE
  8
99
  6
CONTINUOUS
 62
1
 10
5.3198086E+002
 20
3.780252E+002
 11
5.3257413E+002
 21
3.780252E+002
  0
LINE
  8
104
  6
CONTINUOUS
 62
40
 10
5.2757413E+002
 20
3.730252E+002
 11
5.3257413E+002
 21
3.730252E+002
  0
LINE
  8
104
  6
CONTINUOUS
 62
40
 10
5.2597415E+002
 20
3.717752E+002
 11
5.2757413E+002
 21
3.717752E+002
  0
LINE
  8
104
  6
CONTINUOUS
 62
40
 10
5.2757413E+002
 20
3.717752E+002
 11
5.2757413E+002
 21
3.842752E+002
  0
LINE
  8
104
  6
CONTINUOUS
 62
40
 10
5.2757413E+002
 20
3.842752E+002
 11
5.2597415E+002
 21
3.842752E+002
  0
LINE
  8
106
  6
CENTERLINE
 62
1
 10
5.3398807E+002
 20
3.780252E+002
 11
5.183566E+002
 21
3.780252E+002
  0
LINE
  8
104
  6
CONTINUOUS
 62
40
 10
5.4797415E+002
 20
3.970252E+002
 11
5.4797415E+002
 21
3.940252E+002
  0
LINE
  8
104
  6
CONTINUOUS
 62
40
 10
5.4797415E+002
 20
3.940252E+002
 11
5.2697415E+002
 21
3.940252E+002
  0
ARC
  8
104
  6
CONTINUOUS
 62
40
 10
5.2697408E+002
 20
3.9302515E+002
 40
1.0000505
 50
8.9995902E+001
 51
1.7999711E+002
  0
LINE
  8
104
  6
CONTINUOUS
 62
40
 10
5.2597403E+002
 20
3.930252E+002
 11
5.2597403E+002
 21
3.710252E+002
  0
LINE
  8
104
  6
CONTINUOUS
 62
40
 10
5.2597403E+002
 20
3.710252E+002
 11
5.2297415E+002
 21
3.710252E+002
  0
LINE
  8
104
  6
CONTINUOUS
 62
40
 10
5.2297415E+002
 20
3.710252E+002
 11
5.2297415E+002
 21
3.930252E+002
  0
ARC
  8
104
  6
CONTINUOUS
 62
40
 10
5.269742E+002
 20
3.9302517E+002
 40
4.0000542
 50
9.0000776E+001
 51
1.7999965E+002
  0
LINE
  8
104
  6
CONTINUOUS
 62
40
 10
5.2697415E+002
 20
3.9702523E+002
 11
5.4797415E+002
 21
3.9702523E+002
  0
LINE
  8
105
  6
HIDDEN
 62
1
 10
2.2296957E+002
 20
3.7275692E+002
 11
2.2070804E+002
 21
3.705252E+002
  0
LINE
  8
105
  6
HIDDEN
 62
1
 10
2.2070804E+002
 20
3.705252E+002
 11
2.1947409E+002
 21
3.705252E+002
  0
LINE
  8
105
  6
HIDDEN
 62
1
 10
2.1947409E+002
 20
3.645252E+002
 11
2.2070804E+002
 21
3.645252E+002
  0
LINE
  8
105
  6
HIDDEN
 62
1
 10
2.2070804E+002
 20
3.645252E+002
 11
2.2070804E+002
 21
3.705252E+002
  0
LINE
  8
105
  6
HIDDEN
 62
1
 10
2.2070804E+002
 20
3.645252E+002
 11
2.2347409E+002
 21
3.6179565E+002
  0
LINE
  8
106
  6
CENTERLINE
 62
1
 10
2.2407706E+002
 20
3.675252E+002
 11
2.1162152E+002
 21
3.675252E+002
  0
LINE
  8
105
  6
HIDDEN
 62
1
 10
2.2070804E+002
 20
3.880252E+002
 11
2.1947411E+002
 21
3.880252E+002
  0
LINE
  8
105
  6
HIDDEN
 62
1
 10
2.1947411E+002
 20
3.820252E+002
 11
2.2070804E+002
 21
3.820252E+002
  0
LINE
  8
106
  6
CENTERLINE
 62
1
 10
2.2407706E+002
 20
3.850252E+002
 11
2.1189496E+002
 21
3.850252E+002
  0
LINE
  8
105
  6
HIDDEN
 62
1
 10
2.2347409E+002
 20
3.9075475E+002
 11
2.2074454E+002
 21
3.8806121E+002
  0
LINE
  8
105
  6
HIDDEN
 62
1
 10
2.2074454E+002
 20
3.8806121E+002
 11
2.2070804E+002
 21
3.820252E+002
  0
LINE
  8
105
  6
HIDDEN
 62
1
 10
2.2070804E+002
 20
3.820252E+002
 11
2.2347409E+002
 21
3.7929565E+002
  0
LINE
  8
104
  6
CONTINUOUS
 62
40
 10
2.1947409E+002
 20
3.8277642E+002
 11
2.1947409E+002
 21
3.5906737E+002
  0
LINE
  8
104
  6
CONTINUOUS
 62
40
 10
2.1947409E+002
 20
3.5906737E+002
 11
2.2347409E+002
 21
3.590252E+002
  0
LINE
  8
104
  6
CONTINUOUS
 62
40
 10
2.2347409E+002
 20
3.590252E+002
 11
2.2347409E+002
 21
3.7262621E+002
  0
LINE
  8
104
  6
CONTINUOUS
 62
40
 10
2.3847409E+002
 20
3.970252E+002
 11
2.2447409E+002
 21
3.970252E+002
  0
ARC
  8
104
  6
CONTINUOUS
 62
40
 10
2.244741E+002
 20
3.920252E+002
 40
4.9999958
 50
9.0000135E+001
 51
1.8000005E+002
  0
LINE
  8
104
  6
CONTINUOUS
 62
40
 10
2.1947411E+002
 20
3.920252E+002
 11
2.1947411E+002
 21
3.775252E+002
  0
ARC
  8
104
  6
CONTINUOUS
 62
40
 10
2.2447409E+002
 20
3.7752518E+002
 40
4.9999842
 50
1.7999982E+002
 51
2.7E+002
  0
LINE
  8
104
  6
CONTINUOUS
 62
40
 10
2.2447409E+002
 20
3.725252E+002
 11
2.3847409E+002
 21
3.725252E+002
  0
LINE
  8
104
  6
CONTINUOUS
 62
40
 10
2.3847409E+002
 20
3.725252E+002
 11
2.3847409E+002
 21
3.765252E+002
  0
LINE
  8
104
  6
CONTINUOUS
 62
40
 10
2.3847409E+002
 20
3.765252E+002
 11
2.2447409E+002
 21
3.765252E+002
  0
ARC
  8
104
  6
CONTINUOUS
 62
40
 10
2.2447409E+002
 20
3.7752518E+002
 40
9.9998016E-001
 50
1.7999886E+002
 51
2.7000022E+002
  0
LINE
  8
104
  6
CONTINUOUS
 62
40
 10
2.2347411E+002
 20
3.775252E+002
 11
2.2347411E+002
 21
3.920252E+002
  0
ARC
  8
104
  6
CONTINUOUS
 62
40
 10
2.244741E+002
 20
3.9202518E+002
 40
9.9999107E-001
 50
9.0000405E+001
 51
1.7999874E+002
  0
LINE
  8
104
  6
CONTINUOUS
 62
40
 10
2.2447409E+002
 20
3.9302517E+002
 11
2.3847409E+002
 21
3.9302517E+002
  0
LINE
  8
104
  6
CONTINUOUS
 62
40
 10
2.3847409E+002
 20
3.9302517E+002
 11
2.3847409E+002
 21
3.970252E+002
  0
LINE
  8
99
  6
CONTINUOUS
 62
1
 10
2.1947411E+002
 20
3.880252E+002
 11
2.1270804E+002
 21
3.880252E+002
  0
LINE
  8
99
  6
CONTINUOUS
 62
1
 10
2.1270804E+002
 20
3.880252E+002
 11
2.1270804E+002
 21
3.820252E+002
  0
LINE
  8
99
  6
CONTINUOUS
 62
1
 10
2.1270804E+002
 20
3.820252E+002
 11
2.1947409E+002
 21
3.820252E+002
  0
LINE
  8
99
  6
CONTINUOUS
 62
1
 10
2.1947411E+002
 20
3.870252E+002
 11
2.1270804E+002
 21
3.870252E+002
  0
LINE
  8
99
  6
CONTINUOUS
 62
1
 10
2.1270804E+002
 20
3.830252E+002
 11
2.1947411E+002
 21
3.830252E+002
  0
LINE
  8
105
  6
HIDDEN
 62
1
 10
2.1947411E+002
 20
3.870252E+002
 11
2.2073827E+002
 21
3.870252E+002
  0
LINE
  8
105
  6
HIDDEN
 62
1
 10
2.2071408E+002
 20
3.830252E+002
 11
2.1947409E+002
 21
3.830252E+002
  0
LINE
  8
99
  6
CONTINUOUS
 62
1
 10
2.1947409E+002
 20
3.705252E+002
 11
2.1270804E+002
 21
3.705252E+002
  0
LINE
  8
99
  6
CONTINUOUS
 62
1
 10
2.1270804E+002
 20
3.705252E+002
 11
2.1270804E+002
 21
3.645252E+002
  0
LINE
  8
99
  6
CONTINUOUS
 62
1
 10
2.1270804E+002
 20
3.645252E+002
 11
2.1947409E+002
 21
3.645252E+002
  0
LINE
  8
99
  6
CONTINUOUS
 62
1
 10
2.1270804E+002
 20
3.655252E+002
 11
2.1947409E+002
 21
3.655252E+002
  0
LINE
  8
99
  6
CONTINUOUS
 62
1
 10
2.1947409E+002
 20
3.695252E+002
 11
2.1270804E+002
 21
3.695252E+002
  0
LINE
  8
105
  6
HIDDEN
 62
1
 10
2.1947409E+002
 20
3.695252E+002
 11
2.2070804E+002
 21
3.695252E+002
  0
LINE
  8
105
  6
HIDDEN
 62
1
 10
2.2070804E+002
 20
3.655252E+002
 11
2.1947409E+002
 21
3.655252E+002
  0
LINE
  8
98
  6
CONTINUOUS
 62
1
 10
5.0
 20
5.0
 11
5.89E+002
 21
5.0
  0
LINE
  8
98
  6
CONTINUOUS
 62
1
 10
5.89E+002
 20
5.0
 11
5.89E+002
 21
4.15E+002
  0
LINE
  8
98
  6
CONTINUOUS
 62
1
 10
5.89E+002
 20
4.15E+002
 11
5.0
 21
4.15E+002
  0
LINE
  8
98
  6
CONTINUOUS
 62
1
 10
5.0
 20
4.15E+002
 11
5.0
 21
5.0
  0
LINE
  8
104
  6
CONTINUOUS
 62
40
 10
2.029293E+002
 20
1.4672439E+002
 11
3.6858586E+002
 21
1.4672439E+002
  0
LINE
  8
104
  6
CONTINUOUS
 62
40
 10
3.6858586E+002
 20
1.4672439E+002
 11
3.6858586E+002
 21
2.2126984E+002
  0
LINE
  8
104
  6
CONTINUOUS
 62
40
 10
3.6858586E+002
 20
2.2126984E+002
 11
2.029293E+002
 21
2.2126984E+002
  0
LINE
  8
104
  6
CONTINUOUS
 62
40
 10
2.029293E+002
 20
2.2126984E+002
 11
2.029293E+002
 21
1.4672439E+002
  0
ENDSEC
  0
EOF
