  0
SECTION
  2
HEADER
  9
$ACADVER
  1
AC1015
  9
$ACADMAINTVER
 70
    20
  9
$DWGCODEPAGE
  3
ANSI_1252
  9
$INSBASE
 10
0.0
 20
0.0
 30
0.0
  9
$EXTMIN
 10
5.0
 20
5.0
 30
0.0
  9
$EXTMAX
 10
589.0
 20
415.0
 30
0.0
  9
$LIMMIN
 10
0.0
 20
0.0
  9
$LIMMAX
 10
0.0
 20
0.0
  9
$ORTHOMODE
 70
     0
  9
$REGENMODE
 70
     1
  9
$FILLMODE
 70
     1
  9
$QTEXTMODE
 70
     0
  9
$MIRRTEXT
 70
     1
  9
$LTSCALE
 40
1.0
  9
$ATTMODE
 70
     1
  9
$TEXTSIZE
 40
1.0
  9
$TRACEWID
 40
0.05
  9
$TEXTSTYLE
  7
STANDARD
  9
$CLAYER
  8
104
  9
$CELTYPE
  6
CONTINUOUS
  9
$CECOLOR
 62
    40
  9
$CELTSCALE
 40
1.0
  9
$DISPSILH
 70
     0
  9
$DIMSCALE
 40
1.0
  9
$DIMASZ
 40
0.125
  9
$DIMEXO
 40
0.0625
  9
$DIMDLI
 40
0.25
  9
$DIMRND
 40
0.0
  9
$DIMDLE
 40
0.0
  9
$DIMEXE
 40
0.125
  9
$DIMTP
 40
0.005
  9
$DIMTM
 40
-0.005
  9
$DIMTXT
 40
3.0
  9
$DIMCEN
 40
0.09
  9
$DIMTSZ
 40
0.0
  9
$DIMTOL
 70
     0
  9
$DIMLIM
 70
     0
  9
$DIMTIH
 70
     1
  9
$DIMTOH
 70
     1
  9
$DIMSE1
 70
     0
  9
$DIMSE2
 70
     0
  9
$DIMTAD
 70
     0
  9
$DIMZIN
 70
     0
  9
$DIMBLK
  1

  9
$DIMASO
 70
     1
  9
$DIMSHO
 70
     1
  9
$DIMPOST
  1

  9
$DIMAPOST
  1

  9
$DIMALT
 70
     0
  9
$DIMALTD
 70
     0
  9
$DIMALTF
 40
25.4
  9
$DIMLFAC
 40
1.0
  9
$DIMTOFL
 70
     1
  9
$DIMTVP
 40
0.0
  9
$DIMTIX
 70
     0
  9
$DIMSOXD
 70
     0
  9
$DIMSAH
 70
     0
  9
$DIMBLK1
  1

  9
$DIMBLK2
  1

  9
$DIMSTYLE
  2
STANDARD
  9
$DIMCLRD
 70
     0
  9
$DIMCLRE
 70
     0
  9
$DIMCLRT
 70
     0
  9
$DIMTFAC
 40
1.0
  9
$DIMGAP
 40
0.0625
  9
$DIMJUST
 70
     0
  9
$DIMSD1
 70
     0
  9
$DIMSD2
 70
     0
  9
$DIMTOLJ
 70
     1
  9
$DIMTZIN
 70
     0
  9
$DIMALTZ
 70
     0
  9
$DIMALTTZ
 70
     0
  9
$DIMUPT
 70
     0
  9
$DIMDEC
 70
     3
  9
$DIMTDEC
 70
     3
  9
$DIMALTU
 70
     2
  9
$DIMALTTD
 70
     0
  9
$DIMTXSTY
  7
STANDARD
  9
$DIMAUNIT
 70
     0
  9
$DIMADEC
 70
     1
  9
$DIMALTRND
 40
0.0
  9
$DIMAZIN
 70
     0
  9
$DIMDSEP
 70
    46
  9
$DIMATFIT
 70
     3
  9
$DIMFRAC
 70
     0
  9
$DIMLDRBLK
  1

  9
$DIMLUNIT
 70
     2
  9
$DIMLWD
 70
    -2
  9
$DIMLWE
 70
    -2
  9
$DIMTMOVE
 70
     2
  9
$LUNITS
 70
     2
  9
$LUPREC
 70
     3
  9
$SKETCHINC
 40
0.1
  9
$FILLETRAD
 40
2.0
  9
$AUNITS
 70
     0
  9
$AUPREC
 70
     1
  9
$MENU
  1
acad
  9
$ELEVATION
 40
0.0
  9
$PELEVATION
 40
0.0
  9
$THICKNESS
 40
0.0
  9
$LIMCHECK
 70
     0
  9
$CHAMFERA
 40
10.0
  9
$CHAMFERB
 40
10.0
  9
$CHAMFERC
 40
0.0
  9
$CHAMFERD
 40
0.0
  9
$SKPOLY
 70
     0
  9
$TDCREATE
 40
2444975.000000000
  9
$TDUCREATE
 40
2444975.000000000
  9
$TDUPDATE
 40
2454505.646180833
  9
$TDUUPDATE
 40
2454505.646180833
  9
$TDINDWG
 40
0.0011932755
  9
$TDUSRTIMER
 40
0.0011932755
  9
$USRTIMER
 70
     1
  9
$ANGBASE
 50
0.0
  9
$ANGDIR
 70
     0
  9
$PDMODE
 70
     2
  9
$PDSIZE
 40
-0.01
  9
$PLINEWID
 40
0.0
  9
$SPLFRAME
 70
     0
  9
$SPLINETYPE
 70
     6
  9
$SPLINESEGS
 70
     8
  9
$HANDSEED
  5
300
  9
$SURFTAB1
 70
     6
  9
$SURFTAB2
 70
     6
  9
$SURFTYPE
 70
     6
  9
$SURFU
 70
     6
  9
$SURFV
 70
     6
  9
$UCSBASE
  2

  9
$UCSNAME
  2

  9
$UCSORG
 10
0.0
 20
0.0
 30
0.0
  9
$UCSXDIR
 10
1.0
 20
0.0
 30
0.0
  9
$UCSYDIR
 10
0.0
 20
1.0
 30
0.0
  9
$UCSORTHOREF
  2

  9
$UCSORTHOVIEW
 70
     0
  9
$UCSORGTOP
 10
0.0
 20
0.0
 30
0.0
  9
$UCSORGBOTTOM
 10
0.0
 20
0.0
 30
0.0
  9
$UCSORGLEFT
 10
0.0
 20
0.0
 30
0.0
  9
$UCSORGRIGHT
 10
0.0
 20
0.0
 30
0.0
  9
$UCSORGFRONT
 10
0.0
 20
0.0
 30
0.0
  9
$UCSORGBACK
 10
0.0
 20
0.0
 30
0.0
  9
$PUCSBASE
  2

  9
$PUCSNAME
  2

  9
$PUCSORG
 10
0.0
 20
0.0
 30
0.0
  9
$PUCSXDIR
 10
1.0
 20
0.0
 30
0.0
  9
$PUCSYDIR
 10
0.0
 20
1.0
 30
0.0
  9
$PUCSORTHOREF
  2

  9
$PUCSORTHOVIEW
 70
     0
  9
$PUCSORGTOP
 10
0.0
 20
0.0
 30
0.0
  9
$PUCSORGBOTTOM
 10
0.0
 20
0.0
 30
0.0
  9
$PUCSORGLEFT
 10
0.0
 20
0.0
 30
0.0
  9
$PUCSORGRIGHT
 10
0.0
 20
0.0
 30
0.0
  9
$PUCSORGFRONT
 10
0.0
 20
0.0
 30
0.0
  9
$PUCSORGBACK
 10
0.0
 20
0.0
 30
0.0
  9
$USERI1
 70
     0
  9
$USERI2
 70
     0
  9
$USERI3
 70
     0
  9
$USERI4
 70
     0
  9
$USERI5
 70
     0
  9
$USERR1
 40
0.0
  9
$USERR2
 40
0.0
  9
$USERR3
 40
0.0
  9
$USERR4
 40
0.0
  9
$USERR5
 40
0.0
  9
$WORLDVIEW
 70
     1
  9
$SHADEDGE
 70
     3
  9
$SHADEDIF
 70
    70
  9
$TILEMODE
 70
     1
  9
$MAXACTVP
 70
    16
  9
$PINSBASE
 10
0.0
 20
0.0
 30
0.0
  9
$PLIMCHECK
 70
     0
  9
$PEXTMIN
 10
1.000000000000000E+20
 20
1.000000000000000E+20
 30
1.000000000000000E+20
  9
$PEXTMAX
 10
-1.000000000000000E+20
 20
-1.000000000000000E+20
 30
-1.000000000000000E+20
  9
$PLIMMIN
 10
0.0
 20
0.0
  9
$PLIMMAX
 10
12.0
 20
9.0
  9
$UNITMODE
 70
     0
  9
$VISRETAIN
 70
     0
  9
$PLINEGEN
 70
     1
  9
$PSLTSCALE
 70
     0
  9
$TREEDEPTH
 70
  3020
  9
$CMLSTYLE
  2
Standard
  9
$CMLJUST
 70
     0
  9
$CMLSCALE
 40
1.0
  9
$PROXYGRAPHICS
 70
     1
  9
$MEASUREMENT
 70
     0
  9
$CELWEIGHT
370
    -1
  9
$ENDCAPS
280
     0
  9
$JOINSTYLE
280
     0
  9
$LWDISPLAY
290
     0
  9
$INSUNITS
 70
     0
  9
$HYPERLINKBASE
  1

  9
$STYLESHEET
  1

  9
$XEDIT
290
     1
  9
$CEPSNTYPE
380
     0
  9
$PSTYLEMODE
290
     1
  9
$FINGERPRINTGUID
  2
{D45AA332-73EF-4D8F-A728-971B77D62C47}
  9
$VERSIONGUID
  2
{6B3F7DB0-C309-4DA7-8B33-C4A38087049D}
  9
$EXTNAMES
290
     1
  9
$PSVPSCALE
 40
0.0
  9
$OLESTARTUP
290
     0
  0
ENDSEC
  0
SECTION
  2
CLASSES
  0
CLASS
  1
ACDBDICTIONARYWDFLT
  2
AcDbDictionaryWithDefault
  3
ObjectDBX Classes
 90
        0
280
     0
281
     0
  0
CLASS
  1
TABLESTYLE
  2
AcDbTableStyle
  3
ObjectDBX Classes
 90
     2047
280
     0
281
     0
  0
CLASS
  1
DICTIONARYVAR
  2
AcDbDictionaryVar
  3
ObjectDBX Classes
 90
        0
280
     0
281
     0
  0
CLASS
  1
ACDBPLACEHOLDER
  2
AcDbPlaceHolder
  3
ObjectDBX Classes
 90
        0
280
     0
281
     0
  0
CLASS
  1
LAYOUT
  2
AcDbLayout
  3
ObjectDBX Classes
 90
        0
280
     0
281
     0
  0
ENDSEC
  0
SECTION
  2
TABLES
  0
TABLE
  2
VPORT
  5
25D
330
0
100
AcDbSymbolTable
 70
     2
  0
VPORT
  5
2FA
330
25D
100
AcDbSymbolTableRecord
100
AcDbViewportTableRecord
  2
*Active
 70
     0
 10
0.0
 20
0.0
 11
1.0
 21
1.0
 12
294.4999999999999
 22
207.5
 13
0.0
 23
0.0
 14
1.0
 24
1.0
 15
0.0
 25
0.0
 16
0.0
 26
0.0
 36
1.0
 17
0.0
 27
0.0
 37
0.0
 40
418.9028213166144
 41
1.653061224489795
 42
50.0
 43
0.0
 44
0.0
 50
0.0
 51
0.0
 71
     0
 72
   100
 73
     1
 74
     1
 75
     0
 76
     0
 77
     0
 78
     0
281
     0
 65
     1
110
0.0
120
0.0
130
0.0
111
1.0
121
0.0
131
0.0
112
0.0
122
1.0
132
0.0
 79
     0
146
0.0
  0
ENDTAB
  0
TABLE
  2
LTYPE
  5
25A
330
0
100
AcDbSymbolTable
 70
     8
  0
LTYPE
  5
268
330
25A
100
AcDbSymbolTableRecord
100
AcDbLinetypeTableRecord
  2
ByBlock
 70
     0
  3

 72
    65
 73
     0
 40
0.0
  0
LTYPE
  5
269
330
25A
100
AcDbSymbolTableRecord
100
AcDbLinetypeTableRecord
  2
ByLayer
 70
     0
  3

 72
    65
 73
     0
 40
0.0
  0
LTYPE
  5
26A
330
25A
100
AcDbSymbolTableRecord
100
AcDbLinetypeTableRecord
  2
CONTINUOUS
 70
     0
  3
Solid line
 72
    65
 73
     0
 40
0.0
  0
LTYPE
  5
27B
330
25A
100
AcDbSymbolTableRecord
100
AcDbLinetypeTableRecord
  2
HIDDENNEW00
 70
     0
  3
_ 
 72
    65
 73
     3
 40
4.5
 49
1.5
 74
     0
 49
-1.5
 74
     0
 49
1.5
 74
     0
  0
LTYPE
  5
27C
330
25A
100
AcDbSymbolTableRecord
100
AcDbLinetypeTableRecord
  2
HIDDENNEW01
 70
     0
  3
_ 
 72
    65
 73
     3
 40
4.5
 49
1.5
 74
     0
 49
-1.5
 74
     0
 49
1.5
 74
     0
  0
LTYPE
  5
27D
330
25A
100
AcDbSymbolTableRecord
100
AcDbLinetypeTableRecord
  2
HIDDEN
 70
     0
  3
_ 
 72
    65
 73
     3
 40
4.5
 49
1.5
 74
     0
 49
-1.5
 74
     0
 49
1.5
 74
     0
  0
LTYPE
  5
27E
330
25A
100
AcDbSymbolTableRecord
100
AcDbLinetypeTableRecord
  2
CENTERLINE
 70
     0
  3
_ 
 72
    65
 73
     5
 40
30.0
 49
12.0
 74
     0
 49
-1.5
 74
     0
 49
3.0
 74
     0
 49
-1.5
 74
     0
 49
12.0
 74
     0
  0
LTYPE
  5
27F
330
25A
100
AcDbSymbolTableRecord
100
AcDbLinetypeTableRecord
  2
PHANTOM
 70
     0
  3
_ 
 72
    65
 73
     7
 40
29.5
 49
9.5
 74
     0
 49
-1.5
 74
     0
 49
3.0
 74
     0
 49
-1.5
 74
     0
 49
3.0
 74
     0
 49
-1.5
 74
     0
 49
9.5
 74
     0
  0
LTYPE
  5
280
330
25A
100
AcDbSymbolTableRecord
100
AcDbLinetypeTableRecord
  2
SHORT_DASH
 70
     0
  3
_ 
 72
    65
 73
     3
 40
3.0
 49
0.75
 74
     0
 49
-1.5
 74
     0
 49
0.75
 74
     0
  0
LTYPE
  5
281
330
25A
100
AcDbSymbolTableRecord
100
AcDbLinetypeTableRecord
  2
LONG_DASH
 70
     0
  3
_ 
 72
    65
 73
     3
 40
9.0
 49
2.25
 74
     0
 49
-4.5
 74
     0
 49
2.25
 74
     0
  0
ENDTAB
  0
TABLE
  2
LAYER
  5
257
330
0
100
AcDbSymbolTable
 70
   108
  0
LAYER
  5
265
330
257
100
AcDbSymbolTableRecord
100
AcDbLayerTableRecord
  2
0
 70
     0
 62
     7
  6
CONTINUOUS
370
    -3
390
264
  0
LAYER
  5
284
330
257
100
AcDbSymbolTableRecord
100
AcDbLayerTableRecord
  2
MED-1
 70
     0
 62
     3
  6
HIDDENNEW00
370
    -3
390
264
  0
LAYER
  5
285
330
257
100
AcDbSymbolTableRecord
100
AcDbLayerTableRecord
  2
2
 70
     0
 62
     7
  6
CONTINUOUS
370
    -3
390
264
  0
LAYER
  5
286
330
257
100
AcDbSymbolTableRecord
100
AcDbLayerTableRecord
  2
3
 70
     0
 62
     7
  6
CONTINUOUS
370
    -3
390
264
  0
LAYER
  5
287
330
257
100
AcDbSymbolTableRecord
100
AcDbLayerTableRecord
  2
4
 70
     0
 62
     7
  6
CONTINUOUS
370
    -3
390
264
  0
LAYER
  5
288
330
257
100
AcDbSymbolTableRecord
100
AcDbLayerTableRecord
  2
5
 70
     0
 62
     7
  6
CONTINUOUS
370
    -3
390
264
  0
LAYER
  5
289
330
257
100
AcDbSymbolTableRecord
100
AcDbLayerTableRecord
  2
MED-6
 70
     0
 62
     6
  6
HIDDENNEW00
370
    -3
390
264
  0
LAYER
  5
28A
330
257
100
AcDbSymbolTableRecord
100
AcDbLayerTableRecord
  2
7
 70
     0
 62
     7
  6
CONTINUOUS
370
    -3
390
264
  0
LAYER
  5
28B
330
257
100
AcDbSymbolTableRecord
100
AcDbLayerTableRecord
  2
8
 70
     0
 62
     7
  6
CONTINUOUS
370
    -3
390
264
  0
LAYER
  5
28C
330
257
100
AcDbSymbolTableRecord
100
AcDbLayerTableRecord
  2
9
 70
     0
 62
     7
  6
CONTINUOUS
370
    -3
390
264
  0
LAYER
  5
28D
330
257
100
AcDbSymbolTableRecord
100
AcDbLayerTableRecord
  2
10
 70
     0
 62
     7
  6
CONTINUOUS
370
    -3
390
264
  0
LAYER
  5
28E
330
257
100
AcDbSymbolTableRecord
100
AcDbLayerTableRecord
  2
MED-11
 70
     0
 62
    70
  6
HIDDENNEW00
370
    -3
390
264
  0
LAYER
  5
28F
330
257
100
AcDbSymbolTableRecord
100
AcDbLayerTableRecord
  2
12
 70
     0
 62
     7
  6
CONTINUOUS
370
    -3
390
264
  0
LAYER
  5
290
330
257
100
AcDbSymbolTableRecord
100
AcDbLayerTableRecord
  2
13
 70
     0
 62
     7
  6
CONTINUOUS
370
    -3
390
264
  0
LAYER
  5
291
330
257
100
AcDbSymbolTableRecord
100
AcDbLayerTableRecord
  2
14
 70
     0
 62
     7
  6
CONTINUOUS
370
    -3
390
264
  0
LAYER
  5
292
330
257
100
AcDbSymbolTableRecord
100
AcDbLayerTableRecord
  2
15
 70
     0
 62
     7
  6
CONTINUOUS
370
    -3
390
264
  0
LAYER
  5
293
330
257
100
AcDbSymbolTableRecord
100
AcDbLayerTableRecord
  2
16
 70
     0
 62
     7
  6
CONTINUOUS
370
    -3
390
264
  0
LAYER
  5
294
330
257
100
AcDbSymbolTableRecord
100
AcDbLayerTableRecord
  2
17
 70
     0
 62
     7
  6
CONTINUOUS
370
    -3
390
264
  0
LAYER
  5
295
330
257
100
AcDbSymbolTableRecord
100
AcDbLayerTableRecord
  2
18
 70
     0
 62
     7
  6
CONTINUOUS
370
    -3
390
264
  0
LAYER
  5
296
330
257
100
AcDbSymbolTableRecord
100
AcDbLayerTableRecord
  2
19
 70
     0
 62
     7
  6
CONTINUOUS
370
    -3
390
264
  0
LAYER
  5
297
330
257
100
AcDbSymbolTableRecord
100
AcDbLayerTableRecord
  2
20
 70
     0
 62
     7
  6
CONTINUOUS
370
    -3
390
264
  0
LAYER
  5
298
330
257
100
AcDbSymbolTableRecord
100
AcDbLayerTableRecord
  2
21
 70
     0
 62
     7
  6
CONTINUOUS
370
    -3
390
264
  0
LAYER
  5
299
330
257
100
AcDbSymbolTableRecord
100
AcDbLayerTableRecord
  2
22
 70
     0
 62
     7
  6
CONTINUOUS
370
    -3
390
264
  0
LAYER
  5
29A
330
257
100
AcDbSymbolTableRecord
100
AcDbLayerTableRecord
  2
23
 70
     0
 62
     7
  6
CONTINUOUS
370
    -3
390
264
  0
LAYER
  5
29B
330
257
100
AcDbSymbolTableRecord
100
AcDbLayerTableRecord
  2
24
 70
     0
 62
     7
  6
CONTINUOUS
370
    -3
390
264
  0
LAYER
  5
29C
330
257
100
AcDbSymbolTableRecord
100
AcDbLayerTableRecord
  2
25
 70
     0
 62
     7
  6
CONTINUOUS
370
    -3
390
264
  0
LAYER
  5
29D
330
257
100
AcDbSymbolTableRecord
100
AcDbLayerTableRecord
  2
26
 70
     0
 62
     7
  6
CONTINUOUS
370
    -3
390
264
  0
LAYER
  5
29E
330
257
100
AcDbSymbolTableRecord
100
AcDbLayerTableRecord
  2
27
 70
     0
 62
     7
  6
CONTINUOUS
370
    -3
390
264
  0
LAYER
  5
29F
330
257
100
AcDbSymbolTableRecord
100
AcDbLayerTableRecord
  2
28
 70
     0
 62
     7
  6
CONTINUOUS
370
    -3
390
264
  0
LAYER
  5
2A0
330
257
100
AcDbSymbolTableRecord
100
AcDbLayerTableRecord
  2
29
 70
     0
 62
     7
  6
CONTINUOUS
370
    -3
390
264
  0
LAYER
  5
2A1
330
257
100
AcDbSymbolTableRecord
100
AcDbLayerTableRecord
  2
30
 70
     0
 62
     7
  6
CONTINUOUS
370
    -3
390
264
  0
LAYER
  5
2A2
330
257
100
AcDbSymbolTableRecord
100
AcDbLayerTableRecord
  2
31
 70
     0
 62
     7
  6
CONTINUOUS
370
    -3
390
264
  0
LAYER
  5
2A3
330
257
100
AcDbSymbolTableRecord
100
AcDbLayerTableRecord
  2
32
 70
     0
 62
     7
  6
CONTINUOUS
370
    -3
390
264
  0
LAYER
  5
2A4
330
257
100
AcDbSymbolTableRecord
100
AcDbLayerTableRecord
  2
33
 70
     0
 62
     7
  6
CONTINUOUS
370
    -3
390
264
  0
LAYER
  5
2A5
330
257
100
AcDbSymbolTableRecord
100
AcDbLayerTableRecord
  2
34
 70
     0
 62
     7
  6
CONTINUOUS
370
    -3
390
264
  0
LAYER
  5
2A6
330
257
100
AcDbSymbolTableRecord
100
AcDbLayerTableRecord
  2
35
 70
     0
 62
     7
  6
CONTINUOUS
370
    -3
390
264
  0
LAYER
  5
2A7
330
257
100
AcDbSymbolTableRecord
100
AcDbLayerTableRecord
  2
36
 70
     0
 62
     7
  6
CONTINUOUS
370
    -3
390
264
  0
LAYER
  5
2A8
330
257
100
AcDbSymbolTableRecord
100
AcDbLayerTableRecord
  2
37
 70
     0
 62
     7
  6
CONTINUOUS
370
    -3
390
264
  0
LAYER
  5
2A9
330
257
100
AcDbSymbolTableRecord
100
AcDbLayerTableRecord
  2
38
 70
     0
 62
     7
  6
CONTINUOUS
370
    -3
390
264
  0
LAYER
  5
2AA
330
257
100
AcDbSymbolTableRecord
100
AcDbLayerTableRecord
  2
39
 70
     0
 62
     7
  6
CONTINUOUS
370
    -3
390
264
  0
LAYER
  5
2AB
330
257
100
AcDbSymbolTableRecord
100
AcDbLayerTableRecord
  2
40
 70
     0
 62
     7
  6
CONTINUOUS
370
    -3
390
264
  0
LAYER
  5
2AC
330
257
100
AcDbSymbolTableRecord
100
AcDbLayerTableRecord
  2
41
 70
     0
 62
     7
  6
CONTINUOUS
370
    -3
390
264
  0
LAYER
  5
2AD
330
257
100
AcDbSymbolTableRecord
100
AcDbLayerTableRecord
  2
42
 70
     0
 62
     7
  6
CONTINUOUS
370
    -3
390
264
  0
LAYER
  5
2AE
330
257
100
AcDbSymbolTableRecord
100
AcDbLayerTableRecord
  2
43
 70
     0
 62
     7
  6
CONTINUOUS
370
    -3
390
264
  0
LAYER
  5
2AF
330
257
100
AcDbSymbolTableRecord
100
AcDbLayerTableRecord
  2
44
 70
     0
 62
     7
  6
CONTINUOUS
370
    -3
390
264
  0
LAYER
  5
2B0
330
257
100
AcDbSymbolTableRecord
100
AcDbLayerTableRecord
  2
45
 70
     0
 62
     7
  6
CONTINUOUS
370
    -3
390
264
  0
LAYER
  5
2B1
330
257
100
AcDbSymbolTableRecord
100
AcDbLayerTableRecord
  2
46
 70
     0
 62
     7
  6
CONTINUOUS
370
    -3
390
264
  0
LAYER
  5
2B2
330
257
100
AcDbSymbolTableRecord
100
AcDbLayerTableRecord
  2
47
 70
     0
 62
     7
  6
CONTINUOUS
370
    -3
390
264
  0
LAYER
  5
2B3
330
257
100
AcDbSymbolTableRecord
100
AcDbLayerTableRecord
  2
48
 70
     0
 62
     7
  6
CONTINUOUS
370
    -3
390
264
  0
LAYER
  5
2B4
330
257
100
AcDbSymbolTableRecord
100
AcDbLayerTableRecord
  2
49
 70
     0
 62
     7
  6
CONTINUOUS
370
    -3
390
264
  0
LAYER
  5
2B5
330
257
100
AcDbSymbolTableRecord
100
AcDbLayerTableRecord
  2
50
 70
     0
 62
     7
  6
CONTINUOUS
370
    -3
390
264
  0
LAYER
  5
2B6
330
257
100
AcDbSymbolTableRecord
100
AcDbLayerTableRecord
  2
51
 70
     0
 62
     7
  6
CONTINUOUS
370
    -3
390
264
  0
LAYER
  5
2B7
330
257
100
AcDbSymbolTableRecord
100
AcDbLayerTableRecord
  2
52
 70
     0
 62
     7
  6
CONTINUOUS
370
    -3
390
264
  0
LAYER
  5
2B8
330
257
100
AcDbSymbolTableRecord
100
AcDbLayerTableRecord
  2
53
 70
     0
 62
     7
  6
CONTINUOUS
370
    -3
390
264
  0
LAYER
  5
2B9
330
257
100
AcDbSymbolTableRecord
100
AcDbLayerTableRecord
  2
54
 70
     0
 62
     7
  6
CONTINUOUS
370
    -3
390
264
  0
LAYER
  5
2BA
330
257
100
AcDbSymbolTableRecord
100
AcDbLayerTableRecord
  2
55
 70
     0
 62
     7
  6
CONTINUOUS
370
    -3
390
264
  0
LAYER
  5
2BB
330
257
100
AcDbSymbolTableRecord
100
AcDbLayerTableRecord
  2
56
 70
     0
 62
     7
  6
CONTINUOUS
370
    -3
390
264
  0
LAYER
  5
2BC
330
257
100
AcDbSymbolTableRecord
100
AcDbLayerTableRecord
  2
57
 70
     0
 62
     7
  6
CONTINUOUS
370
    -3
390
264
  0
LAYER
  5
2BD
330
257
100
AcDbSymbolTableRecord
100
AcDbLayerTableRecord
  2
58
 70
     0
 62
     7
  6
CONTINUOUS
370
    -3
390
264
  0
LAYER
  5
2BE
330
257
100
AcDbSymbolTableRecord
100
AcDbLayerTableRecord
  2
59
 70
     0
 62
     7
  6
CONTINUOUS
370
    -3
390
264
  0
LAYER
  5
2BF
330
257
100
AcDbSymbolTableRecord
100
AcDbLayerTableRecord
  2
60
 70
     0
 62
     7
  6
CONTINUOUS
370
    -3
390
264
  0
LAYER
  5
2C0
330
257
100
AcDbSymbolTableRecord
100
AcDbLayerTableRecord
  2
61
 70
     0
 62
     7
  6
CONTINUOUS
370
    -3
390
264
  0
LAYER
  5
2C1
330
257
100
AcDbSymbolTableRecord
100
AcDbLayerTableRecord
  2
62
 70
     0
 62
     7
  6
CONTINUOUS
370
    -3
390
264
  0
LAYER
  5
2C2
330
257
100
AcDbSymbolTableRecord
100
AcDbLayerTableRecord
  2
63
 70
     0
 62
     7
  6
CONTINUOUS
370
    -3
390
264
  0
LAYER
  5
2C3
330
257
100
AcDbSymbolTableRecord
100
AcDbLayerTableRecord
  2
64
 70
     0
 62
     7
  6
CONTINUOUS
370
    -3
390
264
  0
LAYER
  5
2C4
330
257
100
AcDbSymbolTableRecord
100
AcDbLayerTableRecord
  2
65
 70
     0
 62
     7
  6
CONTINUOUS
370
    -3
390
264
  0
LAYER
  5
2C5
330
257
100
AcDbSymbolTableRecord
100
AcDbLayerTableRecord
  2
66
 70
     0
 62
     7
  6
CONTINUOUS
370
    -3
390
264
  0
LAYER
  5
2C6
330
257
100
AcDbSymbolTableRecord
100
AcDbLayerTableRecord
  2
67
 70
     0
 62
     7
  6
CONTINUOUS
370
    -3
390
264
  0
LAYER
  5
2C7
330
257
100
AcDbSymbolTableRecord
100
AcDbLayerTableRecord
  2
68
 70
     0
 62
     7
  6
CONTINUOUS
370
    -3
390
264
  0
LAYER
  5
2C8
330
257
100
AcDbSymbolTableRecord
100
AcDbLayerTableRecord
  2
69
 70
     0
 62
     7
  6
CONTINUOUS
370
    -3
390
264
  0
LAYER
  5
2C9
330
257
100
AcDbSymbolTableRecord
100
AcDbLayerTableRecord
  2
70
 70
     0
 62
     7
  6
CONTINUOUS
370
    -3
390
264
  0
LAYER
  5
2CA
330
257
100
AcDbSymbolTableRecord
100
AcDbLayerTableRecord
  2
71
 70
     0
 62
     7
  6
CONTINUOUS
370
    -3
390
264
  0
LAYER
  5
2CB
330
257
100
AcDbSymbolTableRecord
100
AcDbLayerTableRecord
  2
72
 70
     0
 62
     7
  6
CONTINUOUS
370
    -3
390
264
  0
LAYER
  5
2CC
330
257
100
AcDbSymbolTableRecord
100
AcDbLayerTableRecord
  2
73
 70
     0
 62
     7
  6
CONTINUOUS
370
    -3
390
264
  0
LAYER
  5
2CD
330
257
100
AcDbSymbolTableRecord
100
AcDbLayerTableRecord
  2
74
 70
     0
 62
     7
  6
CONTINUOUS
370
    -3
390
264
  0
LAYER
  5
2CE
330
257
100
AcDbSymbolTableRecord
100
AcDbLayerTableRecord
  2
75
 70
     0
 62
     7
  6
CONTINUOUS
370
    -3
390
264
  0
LAYER
  5
2CF
330
257
100
AcDbSymbolTableRecord
100
AcDbLayerTableRecord
  2
76
 70
     0
 62
     7
  6
CONTINUOUS
370
    -3
390
264
  0
LAYER
  5
2D0
330
257
100
AcDbSymbolTableRecord
100
AcDbLayerTableRecord
  2
77
 70
     0
 62
     7
  6
CONTINUOUS
370
    -3
390
264
  0
LAYER
  5
2D1
330
257
100
AcDbSymbolTableRecord
100
AcDbLayerTableRecord
  2
78
 70
     0
 62
     7
  6
CONTINUOUS
370
    -3
390
264
  0
LAYER
  5
2D2
330
257
100
AcDbSymbolTableRecord
100
AcDbLayerTableRecord
  2
79
 70
     0
 62
     7
  6
CONTINUOUS
370
    -3
390
264
  0
LAYER
  5
2D3
330
257
100
AcDbSymbolTableRecord
100
AcDbLayerTableRecord
  2
80
 70
     0
 62
     7
  6
CONTINUOUS
370
    -3
390
264
  0
LAYER
  5
2D4
330
257
100
AcDbSymbolTableRecord
100
AcDbLayerTableRecord
  2
81
 70
     0
 62
     7
  6
CONTINUOUS
370
    -3
390
264
  0
LAYER
  5
2D5
330
257
100
AcDbSymbolTableRecord
100
AcDbLayerTableRecord
  2
82
 70
     0
 62
     7
  6
CONTINUOUS
370
    -3
390
264
  0
LAYER
  5
2D6
330
257
100
AcDbSymbolTableRecord
100
AcDbLayerTableRecord
  2
83
 70
     0
 62
     7
  6
CONTINUOUS
370
    -3
390
264
  0
LAYER
  5
2D7
330
257
100
AcDbSymbolTableRecord
100
AcDbLayerTableRecord
  2
84
 70
     0
 62
     7
  6
CONTINUOUS
370
    -3
390
264
  0
LAYER
  5
2D8
330
257
100
AcDbSymbolTableRecord
100
AcDbLayerTableRecord
  2
85
 70
     0
 62
     7
  6
CONTINUOUS
370
    -3
390
264
  0
LAYER
  5
2D9
330
257
100
AcDbSymbolTableRecord
100
AcDbLayerTableRecord
  2
86
 70
     0
 62
     7
  6
CONTINUOUS
370
    -3
390
264
  0
LAYER
  5
2DA
330
257
100
AcDbSymbolTableRecord
100
AcDbLayerTableRecord
  2
87
 70
     0
 62
     7
  6
CONTINUOUS
370
    -3
390
264
  0
LAYER
  5
2DB
330
257
100
AcDbSymbolTableRecord
100
AcDbLayerTableRecord
  2
88
 70
     0
 62
     7
  6
CONTINUOUS
370
    -3
390
264
  0
LAYER
  5
2DC
330
257
100
AcDbSymbolTableRecord
100
AcDbLayerTableRecord
  2
89
 70
     0
 62
     7
  6
CONTINUOUS
370
    -3
390
264
  0
LAYER
  5
2DD
330
257
100
AcDbSymbolTableRecord
100
AcDbLayerTableRecord
  2
90
 70
     0
 62
     7
  6
CONTINUOUS
370
    -3
390
264
  0
LAYER
  5
2DE
330
257
100
AcDbSymbolTableRecord
100
AcDbLayerTableRecord
  2
91
 70
     0
 62
     7
  6
CONTINUOUS
370
    -3
390
264
  0
LAYER
  5
2DF
330
257
100
AcDbSymbolTableRecord
100
AcDbLayerTableRecord
  2
92
 70
     0
 62
     7
  6
CONTINUOUS
370
    -3
390
264
  0
LAYER
  5
2E0
330
257
100
AcDbSymbolTableRecord
100
AcDbLayerTableRecord
  2
93
 70
     0
 62
     7
  6
CONTINUOUS
370
    -3
390
264
  0
LAYER
  5
2E1
330
257
100
AcDbSymbolTableRecord
100
AcDbLayerTableRecord
  2
94
 70
     0
 62
     7
  6
CONTINUOUS
370
    -3
390
264
  0
LAYER
  5
2E2
330
257
100
AcDbSymbolTableRecord
100
AcDbLayerTableRecord
  2
95
 70
     0
 62
     7
  6
CONTINUOUS
370
    -3
390
264
  0
LAYER
  5
2E3
330
257
100
AcDbSymbolTableRecord
100
AcDbLayerTableRecord
  2
96
 70
     0
 62
     7
  6
CONTINUOUS
370
    -3
390
264
  0
LAYER
  5
2E4
330
257
100
AcDbSymbolTableRecord
100
AcDbLayerTableRecord
  2
97
 70
     0
 62
     7
  6
CONTINUOUS
370
    -3
390
264
  0
LAYER
  5
2E5
330
257
100
AcDbSymbolTableRecord
100
AcDbLayerTableRecord
  2
98
 70
     0
 62
     7
  6
CONTINUOUS
370
    -3
390
264
  0
LAYER
  5
2E6
330
257
100
AcDbSymbolTableRecord
100
AcDbLayerTableRecord
  2
99
 70
     0
 62
     7
  6
CONTINUOUS
370
    -3
390
264
  0
LAYER
  5
2E7
330
257
100
AcDbSymbolTableRecord
100
AcDbLayerTableRecord
  2
MED-0
 70
     0
 62
   230
  6
HIDDENNEW00
370
    -3
390
264
  0
LAYER
  5
2E8
330
257
100
AcDbSymbolTableRecord
100
AcDbLayerTableRecord
  2
101
 70
     0
 62
     7
  6
CONTINUOUS
370
    -3
390
264
  0
LAYER
  5
2E9
330
257
100
AcDbSymbolTableRecord
100
AcDbLayerTableRecord
  2
102
 70
     0
 62
     7
  6
CONTINUOUS
370
    -3
390
264
  0
LAYER
  5
2EA
330
257
100
AcDbSymbolTableRecord
100
AcDbLayerTableRecord
  2
103
 70
     0
 62
     7
  6
CONTINUOUS
370
    -3
390
264
  0
LAYER
  5
2EB
330
257
100
AcDbSymbolTableRecord
100
AcDbLayerTableRecord
  2
104
 70
     0
 62
     7
  6
CONTINUOUS
370
    -3
390
264
  0
LAYER
  5
2EC
330
257
100
AcDbSymbolTableRecord
100
AcDbLayerTableRecord
  2
105
 70
     0
 62
     7
  6
CONTINUOUS
370
    -3
390
264
  0
LAYER
  5
2ED
330
257
100
AcDbSymbolTableRecord
100
AcDbLayerTableRecord
  2
106
 70
     0
 62
     7
  6
CONTINUOUS
370
    -3
390
264
  0
LAYER
  5
2EE
330
257
100
AcDbSymbolTableRecord
100
AcDbLayerTableRecord
  2
DRAFTING_HIDDEN_ENTITIES
 70
     1
 62
     7
  6
CONTINUOUS
370
    -3
390
264
  0
ENDTAB
  0
TABLE
  2
STYLE
  5
258
330
0
100
AcDbSymbolTable
 70
     1
  0
STYLE
  5
266
330
258
100
AcDbSymbolTableRecord
100
AcDbTextStyleTableRecord
  2
STANDARD
 70
     0
 40
0.0
 41
1.0
 50
0.0
 71
     0
 42
1.0
  3
monotxt.shx
  4

  0
ENDTAB
  0
TABLE
  2
VIEW
  5
25B
330
0
100
AcDbSymbolTable
 70
     0
  0
ENDTAB
  0
TABLE
  2
UCS
  5
25C
330
0
100
AcDbSymbolTable
 70
     0
  0
ENDTAB
  0
TABLE
  2
APPID
  5
25E
330
0
100
AcDbSymbolTable
 70
     1
  0
APPID
  5
267
330
25E
100
AcDbSymbolTableRecord
100
AcDbRegAppTableRecord
  2
ACAD
 70
     0
  0
ENDTAB
  0
TABLE
  2
DIMSTYLE
  5
25F
330
0
100
AcDbSymbolTable
 70
     1
100
AcDbDimStyleTable
 71
     0
  0
DIMSTYLE
105
283
330
25F
100
AcDbSymbolTableRecord
100
AcDbDimStyleTableRecord
  2
STANDARD
 70
     0
 41
0.125
 43
0.25
 44
0.125
 47
0.005
 48
-0.005
140
3.0
147
0.0625
171
     0
172
     1
271
     3
272
     3
274
     0
279
     2
340
266
  0
ENDTAB
  0
TABLE
  2
BLOCK_RECORD
  5
256
330
0
100
AcDbSymbolTable
 70
     0
  0
BLOCK_RECORD
  5
277
330
256
100
AcDbSymbolTableRecord
100
AcDbBlockTableRecord
  2
*Model_Space
340
27A
  0
BLOCK_RECORD
  5
273
330
256
100
AcDbSymbolTableRecord
100
AcDbBlockTableRecord
  2
*Paper_Space
340
276
  0
ENDTAB
  0
ENDSEC
  0
SECTION
  2
BLOCKS
  0
BLOCK
  5
2F1
330
277
100
AcDbEntity
  8
0
 62
    40
100
AcDbBlockBegin
  2
*Model_Space
 70
     0
 10
0.0
 20
0.0
 30
0.0
  3
*Model_Space
  1

  0
ENDBLK
  5
2F2
330
277
100
AcDbEntity
  8
0
 62
    40
100
AcDbBlockEnd
  0
BLOCK
  5
2EF
330
273
100
AcDbEntity
 67
     1
  8
0
 62
    40
100
AcDbBlockBegin
  2
*Paper_Space
 70
     0
 10
0.0
 20
0.0
 30
0.0
  3
*Paper_Space
  1

  0
ENDBLK
  5
2F0
330
273
100
AcDbEntity
 67
     1
  8
0
 62
    40
100
AcDbBlockEnd
  0
ENDSEC
  0
SECTION
  2
ENTITIES
  0
TEXT
  5
8D
330
277
100
AcDbEntity
  8
103
  6
Continuous
 62
    40
100
AcDbText
 10
524.2740675900001
 20
10.408233
 30
0.0
 40
7.0
  1
BTS80-EMB-FLB
 41
0.65769231
 72
     1
 11
553.43176
 21
13.908233
 31
0.0
100
AcDbText
 73
     2
  0
LINE
  5
8E
330
277
100
AcDbEntity
  8
104
  6
Continuous
 62
    40
100
AcDbLine
 10
463.56977
 20
383.87739
 30
0.0
 11
463.56977
 21
384.87739
 31
0.0
  0
ARC
  5
8F
330
277
100
AcDbEntity
  8
104
  6
Continuous
 62
    40
100
AcDbCircle
 10
465.5697599999999
 20
384.87738
 30
0.0
 40
1.999995099999999
100
AcDbArc
 50
89.99986000000001
 51
179.99971
  0
LINE
  5
90
330
277
100
AcDbEntity
  8
104
  6
Continuous
 62
    40
100
AcDbLine
 10
465.56977
 20
386.87738
 30
0.0
 11
502.56973
 21
386.87738
 31
0.0
  0
ARC
  5
91
330
277
100
AcDbEntity
  8
104
  6
Continuous
 62
    40
100
AcDbCircle
 10
502.56974
 20
384.87735
 30
0.0
 40
2.0000252
100
AcDbArc
 50
0.0011511768
 51
90.00016700000001
  0
LINE
  5
92
330
277
100
AcDbEntity
  8
104
  6
Continuous
 62
    40
100
AcDbLine
 10
504.5697699999999
 20
384.87739
 30
0.0
 11
504.5697699999999
 21
383.87739
 31
0.0
  0
LINE
  5
93
330
277
100
AcDbEntity
  8
104
  6
Continuous
 62
    40
100
AcDbLine
 10
471.71976
 20
386.87739
 30
0.0
 11
471.71976
 21
389.67741
 31
0.0
  0
LINE
  5
94
330
277
100
AcDbEntity
  8
104
  6
Continuous
 62
    40
100
AcDbLine
 10
471.71976
 20
389.67741
 30
0.0
 11
478.2447499999999
 21
389.67741
 31
0.0
  0
LINE
  5
95
330
277
100
AcDbEntity
  8
104
  6
Continuous
 62
    40
100
AcDbLine
 10
478.2447499999999
 20
389.67741
 30
0.0
 11
478.9784599999999
 21
403.67738
 31
0.0
  0
LINE
  5
96
330
277
100
AcDbEntity
  8
104
  6
Continuous
 62
    40
100
AcDbLine
 10
478.9784599999999
 20
403.67738
 30
0.0
 11
489.3111
 21
403.67738
 31
0.0
  0
LINE
  5
97
330
277
100
AcDbEntity
  8
104
  6
Continuous
 62
    40
100
AcDbLine
 10
489.3111
 20
403.67738
 30
0.0
 11
490.04474
 21
389.67741
 31
0.0
  0
LINE
  5
98
330
277
100
AcDbEntity
  8
104
  6
Continuous
 62
    40
100
AcDbLine
 10
490.04474
 20
389.67741
 30
0.0
 11
496.4197099999999
 21
389.67741
 31
0.0
  0
LINE
  5
99
330
277
100
AcDbEntity
  8
104
  6
Continuous
 62
    40
100
AcDbLine
 10
496.4197099999999
 20
389.67741
 30
0.0
 11
496.4197099999999
 21
386.87739
 31
0.0
  0
LINE
  5
9A
330
277
100
AcDbEntity
  8
104
  6
Continuous
 62
    40
100
AcDbLine
 10
478.2447499999999
 20
389.67741
 30
0.0
 11
490.04474
 21
389.67741
 31
0.0
  0
LINE
  5
9B
330
277
100
AcDbEntity
  8
104
  6
Continuous
 62
    40
100
AcDbLine
 10
445.0698
 20
383.87739
 30
0.0
 11
523.06974
 21
383.87739
 31
0.0
  0
LINE
  5
9C
330
277
100
AcDbEntity
  8
104
  6
Continuous
 62
    40
100
AcDbLine
 10
523.06974
 20
383.87739
 30
0.0
 11
523.06974
 21
324.37739
 31
0.0
  0
LINE
  5
9D
330
277
100
AcDbEntity
  8
104
  6
Continuous
 62
    40
100
AcDbLine
 10
523.06974
 20
324.37739
 30
0.0
 11
445.0698
 21
324.37739
 31
0.0
  0
LINE
  5
9E
330
277
100
AcDbEntity
  8
104
  6
Continuous
 62
    40
100
AcDbLine
 10
445.0698
 20
324.37739
 30
0.0
 11
445.0698
 21
383.87739
 31
0.0
  0
LINE
  5
9F
330
277
100
AcDbEntity
  8
106
  6
CENTERLINE
 62
     1
100
AcDbLine
 10
484.0697699999999
 20
317.60466
 30
0.0
 11
484.0697699999999
 21
410.87739
 31
0.0
  0
ARC
  5
A0
330
277
100
AcDbEntity
  8
MED-1
  6
Continuous
 62
    40
100
AcDbCircle
 10
416.61561
 20
349.96267
 30
0.0
 40
2.051737999999999
100
AcDbArc
 50
175.91643
 51
243.57408
  0
ARC
  5
A1
330
277
100
AcDbEntity
  8
MED-1
  6
Continuous
 62
    40
100
AcDbCircle
 10
416.6158
 20
349.96259
 30
0.0
 40
2.0519338
100
AcDbArc
 50
136.15982
 51
175.91464
  0
ARC
  5
A2
330
277
100
AcDbEntity
  8
MED-1
  6
Continuous
 62
    40
100
AcDbCircle
 10
413.53124
 20
352.92953
 30
0.0
 40
2.2279314
100
AcDbArc
 50
316.07096
 51
325.78397
  0
ARC
  5
A3
330
277
100
AcDbEntity
  8
MED-1
  6
Continuous
 62
    40
100
AcDbCircle
 10
413.7341
 20
352.79236
 30
0.0
 40
1.9830459
100
AcDbArc
 50
325.76543
 51
336.26276
  0
ARC
  5
A4
330
277
100
AcDbEntity
  8
MED-1
  6
Continuous
 62
    40
100
AcDbCircle
 10
413.94237
 20
352.70099
 30
0.0
 40
1.7556235
100
AcDbArc
 50
336.25638
 51
347.64165
  0
ARC
  5
A5
330
277
100
AcDbEntity
  8
MED-1
  6
Continuous
 62
    40
100
AcDbCircle
 10
414.11996
 20
352.66168
 30
0.0
 40
1.5737349
100
AcDbArc
 50
347.65581
 51
359.90169
  0
ARC
  5
A6
330
277
100
AcDbEntity
  8
MED-1
  6
Continuous
 62
    40
100
AcDbCircle
 10
413.93895
 20
352.69386
 30
0.0
 40
1.755084099999999
100
AcDbArc
 50
358.86126
 51
428.9591699999999
  0
LINE
  5
A7
330
277
100
AcDbEntity
  8
104
  6
Continuous
 62
    40
100
AcDbLine
 10
401.59567
 20
354.33192
 30
0.0
 11
414.28573
 21
354.33192
 31
0.0
  0
LINE
  5
A8
330
277
100
AcDbEntity
  8
104
  6
Continuous
 62
    40
100
AcDbLine
 10
401.59567
 20
348.33192
 30
0.0
 11
415.41915
 21
348.33192
 31
0.0
  0
LINE
  5
A9
330
277
100
AcDbEntity
  8
99
  6
Continuous
 62
     1
100
AcDbLine
 10
393.09567
 20
362.83192
 30
0.0
 11
397.09567
 21
362.83192
 31
0.0
  0
LINE
  5
AA
330
277
100
AcDbEntity
  8
99
  6
Continuous
 62
     1
100
AcDbLine
 10
393.09567
 20
339.83192
 30
0.0
 11
397.09567
 21
339.83192
 31
0.0
  0
LINE
  5
AB
330
277
100
AcDbEntity
  8
104
  6
Continuous
 62
    40
100
AcDbLine
 10
397.09567
 20
344.83192
 30
0.0
 11
401.59567
 21
344.83192
 31
0.0
  0
LINE
  5
AC
330
277
100
AcDbEntity
  8
104
  6
Continuous
 62
    40
100
AcDbLine
 10
397.09567
 20
341.83192
 30
0.0
 11
401.59567
 21
341.83192
 31
0.0
  0
LINE
  5
AD
330
277
100
AcDbEntity
  8
104
  6
Continuous
 62
    40
100
AcDbLine
 10
397.09567
 20
360.83192
 30
0.0
 11
401.59567
 21
360.83192
 31
0.0
  0
LINE
  5
AE
330
277
100
AcDbEntity
  8
104
  6
Continuous
 62
    40
100
AcDbLine
 10
397.09567
 20
357.83192
 30
0.0
 11
401.59567
 21
357.83192
 31
0.0
  0
LINE
  5
AF
330
277
100
AcDbEntity
  8
104
  6
Continuous
 62
    40
100
AcDbLine
 10
397.09567
 20
367.83192
 30
0.0
 11
401.59567
 21
367.83192
 31
0.0
  0
LINE
  5
B0
330
277
100
AcDbEntity
  8
104
  6
Continuous
 62
    40
100
AcDbLine
 10
401.59567
 20
367.83192
 30
0.0
 11
401.59567
 21
334.83192
 31
0.0
  0
LINE
  5
B1
330
277
100
AcDbEntity
  8
104
  6
Continuous
 62
    40
100
AcDbLine
 10
401.59567
 20
334.83192
 30
0.0
 11
397.09567
 21
334.83192
 31
0.0
  0
LINE
  5
B2
330
277
100
AcDbEntity
  8
104
  6
Continuous
 62
    40
100
AcDbLine
 10
397.09567
 20
334.83192
 30
0.0
 11
397.09567
 21
367.83192
 31
0.0
  0
LINE
  5
B3
330
277
100
AcDbEntity
  8
104
  6
Continuous
 62
    40
100
AcDbLine
 10
397.09567
 20
337.83192
 30
0.0
 11
393.09567
 21
337.83192
 31
0.0
  0
LINE
  5
B4
330
277
100
AcDbEntity
  8
104
  6
Continuous
 62
    40
100
AcDbLine
 10
397.09567
 20
364.83192
 30
0.0
 11
393.09567
 21
364.83192
 31
0.0
  0
ARC
  5
B5
330
277
100
AcDbEntity
  8
MED-1
  6
Continuous
 62
    40
100
AcDbCircle
 10
415.4268
 20
258.73016
 30
0.0
 40
2.284731999999999
100
AcDbArc
 50
111.31336
 51
200.2307
  0
ARC
  5
B6
330
277
100
AcDbEntity
  8
MED-1
  6
Continuous
 62
    40
100
AcDbCircle
 10
413.71335
 20
258.10128
 30
0.0
 40
0.45953291
100
AcDbArc
 50
200.53439
 51
205.36383
  0
ARC
  5
B7
330
277
100
AcDbEntity
  8
MED-1
  6
Continuous
 62
    40
100
AcDbCircle
 10
414.16151
 20
258.31174
 30
0.0
 40
0.95464394
100
AcDbArc
 50
205.25541
 51
208.22223
  0
ARC
  5
B8
330
277
100
AcDbEntity
  8
MED-1
  6
Continuous
 62
    40
100
AcDbCircle
 10
415.80516
 20
259.20346
 30
0.0
 40
2.824597199999999
100
AcDbArc
 50
208.39341
 51
211.31607
  0
ARC
  5
B9
330
277
100
AcDbEntity
  8
MED-1
  6
Continuous
 62
    40
100
AcDbCircle
 10
433.52972
 20
269.98167
 30
0.0
 40
23.568998
100
AcDbArc
 50
211.30507
 51
212.81067
  0
ARC
  5
BA
330
277
100
AcDbEntity
  8
MED-1
  6
Continuous
 62
    40
100
AcDbCircle
 10
400.09554
 20
248.5394
 30
0.0
 40
16.150378
100
AcDbArc
 50
29.453515
 51
32.47255
  0
ARC
  5
BB
330
277
100
AcDbEntity
  8
MED-1
  6
Continuous
 62
    40
100
AcDbCircle
 10
400.0706799999999
 20
248.52474
 30
0.0
 40
16.179238
100
AcDbArc
 50
23.675235
 51
29.45541800000001
  0
LINE
  5
BC
330
277
100
AcDbEntity
  8
104
  6
Continuous
 62
    40
100
AcDbLine
 10
356.09564
 20
246.35863
 30
0.0
 11
356.09564
 21
248.35863
 31
0.0
  0
LINE
  5
BD
330
277
100
AcDbEntity
  8
104
  6
Continuous
 62
    40
100
AcDbLine
 10
364.09564
 20
246.35863
 30
0.0
 11
364.09564
 21
248.35863
 31
0.0
  0
LINE
  5
BE
330
277
100
AcDbEntity
  8
104
  6
Continuous
 62
    40
100
AcDbLine
 10
354.59564
 20
246.35863
 30
0.0
 11
365.59564
 21
246.35863
 31
0.0
  0
LINE
  5
BF
330
277
100
AcDbEntity
  8
104
  6
Continuous
 62
    40
100
AcDbLine
 10
365.59564
 20
246.35863
 30
0.0
 11
365.59564
 21
243.85863
 31
0.0
  0
LINE
  5
C0
330
277
100
AcDbEntity
  8
104
  6
Continuous
 62
    40
100
AcDbLine
 10
365.59564
 20
243.85863
 30
0.0
 11
354.59564
 21
243.85863
 31
0.0
  0
LINE
  5
C1
330
277
100
AcDbEntity
  8
104
  6
Continuous
 62
    40
100
AcDbLine
 10
354.59564
 20
243.85863
 30
0.0
 11
354.59564
 21
246.35863
 31
0.0
  0
LINE
  5
C2
330
277
100
AcDbEntity
  8
104
  6
Continuous
 62
    40
100
AcDbLine
 10
363.164
 20
229.10388
 30
0.0
 11
364.45489
 21
243.85863
 31
0.0
  0
LINE
  5
C3
330
277
100
AcDbEntity
  8
104
  6
Continuous
 62
    40
100
AcDbLine
 10
370.59564
 20
260.85863
 30
0.0
 11
371.59564
 21
260.85863
 31
0.0
  0
LINE
  5
C4
330
277
100
AcDbEntity
  8
104
  6
Continuous
 62
    40
100
AcDbLine
 10
366.59564
 20
254.85863
 30
0.0
 11
371.59564
 21
254.85863
 31
0.0
  0
LINE
  5
C5
330
277
100
AcDbEntity
  8
104
  6
Continuous
 62
    40
100
AcDbLine
 10
357.09564
 20
243.85863
 30
0.0
 11
357.09564
 21
228.80856
 31
0.0
  0
ARC
  5
C6
330
277
100
AcDbEntity
  8
104
  6
Continuous
 62
    40
100
AcDbCircle
 10
360.11705
 20
228.81037
 30
0.0
 40
3.021417899999999
100
AcDbArc
 50
180.03432
 51
369.65934
  0
LINE
  5
C7
330
277
100
AcDbEntity
  8
104
  6
Continuous
 62
    40
100
AcDbLine
 10
363.09564
 20
229.31734
 30
0.0
 11
363.09564
 21
243.85863
 31
0.0
  0
LINE
  5
C8
330
277
100
AcDbEntity
  8
104
  6
Continuous
 62
    40
100
AcDbLine
 10
401.59564
 20
260.85863
 30
0.0
 11
414.7422699999999
 21
260.95071
 31
0.0
  0
LINE
  5
C9
330
277
100
AcDbEntity
  8
104
  6
Continuous
 62
    40
100
AcDbLine
 10
401.59564
 20
254.85863
 30
0.0
 11
414.7422699999999
 21
254.95071
 31
0.0
  0
LINE
  5
CA
330
277
100
AcDbEntity
  8
99
  6
Continuous
 62
     1
100
AcDbLine
 10
393.09564
 20
269.35863
 30
0.0
 11
397.09564
 21
269.35863
 31
0.0
  0
LINE
  5
CB
330
277
100
AcDbEntity
  8
99
  6
Continuous
 62
     1
100
AcDbLine
 10
393.09564
 20
246.35863
 30
0.0
 11
397.09564
 21
246.35863
 31
0.0
  0
LINE
  5
CC
330
277
100
AcDbEntity
  8
104
  6
Continuous
 62
    40
100
AcDbLine
 10
397.09564
 20
259.7205
 30
0.0
 11
401.59564
 21
259.7205
 31
0.0
  0
LINE
  5
CD
330
277
100
AcDbEntity
  8
104
  6
Continuous
 62
    40
100
AcDbLine
 10
397.09564
 20
255.7205
 30
0.0
 11
401.59564
 21
255.7205
 31
0.0
  0
LINE
  5
CE
330
277
100
AcDbEntity
  8
104
  6
Continuous
 62
    40
100
AcDbLine
 10
397.09564
 20
272.85863
 30
0.0
 11
401.59564
 21
272.85863
 31
0.0
  0
LINE
  5
CF
330
277
100
AcDbEntity
  8
104
  6
Continuous
 62
    40
100
AcDbLine
 10
401.59564
 20
272.85863
 30
0.0
 11
401.59564
 21
242.85863
 31
0.0
  0
LINE
  5
D0
330
277
100
AcDbEntity
  8
104
  6
Continuous
 62
    40
100
AcDbLine
 10
401.59564
 20
242.85863
 30
0.0
 11
397.09564
 21
242.85863
 31
0.0
  0
LINE
  5
D1
330
277
100
AcDbEntity
  8
104
  6
Continuous
 62
    40
100
AcDbLine
 10
397.09564
 20
242.85863
 30
0.0
 11
397.09564
 21
272.85863
 31
0.0
  0
LINE
  5
D2
330
277
100
AcDbEntity
  8
104
  6
Continuous
 62
    40
100
AcDbLine
 10
397.09564
 20
244.35863
 30
0.0
 11
393.09564
 21
244.35863
 31
0.0
  0
LINE
  5
D3
330
277
100
AcDbEntity
  8
104
  6
Continuous
 62
    40
100
AcDbLine
 10
397.09564
 20
271.35863
 30
0.0
 11
393.09564
 21
271.35863
 31
0.0
  0
LINE
  5
D4
330
277
100
AcDbEntity
  8
104
  6
Continuous
 62
    40
100
AcDbLine
 10
375.09564
 20
272.85863
 30
0.0
 11
393.09564
 21
272.85863
 31
0.0
  0
LINE
  5
D5
330
277
100
AcDbEntity
  8
104
  6
Continuous
 62
    40
100
AcDbLine
 10
393.09564
 20
272.85863
 30
0.0
 11
393.09564
 21
242.85863
 31
0.0
  0
LINE
  5
D6
330
277
100
AcDbEntity
  8
104
  6
Continuous
 62
    40
100
AcDbLine
 10
393.09564
 20
242.85863
 30
0.0
 11
375.09564
 21
242.85863
 31
0.0
  0
LINE
  5
D7
330
277
100
AcDbEntity
  8
104
  6
Continuous
 62
    40
100
AcDbLine
 10
375.09567
 20
366.33192
 30
0.0
 11
393.09567
 21
366.33192
 31
0.0
  0
LINE
  5
D8
330
277
100
AcDbEntity
  8
104
  6
Continuous
 62
    40
100
AcDbLine
 10
393.09567
 20
366.33192
 30
0.0
 11
393.09567
 21
336.33192
 31
0.0
  0
LINE
  5
D9
330
277
100
AcDbEntity
  8
104
  6
Continuous
 62
    40
100
AcDbLine
 10
393.09567
 20
336.33192
 30
0.0
 11
375.09567
 21
336.33192
 31
0.0
  0
LINE
  5
DA
330
277
100
AcDbEntity
  8
104
  6
Continuous
 62
    40
100
AcDbLine
 10
373.59564
 20
245.85863
 30
0.0
 11
371.59564
 21
245.85863
 31
0.0
  0
LINE
  5
DB
330
277
100
AcDbEntity
  8
104
  6
Continuous
 62
    40
100
AcDbLine
 10
371.59564
 20
245.85863
 30
0.0
 11
371.59564
 21
269.85863
 31
0.0
  0
LINE
  5
DC
330
277
100
AcDbEntity
  8
104
  6
Continuous
 62
    40
100
AcDbLine
 10
371.59564
 20
269.85863
 30
0.0
 11
373.59564
 21
269.85863
 31
0.0
  0
ARC
  5
DD
330
277
100
AcDbEntity
  8
104
  6
Continuous
 62
    40
100
AcDbCircle
 10
364.09563
 20
228.85862
 30
0.0
 40
2.999998999999999
100
AcDbArc
 50
228.94533
 51
463.4504699999999
  0
CIRCLE
  5
DE
330
277
100
AcDbEntity
  8
104
  6
Continuous
 62
    40
100
AcDbCircle
 10
364.09564
 20
288.35863
 30
0.0
 40
3.0
  0
LINE
  5
DF
330
277
100
AcDbEntity
  8
104
  6
Continuous
 62
    40
100
AcDbLine
 10
361.38854
 20
287.06573
 30
0.0
 11
365.38851
 21
291.06573
 31
0.0
  0
LINE
  5
E0
330
277
100
AcDbEntity
  8
104
  6
Continuous
 62
    40
100
AcDbLine
 10
362.80273
 20
285.65152
 30
0.0
 11
366.80273
 21
289.65152
 31
0.0
  0
LINE
  5
E1
330
277
100
AcDbEntity
  8
104
  6
Continuous
 62
    40
100
AcDbLine
 10
363.18676
 20
229.36395
 30
0.0
 11
365.38851
 21
231.56573
 31
0.0
  0
LINE
  5
E2
330
277
100
AcDbEntity
  8
104
  6
Continuous
 62
    40
100
AcDbLine
 10
362.80273
 20
226.15152
 30
0.0
 11
366.80273
 21
230.15152
 31
0.0
  0
LINE
  5
E3
330
277
100
AcDbEntity
  8
104
  6
Continuous
 62
    40
100
AcDbLine
 10
354.21682
 20
286.69401
 30
0.0
 11
358.96026
 21
291.43744
 31
0.0
  0
LINE
  5
E4
330
277
100
AcDbEntity
  8
104
  6
Continuous
 62
    40
100
AcDbLine
 10
355.63107
 20
285.27981
 30
0.0
 11
360.37448
 21
290.02322
 31
0.0
  0
LINE
  5
E5
330
277
100
AcDbEntity
  8
104
  6
Continuous
 62
    40
100
AcDbLine
 10
363.51681
 20
258.69765
 30
0.0
 11
368.26025
 21
263.44106
 31
0.0
  0
LINE
  5
E6
330
277
100
AcDbEntity
  8
104
  6
Continuous
 62
    40
100
AcDbLine
 10
364.93102
 20
257.28343
 30
0.0
 11
369.67446
 21
262.02684
 31
0.0
  0
CIRCLE
  5
E7
330
277
100
AcDbEntity
  8
104
  6
Continuous
 62
    40
100
AcDbCircle
 10
366.59564
 20
260.36224
 30
0.0
 40
3.5
  0
CIRCLE
  5
E8
330
277
100
AcDbEntity
  8
104
  6
Continuous
 62
    40
100
AcDbCircle
 10
357.29565
 20
288.35863
 30
0.0
 40
3.5
  0
ARC
  5
E9
330
277
100
AcDbEntity
  8
104
  6
Continuous
 62
    40
100
AcDbCircle
 10
357.29565
 20
288.35863
 30
0.0
 40
4.0000049
100
AcDbArc
 50
18.194283
 51
157.66865
  0
LINE
  5
EA
330
277
100
AcDbEntity
  8
104
  6
Continuous
 62
    40
100
AcDbLine
 10
362.4483
 20
284.87785
 30
0.0
 11
357.59564
 21
284.87785
 31
0.0
  0
ARC
  5
EB
330
277
100
AcDbEntity
  8
104
  6
Continuous
 62
    40
100
AcDbCircle
 10
357.59567
 20
280.87788
 30
0.0
 40
3.9999703
100
AcDbArc
 50
90.00044800000001
 51
180.00043
  0
LINE
  5
EC
330
277
100
AcDbEntity
  8
104
  6
Continuous
 62
    40
100
AcDbLine
 10
353.5957
 20
280.87785
 30
0.0
 11
353.5957
 21
278.00148
 31
0.0
  0
LINE
  5
ED
330
277
100
AcDbEntity
  8
104
  6
Continuous
 62
    40
100
AcDbLine
 10
366.59564
 20
256.35864
 30
0.0
 11
366.59564
 21
248.35863
 31
0.0
  0
LINE
  5
EE
330
277
100
AcDbEntity
  8
104
  6
Continuous
 62
    40
100
AcDbLine
 10
366.59564
 20
248.35863
 30
0.0
 11
353.59564
 21
248.35863
 31
0.0
  0
LINE
  5
EF
330
277
100
AcDbEntity
  8
104
  6
Continuous
 62
    40
100
AcDbLine
 10
366.59564
 20
256.35864
 30
0.0
 11
357.58245
 21
256.38835
 31
0.0
  0
ARC
  5
F0
330
277
100
AcDbEntity
  8
104
  6
Continuous
 62
    40
100
AcDbCircle
 10
357.59561
 20
260.38834
 30
0.0
 40
4.000007899999999
100
AcDbArc
 50
180.00025
 51
269.81148
  0
LINE
  5
F1
330
277
100
AcDbEntity
  8
104
  6
Continuous
 62
    40
100
AcDbLine
 10
353.5956
 20
260.38832
 30
0.0
 11
353.5956
 21
263.41447
 31
0.0
  0
LINE
  5
F2
330
277
100
AcDbEntity
  8
104
  6
Continuous
 62
    40
100
AcDbLine
 10
349.09564
 20
223.35863
 30
0.0
 11
351.99563
 21
223.35863
 31
0.0
  0
ARC
  5
F3
330
277
100
AcDbEntity
  8
104
  6
Continuous
 62
    40
100
AcDbCircle
 10
351.99566
 20
224.95866
 30
0.0
 40
1.6000376
100
AcDbArc
 50
269.99895
 51
359.99887
  0
LINE
  5
F4
330
277
100
AcDbEntity
  8
104
  6
Continuous
 62
    40
100
AcDbLine
 10
353.5957
 20
224.95863
 30
0.0
 11
353.5957
 21
290.75862
 31
0.0
  0
ARC
  5
F5
330
277
100
AcDbEntity
  8
104
  6
Continuous
 62
    40
100
AcDbCircle
 10
351.99566
 20
290.75859
 30
0.0
 40
1.6000384
100
AcDbArc
 50
0.001159226
 51
90.001025
  0
LINE
  5
F6
330
277
100
AcDbEntity
  8
104
  6
Continuous
 62
    40
100
AcDbLine
 10
351.99563
 20
292.35863
 30
0.0
 11
349.09564
 21
292.35863
 31
0.0
  0
LINE
  5
F7
330
277
100
AcDbEntity
  8
104
  6
Continuous
 62
    40
100
AcDbLine
 10
351.99563
 20
292.35863
 30
0.0
 11
368.99563
 21
292.35863
 31
0.0
  0
ARC
  5
F8
330
277
100
AcDbEntity
  8
104
  6
Continuous
 62
    40
100
AcDbCircle
 10
368.99564
 20
290.75859
 30
0.0
 40
1.6000369
100
AcDbArc
 50
0.0011067087
 51
90.00050500000002
  0
LINE
  5
F9
330
277
100
AcDbEntity
  8
104
  6
Continuous
 62
    40
100
AcDbLine
 10
370.59568
 20
290.75862
 30
0.0
 11
370.59568
 21
260.35863
 31
0.0
  0
ARC
  5
FA
330
277
100
AcDbEntity
  8
104
  6
Continuous
 62
    40
100
AcDbCircle
 10
366.59565
 20
260.35865
 30
0.0
 40
4.000027499999999
100
AcDbArc
 50
269.99975
 51
359.99961
  0
LINE
  5
FB
330
277
100
AcDbEntity
  8
104
  6
Continuous
 62
    40
100
AcDbLine
 10
366.59564
 20
256.35863
 30
0.0
 11
366.59564
 21
256.35864
 31
0.0
  0
LINE
  5
FC
330
277
100
AcDbEntity
  8
104
  6
Continuous
 62
    40
100
AcDbLine
 10
366.59564
 20
256.35864
 30
0.0
 11
366.59564
 21
248.85863
 31
0.0
  0
LINE
  5
FD
330
277
100
AcDbEntity
  8
104
  6
Continuous
 62
    40
100
AcDbLine
 10
366.59564
 20
248.85863
 30
0.0
 11
368.99563
 21
248.85863
 31
0.0
  0
ARC
  5
FE
330
277
100
AcDbEntity
  8
104
  6
Continuous
 62
    40
100
AcDbCircle
 10
368.99565
 20
247.25859
 30
0.0
 40
1.6000344
100
AcDbArc
 50
0.001016952
 51
90.00059400000001
  0
LINE
  5
FF
330
277
100
AcDbEntity
  8
104
  6
Continuous
 62
    40
100
AcDbLine
 10
370.59568
 20
247.25862
 30
0.0
 11
370.59568
 21
245.10771
 31
0.0
  0
LINE
  5
100
330
277
100
AcDbEntity
  8
104
  6
Continuous
 62
    40
100
AcDbLine
 10
370.59568
 20
238.43974
 30
0.0
 11
370.59568
 21
238.6095
 31
0.0
  0
LINE
  5
101
330
277
100
AcDbEntity
  8
104
  6
Continuous
 62
    40
100
AcDbLine
 10
370.59568
 20
238.6095
 30
0.0
 11
370.59568
 21
224.95863
 31
0.0
  0
ARC
  5
102
330
277
100
AcDbEntity
  8
104
  6
Continuous
 62
    40
100
AcDbCircle
 10
368.99564
 20
224.95866
 30
0.0
 40
1.6000361
100
AcDbArc
 50
269.99947
 51
359.99892
  0
LINE
  5
103
330
277
100
AcDbEntity
  8
104
  6
Continuous
 62
    40
100
AcDbLine
 10
368.99563
 20
223.35863
 30
0.0
 11
353.59564
 21
223.35863
 31
0.0
  0
LINE
  5
104
330
277
100
AcDbEntity
  8
104
  6
Continuous
 62
    40
100
AcDbLine
 10
370.59564
 20
238.43974
 30
0.0
 11
363.9808
 21
238.43974
 31
0.0
  0
LINE
  5
105
330
277
100
AcDbEntity
  8
104
  6
Continuous
 62
    40
100
AcDbLine
 10
370.59564
 20
245.10771
 30
0.0
 11
365.59564
 21
245.10771
 31
0.0
  0
LINE
  5
106
330
277
100
AcDbEntity
  8
104
  6
Continuous
 62
    40
100
AcDbLine
 10
358.68267
 20
292.35863
 30
0.0
 11
359.49563
 21
292.35863
 31
0.0
  0
ARC
  5
107
330
277
100
AcDbEntity
  8
104
  6
Continuous
 62
    40
100
AcDbCircle
 10
359.49566
 20
290.75858
 30
0.0
 40
1.6000477
100
AcDbArc
 50
0.0014942546
 51
90.001227
  0
LINE
  5
108
330
277
100
AcDbEntity
  8
104
  6
Continuous
 62
    40
100
AcDbLine
 10
361.09571
 20
290.75862
 30
0.0
 11
361.09571
 21
286.45863
 31
0.0
  0
ARC
  5
109
330
277
100
AcDbEntity
  8
104
  6
Continuous
 62
    40
100
AcDbCircle
 10
362.69567
 20
286.45859
 30
0.0
 40
1.599962899999999
100
AcDbArc
 50
179.99846
 51
269.99882
  0
LINE
  5
10A
330
277
100
AcDbEntity
  8
104
  6
Continuous
 62
    40
100
AcDbLine
 10
362.69564
 20
284.85863
 30
0.0
 11
366.59564
 21
284.85863
 31
0.0
  0
ARC
  5
10B
330
277
100
AcDbEntity
  8
104
  6
Continuous
 62
    40
100
AcDbCircle
 10
366.59565
 20
280.85859
 30
0.0
 40
4.0000321
100
AcDbArc
 50
0.0004594222
 51
90.00018500000001
  0
LINE
  5
10C
330
277
100
AcDbEntity
  8
104
  6
Continuous
 62
    40
100
AcDbLine
 10
370.59568
 20
280.85863
 30
0.0
 11
370.59568
 21
277.30019
 31
0.0
  0
LINE
  5
10D
330
277
100
AcDbEntity
  8
99
  6
Continuous
 62
     1
100
AcDbLine
 10
79.698419
 20
389.67741
 30
0.0
 11
80.43212200000001
 21
403.67738
 31
0.0
  0
LINE
  5
10E
330
277
100
AcDbEntity
  8
99
  6
Continuous
 62
     1
100
AcDbLine
 10
98.49289800000001
 20
389.67741
 30
0.0
 11
97.759195
 21
403.67738
 31
0.0
  0
LINE
  5
10F
330
277
100
AcDbEntity
  8
104
  6
Continuous
 62
    40
100
AcDbLine
 10
68.59566599999999
 20
383.87739
 30
0.0
 11
68.59566599999999
 21
384.87739
 31
0.0
  0
ARC
  5
110
330
277
100
AcDbEntity
  8
104
  6
Continuous
 62
    40
100
AcDbCircle
 10
70.595663
 20
384.87738
 30
0.0
 40
1.9999975
100
AcDbArc
 50
89.99992799999999
 51
179.99964
  0
LINE
  5
111
330
277
100
AcDbEntity
  8
104
  6
Continuous
 62
    40
100
AcDbLine
 10
70.595666
 20
386.87738
 30
0.0
 11
107.59565
 21
386.87738
 31
0.0
  0
ARC
  5
112
330
277
100
AcDbEntity
  8
104
  6
Continuous
 62
    40
100
AcDbCircle
 10
107.59566
 20
384.87737
 30
0.0
 40
2.000007099999999
100
AcDbArc
 50
0.0006327972
 51
90.000227
  0
LINE
  5
113
330
277
100
AcDbEntity
  8
104
  6
Continuous
 62
    40
100
AcDbLine
 10
109.59567
 20
384.87739
 30
0.0
 11
109.59567
 21
383.87739
 31
0.0
  0
LINE
  5
114
330
277
100
AcDbEntity
  8
106
  6
CENTERLINE
 62
     1
100
AcDbLine
 10
89.095651
 20
319.51374
 30
0.0
 11
89.095651
 21
410.62098
 31
0.0
  0
LINE
  5
115
330
277
100
AcDbEntity
  8
104
  6
Continuous
 62
    40
100
AcDbLine
 10
76.750482
 20
386.87739
 30
0.0
 11
76.750482
 21
389.67738
 31
0.0
  0
LINE
  5
116
330
277
100
AcDbEntity
  8
104
  6
Continuous
 62
    40
100
AcDbLine
 10
76.750482
 20
389.67738
 30
0.0
 11
77.695672
 21
389.67738
 31
0.0
  0
LINE
  5
117
330
277
100
AcDbEntity
  8
104
  6
Continuous
 62
    40
100
AcDbLine
 10
77.695672
 20
389.67738
 30
0.0
 11
78.429376
 21
403.67738
 31
0.0
  0
LINE
  5
118
330
277
100
AcDbEntity
  8
104
  6
Continuous
 62
    40
100
AcDbLine
 10
78.429376
 20
403.67738
 30
0.0
 11
99.761941
 21
403.67738
 31
0.0
  0
LINE
  5
119
330
277
100
AcDbEntity
  8
104
  6
Continuous
 62
    40
100
AcDbLine
 10
99.761941
 20
403.67738
 30
0.0
 11
100.49565
 21
389.67741
 31
0.0
  0
LINE
  5
11A
330
277
100
AcDbEntity
  8
104
  6
Continuous
 62
    40
100
AcDbLine
 10
100.49565
 20
389.67741
 30
0.0
 11
101.49334
 21
389.67741
 31
0.0
  0
LINE
  5
11B
330
277
100
AcDbEntity
  8
104
  6
Continuous
 62
    40
100
AcDbLine
 10
101.49334
 20
389.67741
 30
0.0
 11
101.49334
 21
386.87739
 31
0.0
  0
LINE
  5
11C
330
277
100
AcDbEntity
  8
104
  6
Continuous
 62
    40
100
AcDbLine
 10
77.695672
 20
389.67741
 30
0.0
 11
100.49565
 21
389.67741
 31
0.0
  0
LINE
  5
11D
330
277
100
AcDbEntity
  8
104
  6
Continuous
 62
    40
100
AcDbLine
 10
34.095659
 20
383.87739
 30
0.0
 11
375.09567
 21
383.87739
 31
0.0
  0
LINE
  5
11E
330
277
100
AcDbEntity
  8
104
  6
Continuous
 62
    40
100
AcDbLine
 10
375.09567
 20
383.87739
 30
0.0
 11
375.09567
 21
324.37739
 31
0.0
  0
LINE
  5
11F
330
277
100
AcDbEntity
  8
104
  6
Continuous
 62
    40
100
AcDbLine
 10
375.09567
 20
324.37739
 30
0.0
 11
34.095659
 21
324.37739
 31
0.0
  0
LINE
  5
120
330
277
100
AcDbEntity
  8
104
  6
Continuous
 62
    40
100
AcDbLine
 10
34.095659
 20
324.37739
 30
0.0
 11
34.095659
 21
383.87739
 31
0.0
  0
LINE
  5
121
330
277
100
AcDbEntity
  8
104
  6
Continuous
 62
    40
100
AcDbLine
 10
44.06664399999999
 20
278.35863
 30
0.0
 11
44.06664399999999
 21
288.35863
 31
0.0
  0
LINE
  5
122
330
277
100
AcDbEntity
  8
104
  6
Continuous
 62
    40
100
AcDbLine
 10
46.06664399999999
 20
278.35863
 30
0.0
 11
46.06664399999999
 21
288.35863
 31
0.0
  0
LINE
  5
123
330
277
100
AcDbEntity
  8
104
  6
Continuous
 62
    40
100
AcDbLine
 10
42.179895
 20
278.35863
 30
0.0
 11
47.953393
 21
278.35863
 31
0.0
  0
LINE
  5
124
330
277
100
AcDbEntity
  8
104
  6
Continuous
 62
    40
100
AcDbLine
 10
47.953393
 20
278.35863
 30
0.0
 11
50.840142
 21
283.35863
 31
0.0
  0
LINE
  5
125
330
277
100
AcDbEntity
  8
104
  6
Continuous
 62
    40
100
AcDbLine
 10
50.840142
 20
283.35863
 30
0.0
 11
47.953393
 21
288.35863
 31
0.0
  0
LINE
  5
126
330
277
100
AcDbEntity
  8
104
  6
Continuous
 62
    40
100
AcDbLine
 10
47.953393
 20
288.35863
 30
0.0
 11
42.179895
 21
288.35863
 31
0.0
  0
LINE
  5
127
330
277
100
AcDbEntity
  8
104
  6
Continuous
 62
    40
100
AcDbLine
 10
42.179895
 20
288.35863
 30
0.0
 11
39.293145
 21
283.35863
 31
0.0
  0
LINE
  5
128
330
277
100
AcDbEntity
  8
104
  6
Continuous
 62
    40
100
AcDbLine
 10
39.293145
 20
283.35863
 30
0.0
 11
42.179895
 21
278.35863
 31
0.0
  0
LINE
  5
129
330
277
100
AcDbEntity
  8
104
  6
Continuous
 62
    40
100
AcDbLine
 10
44.06664399999999
 20
227.35863
 30
0.0
 11
44.06664399999999
 21
237.35863
 31
0.0
  0
LINE
  5
12A
330
277
100
AcDbEntity
  8
104
  6
Continuous
 62
    40
100
AcDbLine
 10
46.06664399999999
 20
227.35863
 30
0.0
 11
46.06664399999999
 21
237.35863
 31
0.0
  0
LINE
  5
12B
330
277
100
AcDbEntity
  8
104
  6
Continuous
 62
    40
100
AcDbLine
 10
42.179895
 20
227.35863
 30
0.0
 11
47.953393
 21
227.35863
 31
0.0
  0
LINE
  5
12C
330
277
100
AcDbEntity
  8
104
  6
Continuous
 62
    40
100
AcDbLine
 10
47.953393
 20
227.35863
 30
0.0
 11
50.840142
 21
232.35863
 31
0.0
  0
LINE
  5
12D
330
277
100
AcDbEntity
  8
104
  6
Continuous
 62
    40
100
AcDbLine
 10
50.840142
 20
232.35863
 30
0.0
 11
47.953393
 21
237.35863
 31
0.0
  0
LINE
  5
12E
330
277
100
AcDbEntity
  8
104
  6
Continuous
 62
    40
100
AcDbLine
 10
47.953393
 20
237.35863
 30
0.0
 11
42.179895
 21
237.35863
 31
0.0
  0
LINE
  5
12F
330
277
100
AcDbEntity
  8
104
  6
Continuous
 62
    40
100
AcDbLine
 10
42.179895
 20
237.35863
 30
0.0
 11
39.293145
 21
232.35863
 31
0.0
  0
LINE
  5
130
330
277
100
AcDbEntity
  8
104
  6
Continuous
 62
    40
100
AcDbLine
 10
39.293145
 20
232.35863
 30
0.0
 11
42.179895
 21
227.35863
 31
0.0
  0
CIRCLE
  5
131
330
277
100
AcDbEntity
  8
104
  6
Continuous
 62
    40
100
AcDbCircle
 10
89.095651
 20
257.85863
 30
0.0
 40
20.5
  0
LINE
  5
132
330
277
100
AcDbEntity
  8
106
  6
CENTERLINE
 62
     1
100
AcDbLine
 10
89.095651
 20
300.90244
 30
0.0
 11
89.095651
 21
215.54446
 31
0.0
  0
LINE
  5
133
330
277
100
AcDbEntity
  8
104
  6
Continuous
 62
    40
100
AcDbLine
 10
79.297693
 20
262.85863
 30
0.0
 11
98.89360899999999
 21
262.85863
 31
0.0
  0
ARC
  5
134
330
277
100
AcDbEntity
  8
104
  6
Continuous
 62
    40
100
AcDbCircle
 10
89.095651
 20
257.85863
 30
0.0
 40
10.999999
100
AcDbArc
 50
332.96431
 51
387.03569
  0
LINE
  5
135
330
277
100
AcDbEntity
  8
104
  6
Continuous
 62
    40
100
AcDbLine
 10
98.89360899999999
 20
252.85863
 30
0.0
 11
79.297693
 21
252.85863
 31
0.0
  0
ARC
  5
136
330
277
100
AcDbEntity
  8
104
  6
Continuous
 62
    40
100
AcDbCircle
 10
89.095651
 20
257.85863
 30
0.0
 40
10.999999
100
AcDbArc
 50
152.96431
 51
207.03569
  0
CIRCLE
  5
137
330
277
100
AcDbEntity
  8
104
  6
Continuous
 62
    40
100
AcDbCircle
 10
89.095651
 20
257.85863
 30
0.0
 40
4.0
  0
LINE
  5
138
330
277
100
AcDbEntity
  8
104
  6
Continuous
 62
    40
100
AcDbLine
 10
253.09564
 20
224.94255
 30
0.0
 11
253.09564
 21
227.4003
 31
0.0
  0
LINE
  5
139
330
277
100
AcDbEntity
  8
104
  6
Continuous
 62
    40
100
AcDbLine
 10
255.09564
 20
224.94255
 30
0.0
 11
255.09564
 21
227.4003
 31
0.0
  0
LINE
  5
13A
330
277
100
AcDbEntity
  8
104
  6
Continuous
 62
    40
100
AcDbLine
 10
253.09564
 20
234.31697
 30
0.0
 11
253.09564
 21
236.7747
 31
0.0
  0
LINE
  5
13B
330
277
100
AcDbEntity
  8
104
  6
Continuous
 62
    40
100
AcDbLine
 10
255.09564
 20
234.31697
 30
0.0
 11
255.09564
 21
236.7747
 31
0.0
  0
LINE
  5
13C
330
277
100
AcDbEntity
  8
104
  6
Continuous
 62
    40
100
AcDbLine
 10
253.09564
 20
278.94255
 30
0.0
 11
253.09564
 21
281.40028
 31
0.0
  0
LINE
  5
13D
330
277
100
AcDbEntity
  8
104
  6
Continuous
 62
    40
100
AcDbLine
 10
255.09564
 20
278.94255
 30
0.0
 11
255.09564
 21
281.40028
 31
0.0
  0
LINE
  5
13E
330
277
100
AcDbEntity
  8
104
  6
Continuous
 62
    40
100
AcDbLine
 10
253.09564
 20
288.31697
 30
0.0
 11
253.09564
 21
290.7747
 31
0.0
  0
LINE
  5
13F
330
277
100
AcDbEntity
  8
104
  6
Continuous
 62
    40
100
AcDbLine
 10
255.09564
 20
288.31697
 30
0.0
 11
255.09564
 21
290.7747
 31
0.0
  0
CIRCLE
  5
140
330
277
100
AcDbEntity
  8
104
  6
Continuous
 62
    40
100
AcDbCircle
 10
254.09564
 20
230.85863
 30
0.0
 40
6.0
  0
CIRCLE
  5
141
330
277
100
AcDbEntity
  8
104
  6
Continuous
 62
    40
100
AcDbCircle
 10
254.09564
 20
230.85863
 30
0.0
 40
3.600035999999999
  0
CIRCLE
  5
142
330
277
100
AcDbEntity
  8
104
  6
Continuous
 62
    40
100
AcDbCircle
 10
254.09564
 20
284.85863
 30
0.0
 40
6.0
  0
CIRCLE
  5
143
330
277
100
AcDbEntity
  8
104
  6
Continuous
 62
    40
100
AcDbCircle
 10
254.09564
 20
284.85863
 30
0.0
 40
3.600035999999999
  0
LINE
  5
144
330
277
100
AcDbEntity
  8
104
  6
Continuous
 62
    40
100
AcDbLine
 10
39.49566
 20
267.85863
 30
0.0
 11
56.076715
 21
267.85863
 31
0.0
  0
LINE
  5
145
330
277
100
AcDbEntity
  8
104
  6
Continuous
 62
    40
100
AcDbLine
 10
39.49566
 20
247.85863
 30
0.0
 11
56.076715
 21
247.85863
 31
0.0
  0
LINE
  5
146
330
277
100
AcDbEntity
  8
104
  6
Continuous
 62
    40
100
AcDbLine
 10
57.09565099999999
 20
223.35878
 30
0.0
 11
57.09565099999999
 21
244.96483
 31
0.0
  0
LINE
  5
147
330
277
100
AcDbEntity
  8
104
  6
Continuous
 62
    40
100
AcDbLine
 10
57.09565099999999
 20
292.35799
 30
0.0
 11
57.09565099999999
 21
270.75243
 31
0.0
  0
LINE
  5
148
330
277
100
AcDbEntity
  8
104
  6
Continuous
 62
    40
100
AcDbLine
 10
89.305932
 20
292.35799
 30
0.0
 11
44.918145
 21
292.35799
 31
0.0
  0
ARC
  5
149
330
277
100
AcDbEntity
  8
104
  6
Continuous
 62
    40
100
AcDbCircle
 10
49.095656
 20
288.0512
 30
0.0
 40
5.999997099999999
100
AcDbArc
 50
134.12708
 51
177.06304
  0
ARC
  5
14A
330
277
100
AcDbEntity
  8
104
  6
Continuous
 62
    40
100
AcDbCircle
 10
45.05343299999999
 20
283.26486
 30
0.0
 40
10.39754
100
AcDbArc
 50
250.57591
 51
420.99124
  0
ARC
  5
14B
330
277
100
AcDbEntity
  8
104
  6
Continuous
 62
    40
100
AcDbCircle
 10
45.063063
 20
232.34415
 30
0.0
 40
10.502852
100
AcDbArc
 50
298.63081
 51
469.2772800000001
  0
LINE
  5
14C
330
277
100
AcDbEntity
  8
104
  6
Continuous
 62
    40
100
AcDbLine
 10
48.81942099999999
 20
286.85863
 30
0.0
 11
50.09565099999999
 21
286.85863
 31
0.0
  0
ARC
  5
14D
330
277
100
AcDbEntity
  8
104
  6
Continuous
 62
    40
100
AcDbCircle
 10
50.09565099999999
 20
283.35863
 30
0.0
 40
3.5
100
AcDbArc
 50
270.0
 51
450.0
  0
LINE
  5
14E
330
277
100
AcDbEntity
  8
104
  6
Continuous
 62
    40
100
AcDbLine
 10
50.09565099999999
 20
279.85863
 30
0.0
 11
48.81942099999999
 21
279.85863
 31
0.0
  0
LINE
  5
14F
330
277
100
AcDbEntity
  8
104
  6
Continuous
 62
    40
100
AcDbLine
 10
41.595651
 20
279.37056
 30
0.0
 11
41.595651
 21
271.49593
 31
0.0
  0
LINE
  5
150
330
277
100
AcDbEntity
  8
104
  6
Continuous
 62
    40
100
AcDbLine
 10
41.595651
 20
271.49593
 30
0.0
 11
39.49566
 21
267.85863
 31
0.0
  0
LINE
  5
151
330
277
100
AcDbEntity
  8
104
  6
Continuous
 62
    40
100
AcDbLine
 10
39.49566
 20
267.85863
 30
0.0
 11
39.49566
 21
247.85863
 31
0.0
  0
LINE
  5
152
330
277
100
AcDbEntity
  8
104
  6
Continuous
 62
    40
100
AcDbLine
 10
39.49566
 20
247.85863
 30
0.0
 11
41.595651
 21
244.22133
 31
0.0
  0
LINE
  5
153
330
277
100
AcDbEntity
  8
104
  6
Continuous
 62
    40
100
AcDbLine
 10
41.595651
 20
244.22133
 30
0.0
 11
41.595651
 21
236.34669
 31
0.0
  0
LINE
  5
154
330
277
100
AcDbEntity
  8
104
  6
Continuous
 62
    40
100
AcDbLine
 10
48.828424
 20
235.843
 30
0.0
 11
50.09565099999999
 21
235.843
 31
0.0
  0
ARC
  5
155
330
277
100
AcDbEntity
  8
104
  6
Continuous
 62
    40
100
AcDbCircle
 10
50.09565099999999
 20
232.35081
 30
0.0
 40
3.4921875
100
AcDbArc
 50
270.0
 51
450.0
  0
LINE
  5
156
330
277
100
AcDbEntity
  8
104
  6
Continuous
 62
    40
100
AcDbLine
 10
50.09565099999999
 20
228.85863
 30
0.0
 11
48.81942099999999
 21
228.85863
 31
0.0
  0
LINE
  5
157
330
277
100
AcDbEntity
  8
104
  6
Continuous
 62
    40
100
AcDbLine
 10
43.123407
 20
227.34523
 30
0.0
 11
43.123407
 21
227.35863
 31
0.0
  0
ARC
  5
158
330
277
100
AcDbEntity
  8
104
  6
Continuous
 62
    40
100
AcDbCircle
 10
49.666534
 20
227.97056
 30
0.0
 40
6.571680599999999
100
AcDbArc
 50
185.34296
 51
195.58201
  0
ARC
  5
159
330
277
100
AcDbEntity
  8
104
  6
Continuous
 62
    40
100
AcDbCircle
 10
49.327775
 20
227.87511
 30
0.0
 40
6.2197303
100
AcDbArc
 50
195.57324
 51
206.19508
  0
ARC
  5
15A
330
277
100
AcDbEntity
  8
104
  6
Continuous
 62
    40
100
AcDbCircle
 10
49.006559
 20
227.71682
 30
0.0
 40
5.8616314
100
AcDbArc
 50
206.19274
 51
217.2429
  0
ARC
  5
15B
330
277
100
AcDbEntity
  8
104
  6
Continuous
 62
    40
100
AcDbCircle
 10
48.755729
 20
227.52688
 30
0.0
 40
5.5469986
100
AcDbArc
 50
217.24902
 51
228.71307
  0
LINE
  5
15C
330
277
100
AcDbEntity
  8
104
  6
Continuous
 62
    40
100
AcDbLine
 10
45.09565099999999
 20
223.35878
 30
0.0
 11
89.198266
 21
223.35878
 31
0.0
  0
LINE
  5
15D
330
277
100
AcDbEntity
  8
104
  6
Continuous
 62
    40
100
AcDbLine
 10
264.09564
 20
223.35878
 30
0.0
 11
264.09564
 21
223.85863
 31
0.0
  0
ARC
  5
15E
330
277
100
AcDbEntity
  8
104
  6
Continuous
 62
    40
100
AcDbCircle
 10
270.09563
 20
223.85863
 30
0.0
 40
5.999989499999999
100
AcDbArc
 50
89.9999
 51
180.00002
  0
LINE
  5
15F
330
277
100
AcDbEntity
  8
104
  6
Continuous
 62
    40
100
AcDbLine
 10
270.09564
 20
229.85862
 30
0.0
 11
319.59564
 21
229.85862
 31
0.0
  0
ARC
  5
160
330
277
100
AcDbEntity
  8
104
  6
Continuous
 62
    40
100
AcDbCircle
 10
319.59566
 20
223.85858
 30
0.0
 40
6.0000362
100
AcDbArc
 50
0.000421918
 51
90.00023699999999
  0
LINE
  5
161
330
277
100
AcDbEntity
  8
104
  6
Continuous
 62
    40
100
AcDbLine
 10
325.5957
 20
223.85863
 30
0.0
 11
325.5957
 21
223.35878
 31
0.0
  0
LINE
  5
162
330
277
100
AcDbEntity
  8
104
  6
Continuous
 62
    40
100
AcDbLine
 10
264.09564
 20
292.35799
 30
0.0
 11
264.09564
 21
291.85863
 31
0.0
  0
ARC
  5
163
330
277
100
AcDbEntity
  8
104
  6
Continuous
 62
    40
100
AcDbCircle
 10
270.09562
 20
291.85862
 30
0.0
 40
5.9999887
100
AcDbArc
 50
179.99989
 51
270.00011
  0
LINE
  5
164
330
277
100
AcDbEntity
  8
104
  6
Continuous
 62
    40
100
AcDbLine
 10
270.09564
 20
285.85863
 30
0.0
 11
319.5957
 21
285.85863
 31
0.0
  0
ARC
  5
165
330
277
100
AcDbEntity
  8
104
  6
Continuous
 62
    40
100
AcDbCircle
 10
319.59569
 20
291.85863
 30
0.0
 40
6.0000049
100
AcDbArc
 50
270.00005
 51
359.99995
  0
LINE
  5
166
330
277
100
AcDbEntity
  8
104
  6
Continuous
 62
    40
100
AcDbLine
 10
325.5957
 20
291.85863
 30
0.0
 11
325.5957
 21
292.35799
 31
0.0
  0
LINE
  5
167
330
277
100
AcDbEntity
  8
104
  6
Continuous
 62
    40
100
AcDbLine
 10
151.09565
 20
292.35799
 30
0.0
 11
151.09565
 21
291.85863
 31
0.0
  0
ARC
  5
168
330
277
100
AcDbEntity
  8
104
  6
Continuous
 62
    40
100
AcDbCircle
 10
157.09566
 20
291.85863
 30
0.0
 40
6.000003999999999
100
AcDbArc
 50
180.00004
 51
269.99996
  0
LINE
  5
169
330
277
100
AcDbEntity
  8
104
  6
Continuous
 62
    40
100
AcDbLine
 10
157.09565
 20
285.85863
 30
0.0
 11
238.09564
 21
285.85863
 31
0.0
  0
ARC
  5
16A
330
277
100
AcDbEntity
  8
104
  6
Continuous
 62
    40
100
AcDbCircle
 10
238.09564
 20
291.85863
 30
0.0
 40
6.000006899999999
100
AcDbArc
 50
269.99992
 51
359.99993
  0
LINE
  5
16B
330
277
100
AcDbEntity
  8
104
  6
Continuous
 62
    40
100
AcDbLine
 10
244.09565
 20
291.85863
 30
0.0
 11
244.09565
 21
292.35799
 31
0.0
  0
LINE
  5
16C
330
277
100
AcDbEntity
  8
104
  6
Continuous
 62
    40
100
AcDbLine
 10
151.09565
 20
223.35878
 30
0.0
 11
151.09565
 21
223.85863
 31
0.0
  0
ARC
  5
16D
330
277
100
AcDbEntity
  8
104
  6
Continuous
 62
    40
100
AcDbCircle
 10
157.09566
 20
223.85861
 30
0.0
 40
6.0000048
100
AcDbArc
 50
90.000046
 51
179.99988
  0
LINE
  5
16E
330
277
100
AcDbEntity
  8
104
  6
Continuous
 62
    40
100
AcDbLine
 10
157.09565
 20
229.85862
 30
0.0
 11
238.09564
 21
229.85862
 31
0.0
  0
ARC
  5
16F
330
277
100
AcDbEntity
  8
104
  6
Continuous
 62
    40
100
AcDbCircle
 10
238.09564
 20
223.85861
 30
0.0
 40
6.0000077
100
AcDbArc
 50
0.000149668
 51
90.00007
  0
LINE
  5
170
330
277
100
AcDbEntity
  8
104
  6
Continuous
 62
    40
100
AcDbLine
 10
244.09565
 20
223.85863
 30
0.0
 11
244.09565
 21
223.35878
 31
0.0
  0
LINE
  5
171
330
277
100
AcDbEntity
  8
104
  6
Continuous
 62
    40
100
AcDbLine
 10
89.095651
 20
292.35799
 30
0.0
 11
151.09565
 21
292.35799
 31
0.0
  0
LINE
  5
172
330
277
100
AcDbEntity
  8
104
  6
Continuous
 62
    40
100
AcDbLine
 10
151.09565
 20
292.35799
 30
0.0
 11
151.09565
 21
277.85863
 31
0.0
  0
ARC
  5
173
330
277
100
AcDbEntity
  8
104
  6
Continuous
 62
    40
100
AcDbCircle
 10
161.09566
 20
277.85863
 30
0.0
 40
10.000008
100
AcDbArc
 50
180.0
 51
269.99995
  0
LINE
  5
174
330
277
100
AcDbEntity
  8
104
  6
Continuous
 62
    40
100
AcDbLine
 10
161.09565
 20
267.85862
 30
0.0
 11
234.09564
 21
267.85862
 31
0.0
  0
ARC
  5
175
330
277
100
AcDbEntity
  8
104
  6
Continuous
 62
    40
100
AcDbCircle
 10
234.09564
 20
277.85863
 30
0.0
 40
10.000011
100
AcDbArc
 50
269.99998
 51
359.99998
  0
LINE
  5
176
330
277
100
AcDbEntity
  8
104
  6
Continuous
 62
    40
100
AcDbLine
 10
244.09565
 20
277.85863
 30
0.0
 11
244.09565
 21
292.35799
 31
0.0
  0
LINE
  5
177
330
277
100
AcDbEntity
  8
104
  6
Continuous
 62
    40
100
AcDbLine
 10
244.09565
 20
292.35799
 30
0.0
 11
264.09564
 21
292.35799
 31
0.0
  0
LINE
  5
178
330
277
100
AcDbEntity
  8
104
  6
Continuous
 62
    40
100
AcDbLine
 10
264.09564
 20
292.35799
 30
0.0
 11
264.09564
 21
277.85863
 31
0.0
  0
ARC
  5
179
330
277
100
AcDbEntity
  8
104
  6
Continuous
 62
    40
100
AcDbCircle
 10
274.09563
 20
277.85861
 30
0.0
 40
9.9999929
100
AcDbArc
 50
179.99991
 51
270.00004
  0
LINE
  5
17A
330
277
100
AcDbEntity
  8
104
  6
Continuous
 62
    40
100
AcDbLine
 10
274.09564
 20
267.85862
 30
0.0
 11
315.59564
 21
267.85862
 31
0.0
  0
ARC
  5
17B
330
277
100
AcDbEntity
  8
104
  6
Continuous
 62
    40
100
AcDbCircle
 10
315.59566
 20
277.85866
 30
0.0
 40
10.00004
100
AcDbArc
 50
269.99988
 51
359.99982
  0
LINE
  5
17C
330
277
100
AcDbEntity
  8
104
  6
Continuous
 62
    40
100
AcDbLine
 10
325.5957
 20
277.85863
 30
0.0
 11
325.5957
 21
292.35799
 31
0.0
  0
LINE
  5
17D
330
277
100
AcDbEntity
  8
104
  6
Continuous
 62
    40
100
AcDbLine
 10
325.5957
 20
292.35799
 30
0.0
 11
349.09564
 21
292.35799
 31
0.0
  0
LINE
  5
17E
330
277
100
AcDbEntity
  8
104
  6
Continuous
 62
    40
100
AcDbLine
 10
349.09564
 20
292.35799
 30
0.0
 11
349.09564
 21
223.35878
 31
0.0
  0
LINE
  5
17F
330
277
100
AcDbEntity
  8
104
  6
Continuous
 62
    40
100
AcDbLine
 10
349.09564
 20
223.35878
 30
0.0
 11
325.59564
 21
223.35878
 31
0.0
  0
LINE
  5
180
330
277
100
AcDbEntity
  8
104
  6
Continuous
 62
    40
100
AcDbLine
 10
325.59564
 20
223.35878
 30
0.0
 11
325.59564
 21
237.85863
 31
0.0
  0
ARC
  5
181
330
277
100
AcDbEntity
  8
104
  6
Continuous
 62
    40
100
AcDbCircle
 10
315.5956
 20
237.85858
 30
0.0
 40
10.000035
100
AcDbArc
 50
0.0002448989
 51
89.999801
  0
LINE
  5
182
330
277
100
AcDbEntity
  8
104
  6
Continuous
 62
    40
100
AcDbLine
 10
315.59564
 20
247.85862
 30
0.0
 11
274.09564
 21
247.85862
 31
0.0
  0
ARC
  5
183
330
277
100
AcDbEntity
  8
104
  6
Continuous
 62
    40
100
AcDbCircle
 10
274.09564
 20
237.85863
 30
0.0
 40
9.999988099999999
100
AcDbArc
 50
90.00001799999999
 51
180.00002
  0
LINE
  5
184
330
277
100
AcDbEntity
  8
104
  6
Continuous
 62
    40
100
AcDbLine
 10
264.09565
 20
237.85863
 30
0.0
 11
264.09565
 21
223.35878
 31
0.0
  0
LINE
  5
185
330
277
100
AcDbEntity
  8
104
  6
Continuous
 62
    40
100
AcDbLine
 10
264.09565
 20
223.35878
 30
0.0
 11
244.09564
 21
223.35878
 31
0.0
  0
LINE
  5
186
330
277
100
AcDbEntity
  8
104
  6
Continuous
 62
    40
100
AcDbLine
 10
244.09564
 20
223.35878
 30
0.0
 11
244.09564
 21
237.85863
 31
0.0
  0
ARC
  5
187
330
277
100
AcDbEntity
  8
104
  6
Continuous
 62
    40
100
AcDbCircle
 10
234.09563
 20
237.85861
 30
0.0
 40
10.000006
100
AcDbArc
 50
0.0000815476
 51
89.999964
  0
LINE
  5
188
330
277
100
AcDbEntity
  8
104
  6
Continuous
 62
    40
100
AcDbLine
 10
234.09564
 20
247.85862
 30
0.0
 11
161.09565
 21
247.85862
 31
0.0
  0
ARC
  5
189
330
277
100
AcDbEntity
  8
104
  6
Continuous
 62
    40
100
AcDbCircle
 10
161.09564
 20
237.85862
 30
0.0
 40
10.000003
100
AcDbArc
 50
89.99993399999999
 51
179.99993
  0
LINE
  5
18A
330
277
100
AcDbEntity
  8
104
  6
Continuous
 62
    40
100
AcDbLine
 10
151.09564
 20
237.85863
 30
0.0
 11
151.09564
 21
223.35878
 31
0.0
  0
LINE
  5
18B
330
277
100
AcDbEntity
  8
104
  6
Continuous
 62
    40
100
AcDbLine
 10
151.09564
 20
223.35878
 30
0.0
 11
89.198266
 21
223.35878
 31
0.0
  0
LINE
  5
18C
330
277
100
AcDbEntity
  8
104
  6
Continuous
 62
    40
100
AcDbLine
 10
325.59564
 20
223.35878
 30
0.0
 11
264.09564
 21
223.35878
 31
0.0
  0
LINE
  5
18D
330
277
100
AcDbEntity
  8
104
  6
Continuous
 62
    40
100
AcDbLine
 10
264.09564
 20
292.35799
 30
0.0
 11
325.59564
 21
292.35799
 31
0.0
  0
CIRCLE
  5
18E
330
277
100
AcDbEntity
  8
104
  6
Continuous
 62
    40
100
AcDbCircle
 10
63.095651
 20
228.35863
 30
0.0
 40
3.75
  0
CIRCLE
  5
18F
330
277
100
AcDbEntity
  8
104
  6
Continuous
 62
    40
100
AcDbCircle
 10
63.095651
 20
287.35863
 30
0.0
 40
3.75
  0
CIRCLE
  5
190
330
277
100
AcDbEntity
  8
104
  6
Continuous
 62
    40
100
AcDbCircle
 10
129.09565
 20
230.85863
 30
0.0
 40
4.75
  0
CIRCLE
  5
191
330
277
100
AcDbEntity
  8
104
  6
Continuous
 62
    40
100
AcDbCircle
 10
129.09565
 20
284.85863
 30
0.0
 40
2.5
  0
CIRCLE
  5
192
330
277
100
AcDbEntity
  8
104
  6
Continuous
 62
    40
100
AcDbCircle
 10
129.09565
 20
284.85863
 30
0.0
 40
4.75
  0
CIRCLE
  5
193
330
277
100
AcDbEntity
  8
104
  6
Continuous
 62
    40
100
AcDbCircle
 10
339.09564
 20
284.85863
 30
0.0
 40
2.5
  0
CIRCLE
  5
194
330
277
100
AcDbEntity
  8
104
  6
Continuous
 62
    40
100
AcDbCircle
 10
339.09564
 20
284.85863
 30
0.0
 40
4.75
  0
CIRCLE
  5
195
330
277
100
AcDbEntity
  8
104
  6
Continuous
 62
    40
100
AcDbCircle
 10
339.09564
 20
230.85863
 30
0.0
 40
2.5
  0
CIRCLE
  5
196
330
277
100
AcDbEntity
  8
104
  6
Continuous
 62
    40
100
AcDbCircle
 10
339.09564
 20
230.85863
 30
0.0
 40
4.75
  0
CIRCLE
  5
197
330
277
100
AcDbEntity
  8
104
  6
Continuous
 62
    40
100
AcDbCircle
 10
45.09565099999999
 20
257.85863
 30
0.0
 40
2.5
  0
CIRCLE
  5
198
330
277
100
AcDbEntity
  8
104
  6
Continuous
 62
    40
100
AcDbCircle
 10
45.09565099999999
 20
257.85863
 30
0.0
 40
4.75
  0
CIRCLE
  5
199
330
277
100
AcDbEntity
  8
104
  6
Continuous
 62
    40
100
AcDbCircle
 10
129.09565
 20
230.85863
 30
0.0
 40
2.5
  0
LINE
  5
19A
330
277
100
AcDbEntity
  8
104
  6
Continuous
 62
    40
100
AcDbLine
 10
131.59565
 20
230.85863
 30
0.0
 11
129.09565
 21
228.35863
 31
0.0
  0
CIRCLE
  5
19B
330
277
100
AcDbEntity
  8
104
  6
Continuous
 62
    40
100
AcDbCircle
 10
89.095651
 20
282.85863
 30
0.0
 40
2.5
  0
CIRCLE
  5
19C
330
277
100
AcDbEntity
  8
104
  6
Continuous
 62
    40
100
AcDbCircle
 10
114.09565
 20
257.85863
 30
0.0
 40
2.5
  0
CIRCLE
  5
19D
330
277
100
AcDbEntity
  8
104
  6
Continuous
 62
    40
100
AcDbCircle
 10
89.095651
 20
232.85863
 30
0.0
 40
2.5
  0
CIRCLE
  5
19E
330
277
100
AcDbEntity
  8
104
  6
Continuous
 62
    40
100
AcDbCircle
 10
64.095651
 20
257.85863
 30
0.0
 40
2.5
  0
CIRCLE
  5
19F
330
277
100
AcDbEntity
  8
104
  6
Continuous
 62
    40
100
AcDbCircle
 10
89.095651
 20
257.85863
 30
0.0
 40
34.5
  0
CIRCLE
  5
1A0
330
277
100
AcDbEntity
  8
104
  6
Continuous
 62
    40
100
AcDbCircle
 10
89.095651
 20
257.85863
 30
0.0
 40
12.649994
  0
LINE
  5
1A1
330
277
100
AcDbEntity
  8
106
  6
CENTERLINE
 62
     1
100
AcDbLine
 10
27.28901
 20
257.85863
 30
0.0
 11
381.50445
 21
257.85863
 31
0.0
  0
LINE
  5
1A2
330
277
100
AcDbEntity
  8
106
  6
CENTERLINE
 62
     1
100
AcDbLine
 10
381.50445
 20
257.85863
 30
0.0
 11
403.49865
 21
257.68114
 31
0.0
  0
LINE
  5
1A3
330
277
100
AcDbEntity
  8
104
  6
Continuous
 62
    40
100
AcDbLine
 10
35.595651
 20
220.35863
 30
0.0
 11
373.59564
 21
220.35863
 31
0.0
  0
LINE
  5
1A4
330
277
100
AcDbEntity
  8
104
  6
Continuous
 62
    40
100
AcDbLine
 10
373.59564
 20
220.35863
 30
0.0
 11
373.59564
 21
295.35863
 31
0.0
  0
LINE
  5
1A5
330
277
100
AcDbEntity
  8
104
  6
Continuous
 62
    40
100
AcDbLine
 10
373.59564
 20
295.35863
 30
0.0
 11
35.595651
 21
295.35863
 31
0.0
  0
LINE
  5
1A6
330
277
100
AcDbEntity
  8
104
  6
Continuous
 62
    40
100
AcDbLine
 10
35.595651
 20
295.35863
 30
0.0
 11
35.595651
 21
220.35863
 31
0.0
  0
LINE
  5
1A7
330
277
100
AcDbEntity
  8
104
  6
Continuous
 62
    40
100
AcDbLine
 10
34.095651
 20
296.85863
 30
0.0
 11
34.095651
 21
218.85863
 31
0.0
  0
LINE
  5
1A8
330
277
100
AcDbEntity
  8
104
  6
Continuous
 62
    40
100
AcDbLine
 10
34.095651
 20
218.85863
 30
0.0
 11
375.09564
 21
218.85863
 31
0.0
  0
LINE
  5
1A9
330
277
100
AcDbEntity
  8
104
  6
Continuous
 62
    40
100
AcDbLine
 10
375.09564
 20
218.85863
 30
0.0
 11
375.09564
 21
296.85863
 31
0.0
  0
LINE
  5
1AA
330
277
100
AcDbEntity
  8
104
  6
Continuous
 62
    40
100
AcDbLine
 10
375.09564
 20
296.85863
 30
0.0
 11
34.095651
 21
296.85863
 31
0.0
  0
LINE
  5
1AB
330
277
100
AcDbEntity
  8
99
  6
Continuous
 62
     1
100
AcDbLine
 10
233.84727
 20
101.58174
 30
0.0
 11
233.84727
 21
103.09001
 31
0.0
  0
LINE
  5
1AC
330
277
100
AcDbEntity
  8
99
  6
Continuous
 62
     1
100
AcDbLine
 10
233.84727
 20
103.09001
 30
0.0
 11
230.91197
 21
102.56169
 31
0.0
  0
LINE
  5
1AD
330
277
100
AcDbEntity
  8
99
  6
Continuous
 62
     1
100
AcDbLine
 10
230.91197
 20
102.56169
 30
0.0
 11
230.91197
 21
102.11006
 31
0.0
  0
LINE
  5
1AE
330
277
100
AcDbEntity
  8
99
  6
Continuous
 62
     1
100
AcDbLine
 10
230.91197
 20
102.11006
 30
0.0
 11
233.84727
 21
101.58174
 31
0.0
  0
LINE
  5
1AF
330
277
100
AcDbEntity
  8
99
  6
Continuous
 62
     1
100
AcDbLine
 10
236.55677
 20
98.384537
 30
0.0
 11
228.87983
 21
100.19084
 31
0.0
  0
LINE
  5
1B0
330
277
100
AcDbEntity
  8
99
  6
Continuous
 62
     1
100
AcDbLine
 10
228.87983
 20
100.19084
 30
0.0
 11
228.87983
 21
104.48088
 31
0.0
  0
LINE
  5
1B1
330
277
100
AcDbEntity
  8
99
  6
Continuous
 62
     1
100
AcDbLine
 10
228.87983
 20
104.48088
 30
0.0
 11
236.55677
 21
106.28722
 31
0.0
  0
LINE
  5
1B2
330
277
100
AcDbEntity
  8
99
  6
Continuous
 62
     1
100
AcDbLine
 10
236.55677
 20
106.28722
 30
0.0
 11
236.55677
 21
103.57774
 31
0.0
  0
LINE
  5
1B3
330
277
100
AcDbEntity
  8
99
  6
Continuous
 62
     1
100
AcDbLine
 10
236.55677
 20
103.57774
 30
0.0
 11
235.20204
 21
103.33385
 31
0.0
  0
LINE
  5
1B4
330
277
100
AcDbEntity
  8
99
  6
Continuous
 62
     1
100
AcDbLine
 10
235.20204
 20
103.33385
 30
0.0
 11
235.20204
 21
101.33785
 31
0.0
  0
LINE
  5
1B5
330
277
100
AcDbEntity
  8
99
  6
Continuous
 62
     1
100
AcDbLine
 10
235.20204
 20
101.33785
 30
0.0
 11
236.55677
 21
101.09401
 31
0.0
  0
LINE
  5
1B6
330
277
100
AcDbEntity
  8
99
  6
Continuous
 62
     1
100
AcDbLine
 10
236.55677
 20
101.09401
 30
0.0
 11
236.55677
 21
98.384537
 31
0.0
  0
LINE
  5
1B7
330
277
100
AcDbEntity
  8
99
  6
Continuous
 62
     1
100
AcDbLine
 10
236.55677
 20
90.70756499999999
 30
0.0
 11
236.55677
 21
88.449661
 31
0.0
  0
LINE
  5
1B8
330
277
100
AcDbEntity
  8
99
  6
Continuous
 62
     1
100
AcDbLine
 10
236.55677
 20
88.449661
 30
0.0
 11
228.87983
 21
88.449661
 31
0.0
  0
LINE
  5
1B9
330
277
100
AcDbEntity
  8
99
  6
Continuous
 62
     1
100
AcDbLine
 10
228.87983
 20
88.449661
 30
0.0
 11
228.87983
 21
92.062302
 31
0.0
  0
LINE
  5
1BA
330
277
100
AcDbEntity
  8
99
  6
Continuous
 62
     1
100
AcDbLine
 10
228.87983
 20
92.062302
 30
0.0
 11
233.39567
 21
93.05583199999999
 31
0.0
  0
LINE
  5
1BB
330
277
100
AcDbEntity
  8
99
  6
Continuous
 62
     1
100
AcDbLine
 10
233.39567
 20
93.05583199999999
 30
0.0
 11
233.39567
 21
93.191269
 31
0.0
  0
LINE
  5
1BC
330
277
100
AcDbEntity
  8
99
  6
Continuous
 62
     1
100
AcDbLine
 10
233.39567
 20
93.191269
 30
0.0
 11
233.39567
 21
93.326767
 31
0.0
  0
LINE
  5
1BD
330
277
100
AcDbEntity
  8
99
  6
Continuous
 62
     1
100
AcDbLine
 10
233.39567
 20
93.326767
 30
0.0
 11
228.87983
 21
94.32026699999999
 31
0.0
  0
LINE
  5
1BE
330
277
100
AcDbEntity
  8
99
  6
Continuous
 62
     1
100
AcDbLine
 10
228.87983
 20
94.32026699999999
 30
0.0
 11
228.87983
 21
97.932907
 31
0.0
  0
LINE
  5
1BF
330
277
100
AcDbEntity
  8
99
  6
Continuous
 62
     1
100
AcDbLine
 10
228.87983
 20
97.932907
 30
0.0
 11
236.55677
 21
97.932907
 31
0.0
  0
LINE
  5
1C0
330
277
100
AcDbEntity
  8
99
  6
Continuous
 62
     1
100
AcDbLine
 10
236.55677
 20
97.932907
 30
0.0
 11
236.55677
 21
95.675003
 31
0.0
  0
LINE
  5
1C1
330
277
100
AcDbEntity
  8
99
  6
Continuous
 62
     1
100
AcDbLine
 10
236.55677
 20
95.675003
 30
0.0
 11
230.91197
 21
95.675003
 31
0.0
  0
LINE
  5
1C2
330
277
100
AcDbEntity
  8
99
  6
Continuous
 62
     1
100
AcDbLine
 10
230.91197
 20
95.675003
 30
0.0
 11
230.91197
 21
95.449234
 31
0.0
  0
LINE
  5
1C3
330
277
100
AcDbEntity
  8
99
  6
Continuous
 62
     1
100
AcDbLine
 10
230.91197
 20
95.449234
 30
0.0
 11
236.55677
 21
94.207321
 31
0.0
  0
LINE
  5
1C4
330
277
100
AcDbEntity
  8
99
  6
Continuous
 62
     1
100
AcDbLine
 10
236.55677
 20
94.207321
 30
0.0
 11
236.55677
 21
92.175217
 31
0.0
  0
LINE
  5
1C5
330
277
100
AcDbEntity
  8
99
  6
Continuous
 62
     1
100
AcDbLine
 10
236.55677
 20
92.175217
 30
0.0
 11
230.91197
 21
90.93336499999999
 31
0.0
  0
LINE
  5
1C6
330
277
100
AcDbEntity
  8
99
  6
Continuous
 62
     1
100
AcDbLine
 10
230.91197
 20
90.93336499999999
 30
0.0
 11
230.91197
 21
90.70756499999999
 31
0.0
  0
LINE
  5
1C7
330
277
100
AcDbEntity
  8
99
  6
Continuous
 62
     1
100
AcDbLine
 10
230.91197
 20
90.70756499999999
 30
0.0
 11
236.55677
 21
90.70756499999999
 31
0.0
  0
ARC
  5
1C8
330
277
100
AcDbEntity
  8
99
  6
Continuous
 62
     1
100
AcDbCircle
 10
231.21678
 20
84.069266
 30
0.0
 40
0.76769406
100
AcDbArc
 50
0.0018179073
 51
89.99813000000001
  0
LINE
  5
1C9
330
277
100
AcDbEntity
  8
99
  6
Continuous
 62
     1
100
AcDbLine
 10
231.98448
 20
84.06928999999999
 30
0.0
 11
231.98448
 21
83.030685
 31
0.0
  0
LINE
  5
1CA
330
277
100
AcDbEntity
  8
99
  6
Continuous
 62
     1
100
AcDbLine
 10
231.98448
 20
83.030685
 30
0.0
 11
230.29102
 21
83.030685
 31
0.0
  0
LINE
  5
1CB
330
277
100
AcDbEntity
  8
99
  6
Continuous
 62
     1
100
AcDbLine
 10
230.29102
 20
83.030685
 30
0.0
 11
230.29102
 21
84.06928999999999
 31
0.0
  0
ARC
  5
1CC
330
277
100
AcDbEntity
  8
99
  6
Continuous
 62
     1
100
AcDbCircle
 10
231.05874
 20
84.06931
 30
0.0
 40
0.7677111
100
AcDbArc
 50
90.000754
 51
180.00146
  0
LINE
  5
1CD
330
277
100
AcDbEntity
  8
99
  6
Continuous
 62
     1
100
AcDbLine
 10
231.05873
 20
84.837021
 30
0.0
 11
231.21681
 21
84.83696
 31
0.0
  0
LINE
  5
1CE
330
277
100
AcDbEntity
  8
99
  6
Continuous
 62
     1
100
AcDbLine
 10
236.55677
 20
80.77272
 30
0.0
 11
228.87983
 21
80.77272
 31
0.0
  0
LINE
  5
1CF
330
277
100
AcDbEntity
  8
99
  6
Continuous
 62
     1
100
AcDbLine
 10
228.87983
 20
80.77272
 30
0.0
 11
228.87983
 21
85.28859
 31
0.0
  0
ARC
  5
1D0
330
277
100
AcDbEntity
  8
99
  6
Continuous
 62
     1
100
AcDbCircle
 10
231.13775
 20
85.28857399999999
 30
0.0
 40
2.257918999999999
100
AcDbArc
 50
89.999619
 51
179.99962
  0
ARC
  5
1D1
330
277
100
AcDbEntity
  8
99
  6
Continuous
 62
     1
100
AcDbCircle
 10
231.13992
 20
85.06711799999999
 30
0.0
 40
2.4793769
100
AcDbArc
 50
72.24217799999999
 51
90.04990599999999
  0
ARC
  5
1D2
330
277
100
AcDbEntity
  8
99
  6
Continuous
 62
     1
100
AcDbCircle
 10
231.1754
 20
85.17297799999999
 30
0.0
 40
2.3677394
100
AcDbArc
 50
53.91505099999999
 51
72.278543
  0
ARC
  5
1D3
330
277
100
AcDbEntity
  8
99
  6
Continuous
 62
     1
100
AcDbCircle
 10
231.25442
 20
85.28109699999999
 30
0.0
 40
2.233824799999999
100
AcDbArc
 50
34.829317
 51
53.919542
  0
ARC
  5
1D4
330
277
100
AcDbEntity
  8
99
  6
Continuous
 62
     1
100
AcDbCircle
 10
231.33672
 20
85.340012
 30
0.0
 40
2.132623399999999
100
AcDbArc
 50
15.103784
 51
34.79282100000001
  0
LINE
  5
1D5
330
277
100
AcDbEntity
  8
99
  6
Continuous
 62
     1
100
AcDbLine
 10
233.39567
 20
85.895706
 30
0.0
 11
236.55677
 21
87.546493
 31
0.0
  0
LINE
  5
1D6
330
277
100
AcDbEntity
  8
99
  6
Continuous
 62
     1
100
AcDbLine
 10
236.55677
 20
87.546493
 30
0.0
 11
236.55677
 21
85.06279000000001
 31
0.0
  0
LINE
  5
1D7
330
277
100
AcDbEntity
  8
99
  6
Continuous
 62
     1
100
AcDbLine
 10
236.55677
 20
85.06279000000001
 30
0.0
 11
233.39567
 21
83.798355
 31
0.0
  0
LINE
  5
1D8
330
277
100
AcDbEntity
  8
99
  6
Continuous
 62
     1
100
AcDbLine
 10
233.39567
 20
83.798355
 30
0.0
 11
233.39567
 21
83.030685
 31
0.0
  0
LINE
  5
1D9
330
277
100
AcDbEntity
  8
99
  6
Continuous
 62
     1
100
AcDbLine
 10
233.39567
 20
83.030685
 30
0.0
 11
236.55677
 21
83.030685
 31
0.0
  0
LINE
  5
1DA
330
277
100
AcDbEntity
  8
99
  6
Continuous
 62
     1
100
AcDbLine
 10
236.55677
 20
83.030685
 30
0.0
 11
236.55677
 21
80.77272
 31
0.0
  0
ARC
  5
1DB
330
277
100
AcDbEntity
  8
99
  6
Continuous
 62
     1
100
AcDbCircle
 10
234.20853
 20
76.561705
 30
0.0
 40
0.7676862800000001
100
AcDbArc
 50
0.0012370412
 51
90.002144
  0
LINE
  5
1DC
330
277
100
AcDbEntity
  8
99
  6
Continuous
 62
     1
100
AcDbLine
 10
234.97622
 20
76.561722
 30
0.0
 11
234.97622
 21
76.403671
 31
0.0
  0
ARC
  5
1DD
330
277
100
AcDbEntity
  8
99
  6
Continuous
 62
     1
100
AcDbCircle
 10
234.20853
 20
76.403694
 30
0.0
 40
0.7676926400000001
100
AcDbArc
 50
269.99833
 51
359.99829
  0
LINE
  5
1DE
330
277
100
AcDbEntity
  8
99
  6
Continuous
 62
     1
100
AcDbLine
 10
234.20851
 20
75.636002
 30
0.0
 11
231.22807
 21
75.636002
 31
0.0
  0
ARC
  5
1DF
330
277
100
AcDbEntity
  8
99
  6
Continuous
 62
     1
100
AcDbCircle
 10
231.22804
 20
76.40368999999999
 30
0.0
 40
0.76768876
100
AcDbArc
 50
180.00142
 51
270.00203
  0
LINE
  5
1E0
330
277
100
AcDbEntity
  8
99
  6
Continuous
 62
     1
100
AcDbLine
 10
230.46035
 20
76.403671
 30
0.0
 11
230.46035
 21
76.561722
 31
0.0
  0
ARC
  5
1E1
330
277
100
AcDbEntity
  8
99
  6
Continuous
 62
     1
100
AcDbCircle
 10
231.22803
 20
76.56167899999999
 30
0.0
 40
0.7676824
100
AcDbArc
 50
89.997492
 51
179.99678
  0
LINE
  5
1E2
330
277
100
AcDbEntity
  8
99
  6
Continuous
 62
     1
100
AcDbLine
 10
231.22807
 20
77.329361
 30
0.0
 11
234.20851
 21
77.329392
 31
0.0
  0
ARC
  5
1E3
330
277
100
AcDbEntity
  8
99
  6
Continuous
 62
     1
100
AcDbCircle
 10
233.84729
 20
77.160099
 30
0.0
 40
2.709453599999999
100
AcDbArc
 50
359.9996
 51
450.0004099999999
  0
LINE
  5
1E4
330
277
100
AcDbEntity
  8
99
  6
Continuous
 62
     1
100
AcDbLine
 10
236.55674
 20
77.16007999999999
 30
0.0
 11
236.55674
 21
75.80534400000001
 31
0.0
  0
ARC
  5
1E5
330
277
100
AcDbEntity
  8
99
  6
Continuous
 62
     1
100
AcDbCircle
 10
233.84721
 20
75.805308
 30
0.0
 40
2.709528099999999
100
AcDbArc
 50
270.00117
 51
360.00076
  0
LINE
  5
1E6
330
277
100
AcDbEntity
  8
99
  6
Continuous
 62
     1
100
AcDbLine
 10
233.84727
 20
73.09577899999999
 30
0.0
 11
231.58936
 21
73.09577899999999
 31
0.0
  0
ARC
  5
1E7
330
277
100
AcDbEntity
  8
99
  6
Continuous
 62
     1
100
AcDbCircle
 10
231.58938
 20
75.805312
 30
0.0
 40
2.7095324
100
AcDbArc
 50
179.99933
 51
269.9997
  0
LINE
  5
1E8
330
277
100
AcDbEntity
  8
99
  6
Continuous
 62
     1
100
AcDbLine
 10
228.87985
 20
75.80534400000001
 30
0.0
 11
228.87985
 21
77.16007999999999
 31
0.0
  0
ARC
  5
1E9
330
277
100
AcDbEntity
  8
99
  6
Continuous
 62
     1
100
AcDbCircle
 10
231.58936
 20
77.16007199999999
 30
0.0
 40
2.7095107
100
AcDbArc
 50
89.99984600000001
 51
179.99984
  0
LINE
  5
1EA
330
277
100
AcDbEntity
  8
99
  6
Continuous
 62
     1
100
AcDbLine
 10
231.58936
 20
79.86958300000001
 30
0.0
 11
233.84727
 21
79.86955299999999
 31
0.0
  0
ARC
  5
1EB
330
277
100
AcDbEntity
  8
99
  6
Continuous
 62
     1
100
AcDbCircle
 10
234.07304
 20
69.708912
 30
0.0
 40
2.4837302
100
AcDbArc
 50
0.0006135199
 51
90.000111
  0
LINE
  5
1EC
330
277
100
AcDbEntity
  8
99
  6
Continuous
 62
     1
100
AcDbLine
 10
236.55677
 20
69.708939
 30
0.0
 11
236.55677
 21
65.644699
 31
0.0
  0
LINE
  5
1ED
330
277
100
AcDbEntity
  8
99
  6
Continuous
 62
     1
100
AcDbLine
 10
236.55677
 20
65.644699
 30
0.0
 11
228.87983
 21
65.644699
 31
0.0
  0
LINE
  5
1EE
330
277
100
AcDbEntity
  8
99
  6
Continuous
 62
     1
100
AcDbLine
 10
228.87983
 20
65.644699
 30
0.0
 11
228.87983
 21
69.708939
 31
0.0
  0
ARC
  5
1EF
330
277
100
AcDbEntity
  8
99
  6
Continuous
 62
     1
100
AcDbCircle
 10
231.36353
 20
69.708954
 30
0.0
 40
2.4837039
100
AcDbArc
 50
90.00002100000001
 51
180.00035
  0
LINE
  5
1F0
330
277
100
AcDbEntity
  8
99
  6
Continuous
 62
     1
100
AcDbLine
 10
231.36353
 20
72.192657
 30
0.0
 11
234.07304
 21
72.19264200000001
 31
0.0
  0
ARC
  5
1F1
330
277
100
AcDbEntity
  8
99
  6
Continuous
 62
     1
100
AcDbCircle
 10
234.52462
 20
69.25734300000001
 30
0.0
 40
0.45159604
100
AcDbArc
 50
359.99961
 51
449.9983499999999
  0
LINE
  5
1F2
330
277
100
AcDbEntity
  8
99
  6
Continuous
 62
     1
100
AcDbLine
 10
234.97622
 20
69.25734
 30
0.0
 11
234.97622
 21
68.128372
 31
0.0
  0
LINE
  5
1F3
330
277
100
AcDbEntity
  8
99
  6
Continuous
 62
     1
100
AcDbLine
 10
234.97622
 20
68.128372
 30
0.0
 11
230.46037
 21
68.128372
 31
0.0
  0
LINE
  5
1F4
330
277
100
AcDbEntity
  8
99
  6
Continuous
 62
     1
100
AcDbLine
 10
230.46037
 20
68.128372
 30
0.0
 11
230.46037
 21
69.25734
 31
0.0
  0
ARC
  5
1F5
330
277
100
AcDbEntity
  8
99
  6
Continuous
 62
     1
100
AcDbCircle
 10
230.91197
 20
69.25733099999999
 30
0.0
 40
0.45160766
100
AcDbArc
 50
90.00109899999999
 51
179.99891
  0
LINE
  5
1F6
330
277
100
AcDbEntity
  8
99
  6
Continuous
 62
     1
100
AcDbLine
 10
230.91197
 20
69.708939
 30
0.0
 11
234.52464
 21
69.708939
 31
0.0
  0
ARC
  5
1F7
330
277
100
AcDbEntity
  8
99
  6
Continuous
 62
     1
100
AcDbCircle
 10
185.10382
 20
84.87045100000001
 30
0.0
 40
36.86401
100
AcDbArc
 50
320.80506
 51
352.31285
  0
LINE
  5
1F8
330
277
100
AcDbEntity
  8
99
  6
Continuous
 62
     1
100
AcDbLine
 10
213.67344
 20
61.573837
 30
0.0
 11
227.49745
 21
65.51686100000001
 31
0.0
  0
LINE
  5
1F9
330
277
100
AcDbEntity
  8
99
  6
Continuous
 62
     1
100
AcDbLine
 10
227.49745
 20
65.51686100000001
 30
0.0
 11
227.49745
 21
68.414017
 31
0.0
  0
LINE
  5
1FA
330
277
100
AcDbEntity
  8
99
  6
Continuous
 62
     1
100
AcDbLine
 10
227.49745
 20
68.414017
 30
0.0
 11
220.72181
 21
66.471146
 31
0.0
  0
ARC
  5
1FB
330
277
100
AcDbEntity
  8
99
  6
Continuous
 62
     1
100
AcDbCircle
 10
185.10382
 20
84.87043099999999
 30
0.0
 40
40.08958899999999
100
AcDbArc
 50
332.68036
 51
350.4333
  0
ARC
  5
1FC
330
277
100
AcDbEntity
  8
99
  6
Continuous
 62
     1
100
AcDbCircle
 10
185.1039
 20
84.870982
 30
0.0
 40
40.08960199999999
100
AcDbArc
 50
350.43251
 51
354.71276
  0
LINE
  5
1FD
330
277
100
AcDbEntity
  8
99
  6
Continuous
 62
     1
100
AcDbLine
 10
225.02293
 20
81.176773
 30
0.0
 11
218.62525
 21
84.87046799999999
 31
0.0
  0
LINE
  5
1FE
330
277
100
AcDbEntity
  8
99
  6
Continuous
 62
     1
100
AcDbLine
 10
218.62525
 20
84.87046799999999
 30
0.0
 11
225.02293
 21
88.56416299999999
 31
0.0
  0
ARC
  5
1FF
330
277
100
AcDbEntity
  8
99
  6
Continuous
 62
     1
100
AcDbCircle
 10
185.10383
 20
84.87046799999999
 30
0.0
 40
40.089622
100
AcDbArc
 50
5.2864981
 51
27.319681
  0
LINE
  5
200
330
277
100
AcDbEntity
  8
99
  6
Continuous
 62
     1
100
AcDbLine
 10
220.72184
 20
103.26979
 30
0.0
 11
227.49745
 21
101.32692
 31
0.0
  0
LINE
  5
201
330
277
100
AcDbEntity
  8
99
  6
Continuous
 62
     1
100
AcDbLine
 10
227.49745
 20
101.32692
 30
0.0
 11
227.49745
 21
104.22408
 31
0.0
  0
LINE
  5
202
330
277
100
AcDbEntity
  8
99
  6
Continuous
 62
     1
100
AcDbLine
 10
227.49745
 20
104.22408
 30
0.0
 11
213.67344
 21
108.1671
 31
0.0
  0
ARC
  5
203
330
277
100
AcDbEntity
  8
99
  6
Continuous
 62
     1
100
AcDbCircle
 10
185.10382
 20
84.87048599999999
 30
0.0
 40
36.86401
100
AcDbArc
 50
7.687148200000001
 51
39.194943
  0
LINE
  5
204
330
277
100
AcDbEntity
  8
99
  6
Continuous
 62
     1
100
AcDbLine
 10
221.63654
 20
89.80155899999999
 30
0.0
 11
213.09565
 21
84.87046799999999
 31
0.0
  0
LINE
  5
205
330
277
100
AcDbEntity
  8
99
  6
Continuous
 62
     1
100
AcDbLine
 10
213.09565
 20
84.87046799999999
 30
0.0
 11
221.63654
 21
79.939377
 31
0.0
  0
LINE
  5
206
330
277
100
AcDbEntity
  8
MED-1
  6
HIDDEN
 62
    40
100
AcDbLine
 10
222.25938
 20
66.912064
 30
0.0
 11
225.86945
 21
67.94722
 31
0.0
  0
LINE
  5
207
330
277
100
AcDbEntity
  8
104
  6
Continuous
 62
    40
100
AcDbLine
 10
425.02962
 20
97.29423500000001
 30
0.0
 11
427.02962
 21
97.29423500000001
 31
0.0
  0
LINE
  5
208
330
277
100
AcDbEntity
  8
104
  6
Continuous
 62
    40
100
AcDbLine
 10
425.02962
 20
72.370468
 30
0.0
 11
427.02962
 21
72.370468
 31
0.0
  0
LINE
  5
209
330
277
100
AcDbEntity
  8
106
  6
CENTERLINE
 62
     1
100
AcDbLine
 10
423.15694
 20
84.87046799999999
 30
0.0
 11
429.48946
 21
84.87046799999999
 31
0.0
  0
LINE
  5
20A
330
277
100
AcDbEntity
  8
104
  6
Continuous
 62
    40
100
AcDbLine
 10
425.02962
 20
37.7556
 30
0.0
 11
425.02962
 21
131.98528
 31
0.0
  0
LINE
  5
20B
330
277
100
AcDbEntity
  8
104
  6
Continuous
 62
    40
100
AcDbLine
 10
425.02962
 20
131.98528
 30
0.0
 11
423.17263
 21
136.62767
 31
0.0
  0
LINE
  5
20C
330
277
100
AcDbEntity
  8
104
  6
Continuous
 62
    40
100
AcDbLine
 10
423.17263
 20
136.62767
 30
0.0
 11
425.02962
 21
137.37047
 31
0.0
  0
LINE
  5
20D
330
277
100
AcDbEntity
  8
104
  6
Continuous
 62
    40
100
AcDbLine
 10
425.02962
 20
137.37047
 30
0.0
 11
427.02962
 21
132.37047
 31
0.0
  0
LINE
  5
20E
330
277
100
AcDbEntity
  8
104
  6
Continuous
 62
    40
100
AcDbLine
 10
427.02962
 20
132.37047
 30
0.0
 11
427.02962
 21
37.370468
 31
0.0
  0
LINE
  5
20F
330
277
100
AcDbEntity
  8
104
  6
Continuous
 62
    40
100
AcDbLine
 10
427.02962
 20
37.370468
 30
0.0
 11
425.02962
 21
32.370468
 31
0.0
  0
LINE
  5
210
330
277
100
AcDbEntity
  8
104
  6
Continuous
 62
    40
100
AcDbLine
 10
425.02962
 20
32.370468
 30
0.0
 11
423.1726899999999
 21
33.113236
 31
0.0
  0
LINE
  5
211
330
277
100
AcDbEntity
  8
104
  6
Continuous
 62
    40
100
AcDbLine
 10
423.1726899999999
 20
33.113236
 30
0.0
 11
425.02962
 21
37.7556
 31
0.0
  0
LINE
  5
212
330
277
100
AcDbEntity
  8
106
  6
CENTERLINE
 62
     1
100
AcDbLine
 10
23.368371
 20
84.87046799999999
 30
0.0
 11
114.8155
 21
84.87046799999999
 31
0.0
  0
LINE
  5
213
330
277
100
AcDbEntity
  8
104
  6
Continuous
 62
    40
100
AcDbLine
 10
31.095651
 20
72.370468
 30
0.0
 11
71.972848
 21
72.370468
 31
0.0
  0
ARC
  5
214
330
277
100
AcDbEntity
  8
104
  6
Continuous
 62
    40
100
AcDbCircle
 10
89.095651
 20
84.87046799999999
 30
0.0
 40
21.200009
100
AcDbArc
 50
143.86978
 51
216.13022
  0
LINE
  5
215
330
277
100
AcDbEntity
  8
104
  6
Continuous
 62
    40
100
AcDbLine
 10
71.972848
 20
97.37046800000001
 30
0.0
 11
31.095651
 21
97.37046800000001
 31
0.0
  0
LINE
  5
216
330
277
100
AcDbEntity
  8
104
  6
Continuous
 62
    40
100
AcDbLine
 10
31.095651
 20
97.37046800000001
 30
0.0
 11
31.095651
 21
72.370468
 31
0.0
  0
CIRCLE
  5
217
330
277
100
AcDbEntity
  8
104
  6
Continuous
 62
    40
100
AcDbCircle
 10
339.09565
 20
111.87047
 30
0.0
 40
2.5
  0
CIRCLE
  5
218
330
277
100
AcDbEntity
  8
104
  6
Continuous
 62
    40
100
AcDbCircle
 10
129.09565
 20
111.87047
 30
0.0
 40
2.5
  0
CIRCLE
  5
219
330
277
100
AcDbEntity
  8
104
  6
Continuous
 62
    40
100
AcDbCircle
 10
129.09565
 20
57.870468
 30
0.0
 40
2.5
  0
CIRCLE
  5
21A
330
277
100
AcDbEntity
  8
104
  6
Continuous
 62
    40
100
AcDbCircle
 10
339.09565
 20
57.870468
 30
0.0
 40
2.5
  0
LINE
  5
21B
330
277
100
AcDbEntity
  8
99
  6
Continuous
 62
     1
100
AcDbLine
 10
129.09565
 20
120.15562
 30
0.0
 11
129.09565
 21
102.36656
 31
0.0
  0
LINE
  5
21C
330
277
100
AcDbEntity
  8
99
  6
Continuous
 62
     1
100
AcDbLine
 10
129.09565
 20
66.788437
 30
0.0
 11
129.09565
 21
49.386093
 31
0.0
  0
LINE
  5
21D
330
277
100
AcDbEntity
  8
99
  6
Continuous
 62
     1
100
AcDbLine
 10
121.53706
 20
57.870468
 30
0.0
 11
139.32612
 21
57.870468
 31
0.0
  0
LINE
  5
21E
330
277
100
AcDbEntity
  8
99
  6
Continuous
 62
     1
100
AcDbLine
 10
330.36518
 20
57.870468
 30
0.0
 11
348.92768
 21
57.870468
 31
0.0
  0
LINE
  5
21F
330
277
100
AcDbEntity
  8
99
  6
Continuous
 62
     1
100
AcDbLine
 10
339.09565
 20
50.159531
 30
0.0
 11
339.09565
 21
66.401718
 31
0.0
  0
LINE
  5
220
330
277
100
AcDbEntity
  8
99
  6
Continuous
 62
     1
100
AcDbLine
 10
339.09565
 20
102.36656
 30
0.0
 11
339.09565
 21
120.15562
 31
0.0
  0
LINE
  5
221
330
277
100
AcDbEntity
  8
99
  6
Continuous
 62
     1
100
AcDbLine
 10
347.76753
 20
111.87047
 30
0.0
 11
329.20503
 21
111.87047
 31
0.0
  0
LINE
  5
222
330
277
100
AcDbEntity
  8
99
  6
Continuous
 62
     1
100
AcDbLine
 10
139.71284
 20
111.87047
 30
0.0
 11
119.60346
 21
111.87047
 31
0.0
  0
CIRCLE
  5
223
330
277
100
AcDbEntity
  8
104
  6
Continuous
 62
    40
100
AcDbCircle
 10
129.09565
 20
111.87047
 30
0.0
 40
4.75
  0
CIRCLE
  5
224
330
277
100
AcDbEntity
  8
104
  6
Continuous
 62
    40
100
AcDbCircle
 10
339.09565
 20
57.870468
 30
0.0
 40
4.75
  0
CIRCLE
  5
225
330
277
100
AcDbEntity
  8
104
  6
Continuous
 62
    40
100
AcDbCircle
 10
339.09565
 20
111.87047
 30
0.0
 40
4.75
  0
CIRCLE
  5
226
330
277
100
AcDbEntity
  8
104
  6
Continuous
 62
    40
100
AcDbCircle
 10
129.09565
 20
57.870468
 30
0.0
 40
4.75
  0
LINE
  5
227
330
277
100
AcDbEntity
  8
99
  6
Continuous
 62
     1
100
AcDbLine
 10
31.095651
 20
132.37047
 30
0.0
 11
107.59565
 21
132.37047
 31
0.0
  0
LINE
  5
228
330
277
100
AcDbEntity
  8
99
  6
Continuous
 62
     1
100
AcDbLine
 10
110.09565
 20
132.37047
 30
0.0
 11
384.09565
 21
132.37047
 31
0.0
  0
LINE
  5
229
330
277
100
AcDbEntity
  8
99
  6
Continuous
 62
     1
100
AcDbLine
 10
384.09565
 20
132.37047
 30
0.0
 11
384.09565
 21
37.370468
 31
0.0
  0
LINE
  5
22A
330
277
100
AcDbEntity
  8
99
  6
Continuous
 62
     1
100
AcDbLine
 10
384.09565
 20
37.370468
 30
0.0
 11
110.09565
 21
37.370468
 31
0.0
  0
LINE
  5
22B
330
277
100
AcDbEntity
  8
99
  6
Continuous
 62
     1
100
AcDbLine
 10
107.59565
 20
37.370468
 30
0.0
 11
31.095651
 21
37.370468
 31
0.0
  0
LINE
  5
22C
330
277
100
AcDbEntity
  8
99
  6
Continuous
 62
     1
100
AcDbLine
 10
384.09565
 20
132.37047
 30
0.0
 11
389.09565
 21
137.37047
 31
0.0
  0
LINE
  5
22D
330
277
100
AcDbEntity
  8
99
  6
Continuous
 62
     1
100
AcDbLine
 10
389.09565
 20
32.370468
 30
0.0
 11
384.09565
 21
37.370468
 31
0.0
  0
LINE
  5
22E
330
277
100
AcDbEntity
  8
106
  6
CENTERLINE
 62
     1
100
AcDbLine
 10
89.095651
 20
115.54814
 30
0.0
 11
89.095651
 21
54.13237
 31
0.0
  0
LINE
  5
22F
330
277
100
AcDbEntity
  8
104
  6
Continuous
 62
    40
100
AcDbLine
 10
31.095651
 20
49.870468
 30
0.0
 11
31.095651
 21
32.370468
 31
0.0
  0
LINE
  5
230
330
277
100
AcDbEntity
  8
104
  6
Continuous
 62
    40
100
AcDbLine
 10
31.095651
 20
32.370468
 30
0.0
 11
107.59565
 21
32.370468
 31
0.0
  0
LINE
  5
231
330
277
100
AcDbEntity
  8
104
  6
Continuous
 62
    40
100
AcDbLine
 10
107.59565
 20
32.370468
 30
0.0
 11
107.59565
 21
49.870468
 31
0.0
  0
LINE
  5
232
330
277
100
AcDbEntity
  8
104
  6
Continuous
 62
    40
100
AcDbLine
 10
31.095651
 20
119.87047
 30
0.0
 11
110.09565
 21
119.87047
 31
0.0
  0
LINE
  5
233
330
277
100
AcDbEntity
  8
104
  6
Continuous
 62
    40
100
AcDbLine
 10
110.09565
 20
119.87047
 30
0.0
 11
110.09565
 21
137.37047
 31
0.0
  0
LINE
  5
234
330
277
100
AcDbEntity
  8
104
  6
Continuous
 62
    40
100
AcDbLine
 10
110.09565
 20
137.37047
 30
0.0
 11
389.09565
 21
137.37047
 31
0.0
  0
LINE
  5
235
330
277
100
AcDbEntity
  8
104
  6
Continuous
 62
    40
100
AcDbLine
 10
389.09565
 20
137.37047
 30
0.0
 11
389.09565
 21
32.370468
 31
0.0
  0
LINE
  5
236
330
277
100
AcDbEntity
  8
104
  6
Continuous
 62
    40
100
AcDbLine
 10
389.09565
 20
32.370468
 30
0.0
 11
110.09565
 21
32.370468
 31
0.0
  0
LINE
  5
237
330
277
100
AcDbEntity
  8
104
  6
Continuous
 62
    40
100
AcDbLine
 10
110.09565
 20
32.370468
 30
0.0
 11
110.09565
 21
49.870468
 31
0.0
  0
LINE
  5
238
330
277
100
AcDbEntity
  8
104
  6
Continuous
 62
    40
100
AcDbLine
 10
110.09565
 20
49.870468
 30
0.0
 11
31.095651
 21
49.870468
 31
0.0
  0
LINE
  5
239
330
277
100
AcDbEntity
  8
104
  6
Continuous
 62
    40
100
AcDbLine
 10
31.095651
 20
49.870468
 30
0.0
 11
31.095651
 21
72.370468
 31
0.0
  0
LINE
  5
23A
330
277
100
AcDbEntity
  8
104
  6
Continuous
 62
    40
100
AcDbLine
 10
31.095651
 20
72.370468
 30
0.0
 11
71.972879
 21
72.370468
 31
0.0
  0
ARC
  5
23B
330
277
100
AcDbEntity
  8
104
  6
Continuous
 62
    40
100
AcDbCircle
 10
89.095651
 20
84.87046799999999
 30
0.0
 40
21.199984
100
AcDbArc
 50
216.13027
 51
503.86973
  0
LINE
  5
23C
330
277
100
AcDbEntity
  8
104
  6
Continuous
 62
    40
100
AcDbLine
 10
71.972879
 20
97.37046800000001
 30
0.0
 11
31.095651
 21
97.37046800000001
 31
0.0
  0
LINE
  5
23D
330
277
100
AcDbEntity
  8
104
  6
Continuous
 62
    40
100
AcDbLine
 10
31.095651
 20
97.37046800000001
 30
0.0
 11
31.095651
 21
119.87047
 31
0.0
  0
LINE
  5
23E
330
277
100
AcDbEntity
  8
104
  6
Continuous
 62
    40
100
AcDbLine
 10
107.59565
 20
119.87047
 30
0.0
 11
107.59565
 21
137.37047
 31
0.0
  0
LINE
  5
23F
330
277
100
AcDbEntity
  8
104
  6
Continuous
 62
    40
100
AcDbLine
 10
107.59565
 20
137.37047
 30
0.0
 11
31.095651
 21
137.37047
 31
0.0
  0
LINE
  5
240
330
277
100
AcDbEntity
  8
104
  6
Continuous
 62
    40
100
AcDbLine
 10
31.095651
 20
137.37047
 30
0.0
 11
31.095651
 21
119.87047
 31
0.0
  0
LINE
  5
241
330
277
100
AcDbEntity
  8
MED-1
  6
Continuous
 62
    40
100
AcDbLine
 10
124.34565
 20
57.870468
 30
0.0
 11
133.84565
 21
57.870468
 31
0.0
  0
TEXT
  5
242
330
277
100
AcDbEntity
  8
103
  6
Continuous
 62
    40
100
AcDbText
 10
13.811449
 20
404.4430199999999
 30
0.0
 40
5.0
  1
M 1:1
 41
0.63
 72
     1
 11
20.898949
 21
406.94302
 31
0.0
100
AcDbText
 73
     2
  0
LINE
  5
243
330
277
100
AcDbEntity
  8
98
  6
Continuous
 62
     1
100
AcDbLine
 10
5.0
 20
5.0
 30
0.0
 11
589.0
 21
5.0
 31
0.0
  0
LINE
  5
244
330
277
100
AcDbEntity
  8
98
  6
Continuous
 62
     1
100
AcDbLine
 10
589.0
 20
5.0
 30
0.0
 11
589.0
 21
415.0
 31
0.0
  0
LINE
  5
245
330
277
100
AcDbEntity
  8
98
  6
Continuous
 62
     1
100
AcDbLine
 10
589.0
 20
415.0
 30
0.0
 11
5.0
 21
415.0
 31
0.0
  0
LINE
  5
246
330
277
100
AcDbEntity
  8
98
  6
Continuous
 62
     1
100
AcDbLine
 10
5.0
 20
415.0
 30
0.0
 11
5.0
 21
5.0
 31
0.0
  0
LINE
  5
247
330
277
100
AcDbEntity
  8
106
  6
CENTERLINE
 62
     1
100
AcDbLine
 10
369.18613
 20
351.33192
 30
0.0
 11
424.5388
 21
351.33192
 31
0.0
  0
ENDSEC
  0
SECTION
  2
OBJECTS
  0
DICTIONARY
  5
261
330
0
100
AcDbDictionary
281
     1
  3
ACAD_COLOR
350
270
  3
ACAD_GROUP
350
262
  3
ACAD_LAYOUT
350
26E
  3
ACAD_MATERIAL
350
26F
  3
ACAD_MLINESTYLE
350
26B
  3
ACAD_PLOTSETTINGS
350
26D
  3
ACAD_PLOTSTYLENAME
350
263
  3
ACAD_TABLESTYLE
350
271
  3
ACDBHEADERROUNDTRIPXREC
350
2FB
  3
AcDbVariableDictionary
350
2F5
  0
DICTIONARY
  5
270
102
{ACAD_REACTORS
330
261
102
}
330
261
100
AcDbDictionary
281
     1
  0
DICTIONARY
  5
262
102
{ACAD_REACTORS
330
261
102
}
330
261
100
AcDbDictionary
281
     1
  0
DICTIONARY
  5
26E
102
{ACAD_REACTORS
330
261
102
}
330
261
100
AcDbDictionary
281
     1
  3
Layout1
350
276
  3
Model
350
27A
  0
DICTIONARY
  5
26F
102
{ACAD_REACTORS
330
261
102
}
330
261
100
AcDbDictionary
281
     1
  0
DICTIONARY
  5
26B
102
{ACAD_REACTORS
330
261
102
}
330
261
100
AcDbDictionary
281
     1
  3
Standard
350
26C
  0
DICTIONARY
  5
26D
102
{ACAD_REACTORS
330
261
102
}
330
261
100
AcDbDictionary
281
     1
  0
ACDBDICTIONARYWDFLT
  5
263
102
{ACAD_REACTORS
330
261
102
}
330
261
100
AcDbDictionary
281
     1
  3
Normal
350
264
100
AcDbDictionaryWithDefault
340
264
  0
DICTIONARY
  5
271
102
{ACAD_REACTORS
330
261
102
}
330
261
100
AcDbDictionary
281
     1
  3
Standard
350
272
  0
DICTIONARY
  5
2FB
102
{ACAD_REACTORS
330
261
102
}
330
261
100
AcDbDictionary
281
     1
  0
DICTIONARY
  5
2F5
102
{ACAD_REACTORS
330
261
102
}
330
261
100
AcDbDictionary
281
     1
  3
CTABLESTYLE
350
2F6
  3
DIMASSOC
350
2F8
  3
HIDETEXT
350
2F7
  3
PROJECTNAME
350
2F9
  0
LAYOUT
  5
276
102
{ACAD_XDICTIONARY
360
2FC
102
}
102
{ACAD_REACTORS
330
26E
102
}
330
26E
100
AcDbPlotSettings
  1

  2
\\DORMA-UK-PRINTS\DORPRN140
  4

  6

 40
0.0
 41
0.0
 42
0.0
 43
0.0
 44
0.0
 45
0.0
 46
0.0
 47
0.0
 48
0.0
 49
0.0
140
0.0
141
0.0
142
1.0
143
1.0
 70
   688
 72
     0
 73
     0
 74
     5
  7

 75
    16
147
1.0
148
0.0
149
0.0
100
AcDbLayout
  1
Layout1
 70
     0
 71
     1
 10
0.0
 20
0.0
 11
12.0
 21
9.0
 12
0.0
 22
0.0
 32
0.0
 14
1.000000000000000E+20
 24
1.000000000000000E+20
 34
1.000000000000000E+20
 15
-1.000000000000000E+20
 25
-1.000000000000000E+20
 35
-1.000000000000000E+20
146
0.0
 13
0.0
 23
0.0
 33
0.0
 16
1.0
 26
0.0
 36
0.0
 17
0.0
 27
1.0
 37
0.0
 76
     0
330
273
  0
LAYOUT
  5
27A
102
{ACAD_XDICTIONARY
360
2FE
102
}
102
{ACAD_REACTORS
330
26E
102
}
330
26E
100
AcDbPlotSettings
  1

  2
\\DORMA-UK-PRINTS\DORPRN140
  4

  6

 40
0.0
 41
0.0
 42
0.0
 43
0.0
 44
0.0
 45
0.0
 46
0.0
 47
0.0
 48
0.0
 49
0.0
140
0.0
141
0.0
142
1.0
143
1.0
 70
  1712
 72
     0
 73
     0
 74
     0
  7

 75
     0
147
1.0
148
0.0
149
0.0
100
AcDbLayout
  1
Model
 70
     1
 71
     0
 10
0.0
 20
0.0
 11
12.0
 21
9.0
 12
0.0
 22
0.0
 32
0.0
 14
0.0
 24
0.0
 34
0.0
 15
0.0
 25
0.0
 35
0.0
146
0.0
 13
0.0
 23
0.0
 33
0.0
 16
1.0
 26
0.0
 36
0.0
 17
0.0
 27
1.0
 37
0.0
 76
     0
330
277
  0
MLINESTYLE
  5
26C
102
{ACAD_REACTORS
330
26B
102
}
330
26B
100
AcDbMlineStyle
  2
STANDARD
 70
     0
  3

 62
   256
 51
90.0
 52
90.0
 71
     2
 49
0.5
 62
   256
  6
BYLAYER
 49
-0.5
 62
   256
  6
BYLAYER
  0
ACDBPLACEHOLDER
  5
264
102
{ACAD_REACTORS
330
263
102
}
330
263
  0
TABLESTYLE
  5
272
102
{ACAD_REACTORS
330
271
102
}
330
271
100
AcDbTableStyle
  3
Standard
 70
     0
 71
     0
 40
0.06
 41
0.06
280
     0
281
     0
  7
STANDARD
140
0.18
170
     2
 62
     0
 63
     7
283
     0
274
    -2
284
     1
 64
     0
275
    -2
285
     1
 65
     0
276
    -2
286
     1
 66
     0
277
    -2
287
     1
 67
     0
278
    -2
288
     1
 68
     0
279
    -2
289
     1
 69
     0
  7
STANDARD
140
0.25
170
     5
 62
     0
 63
     7
283
     0
274
    -2
284
     1
 64
     0
275
    -2
285
     1
 65
     0
276
    -2
286
     1
 66
     0
277
    -2
287
     1
 67
     0
278
    -2
288
     1
 68
     0
279
    -2
289
     1
 69
     0
  7
STANDARD
140
0.18
170
     5
 62
     0
 63
     7
283
     0
274
    -2
284
     1
 64
     0
275
    -2
285
     1
 65
     0
276
    -2
286
     1
 66
     0
277
    -2
287
     1
 67
     0
278
    -2
288
     1
 68
     0
279
    -2
289
     1
 69
     0
  0
DICTIONARYVAR
  5
2F6
102
{ACAD_REACTORS
330
2F5
102
}
330
2F5
100
DictionaryVariables
280
     0
  1
STANDARD
  0
DICTIONARYVAR
  5
2F8
102
{ACAD_REACTORS
330
2F5
102
}
330
2F5
100
DictionaryVariables
280
     0
  1
2
  0
DICTIONARYVAR
  5
2F7
102
{ACAD_REACTORS
330
2F5
102
}
330
2F5
100
DictionaryVariables
280
     0
  1
1
  0
DICTIONARYVAR
  5
2F9
102
{ACAD_REACTORS
330
2F5
102
}
330
2F5
100
DictionaryVariables
280
     0
  1

  0
DICTIONARY
  5
2FC
330
276
100
AcDbDictionary
280
     1
281
     1
  3
ACAD_XREC_ROUNDTRIP
360
2FD
  0
DICTIONARY
  5
2FE
330
27A
100
AcDbDictionary
280
     1
281
     1
  3
ACAD_XREC_ROUNDTRIP
360
2FF
  0
XRECORD
  5
2FD
102
{ACAD_REACTORS
330
2FC
102
}
330
2FC
100
AcDbXrecord
280
     1
102
SHADEPLOT
 70
     0
102
SHADEPLOTRESLEVEL
 70
     2
102
SHADEPLOTCUSTOMDPI
 70
   300
  0
XRECORD
  5
2FF
102
{ACAD_REACTORS
330
2FE
102
}
330
2FE
100
AcDbXrecord
280
     1
102
SHADEPLOT
 70
     0
102
SHADEPLOTRESLEVEL
 70
     2
102
SHADEPLOTCUSTOMDPI
 70
   300
  0
ENDSEC
  0
EOF
