  0
SECTION
  2
HEADER
  9
$ACADVER
  1
AC1009
999
I-DEAS 8 Not Encoded
  9
$EXTMIN
 10
0.0
 20
0.0
  9
$EXTMAX
 10
4.2E+002
 20
2.97E+002
  9
$TEXTSIZE
 40
1.25E-001
  9
$LTSCALE
 40
1.0
  9
$CLAYER
  8
104
  9
$CECOLOR
 62
40
  9
$DIMASZ
 40
1.25E-001
  9
$DIMEXO
 40
6.25E-002
  9
$DIMDLI
 40
2.5E-001
  9
$DIMEXE
 40
1.25E-001
  9
$DIMTP
 40
5.0E-003
  9
$DIMTM
 40
-5.0E-003
  9
$DIMTXT
 40
3.0
  9
$DIMLIM
 70
0
  9
$DIMTIH
 70
1
  9
$DIMTOH
 70
1
  9
$DIMSE1
 70
0
  9
$DIMSE2
 70
0
  9
$DIMTAD
 70
0
  9
$DIMASO
 70
1
  9
$DIMALT
 70
0
  9
$DIMALTD
 70
0
  9
$DIMTOFL
 70
1
  9
$DIMTIX
 70
0
  9
$DIMSAH
 70
0
  9
$DIMTFAC
 40
1.0
  9
$DIMGAP
 40
6.25E-002
  9
$LUNITS
 70
2
  9
$LUPREC
 70
3
  9
$FILLETRAD
 40
2.0
  9
$AUNITS
 70
0
  9
$AUPREC
 70
1
  9
$CHAMFERA
 40
1.0E+001
  9
$CHAMFERB
 40
1.0E+001
  9
$ANGBASE
 50
0.0
  9
$ANGDIR
 70
0
  9
$PDMODE
 70
2
  9
$PDSIZE
 40
-1.0E-002
  9
$SPLINETYPE
 70
6
  0
ENDSEC
  0
SECTION
  2
TABLES
  0
TABLE
  2
LTYPE
 70
7
  0
LTYPE
  2
HIDDENNEW00
  3
_ 
 70
64
 72
65
 73
3
 40
4.5
 49
1.5
 49
-1.5
 49
1.5
  0
LTYPE
  2
HIDDENNEW01
  3
_ 
 70
64
 72
65
 73
3
 40
4.5
 49
1.5
 49
-1.5
 49
1.5
  0
LTYPE
  2
HIDDEN
  3
_ 
 70
64
 72
65
 73
3
 40
4.5
 49
1.5
 49
-1.5
 49
1.5
  0
LTYPE
  2
CENTERLINE
  3
_ 
 70
64
 72
65
 73
5
 40
3.0E+001
 49
1.2E+001
 49
-1.5
 49
3.0
 49
-1.5
 49
1.2E+001
  0
LTYPE
  2
PHANTOM
  3
_ 
 70
64
 72
65
 73
7
 40
2.95E+001
 49
9.5
 49
-1.5
 49
3.0
 49
-1.5
 49
3.0
 49
-1.5
 49
9.5
  0
LTYPE
  2
SHORT_DASH
  3
_ 
 70
64
 72
65
 73
3
 40
3.0
 49
7.5E-001
 49
-1.5
 49
7.5E-001
  0
LTYPE
  2
LONG_DASH
  3
_ 
 70
64
 72
65
 73
3
 40
9.0
 49
2.25
 49
-4.5
 49
2.25
  0
ENDTAB
  0
TABLE
  2
LAYER
 70
258
  0
LAYER
  2
MED-1
 70
0
 62
3
  6
HIDDENNEW00
  0
LAYER
  2
2
 70
0
 62
7
  6
CONTINUOUS
  0
LAYER
  2
3
 70
0
 62
7
  6
CONTINUOUS
  0
LAYER
  2
4
 70
0
 62
7
  6
CONTINUOUS
  0
LAYER
  2
5
 70
0
 62
7
  6
CONTINUOUS
  0
LAYER
  2
MED-6
 70
0
 62
6
  6
HIDDENNEW00
  0
LAYER
  2
7
 70
0
 62
7
  6
CONTINUOUS
  0
LAYER
  2
8
 70
0
 62
7
  6
CONTINUOUS
  0
LAYER
  2
9
 70
0
 62
7
  6
CONTINUOUS
  0
LAYER
  2
10
 70
0
 62
7
  6
CONTINUOUS
  0
LAYER
  2
MED-11
 70
0
 62
70
  6
HIDDENNEW00
  0
LAYER
  2
12
 70
0
 62
7
  6
CONTINUOUS
  0
LAYER
  2
13
 70
0
 62
7
  6
CONTINUOUS
  0
LAYER
  2
14
 70
0
 62
7
  6
CONTINUOUS
  0
LAYER
  2
15
 70
0
 62
7
  6
CONTINUOUS
  0
LAYER
  2
16
 70
0
 62
7
  6
CONTINUOUS
  0
LAYER
  2
17
 70
0
 62
7
  6
CONTINUOUS
  0
LAYER
  2
18
 70
0
 62
7
  6
CONTINUOUS
  0
LAYER
  2
19
 70
0
 62
7
  6
CONTINUOUS
  0
LAYER
  2
20
 70
0
 62
7
  6
CONTINUOUS
  0
LAYER
  2
21
 70
0
 62
7
  6
CONTINUOUS
  0
LAYER
  2
22
 70
0
 62
7
  6
CONTINUOUS
  0
LAYER
  2
23
 70
0
 62
7
  6
CONTINUOUS
  0
LAYER
  2
24
 70
0
 62
7
  6
CONTINUOUS
  0
LAYER
  2
25
 70
0
 62
7
  6
CONTINUOUS
  0
LAYER
  2
26
 70
0
 62
7
  6
CONTINUOUS
  0
LAYER
  2
27
 70
0
 62
7
  6
CONTINUOUS
  0
LAYER
  2
28
 70
0
 62
7
  6
CONTINUOUS
  0
LAYER
  2
29
 70
0
 62
7
  6
CONTINUOUS
  0
LAYER
  2
30
 70
0
 62
7
  6
CONTINUOUS
  0
LAYER
  2
31
 70
0
 62
7
  6
CONTINUOUS
  0
LAYER
  2
32
 70
0
 62
7
  6
CONTINUOUS
  0
LAYER
  2
33
 70
0
 62
7
  6
CONTINUOUS
  0
LAYER
  2
34
 70
0
 62
7
  6
CONTINUOUS
  0
LAYER
  2
35
 70
0
 62
7
  6
CONTINUOUS
  0
LAYER
  2
36
 70
0
 62
7
  6
CONTINUOUS
  0
LAYER
  2
37
 70
0
 62
7
  6
CONTINUOUS
  0
LAYER
  2
38
 70
0
 62
7
  6
CONTINUOUS
  0
LAYER
  2
39
 70
0
 62
7
  6
CONTINUOUS
  0
LAYER
  2
40
 70
0
 62
7
  6
CONTINUOUS
  0
LAYER
  2
41
 70
0
 62
7
  6
CONTINUOUS
  0
LAYER
  2
42
 70
0
 62
7
  6
CONTINUOUS
  0
LAYER
  2
43
 70
0
 62
7
  6
CONTINUOUS
  0
LAYER
  2
44
 70
0
 62
7
  6
CONTINUOUS
  0
LAYER
  2
45
 70
0
 62
7
  6
CONTINUOUS
  0
LAYER
  2
46
 70
0
 62
7
  6
CONTINUOUS
  0
LAYER
  2
47
 70
0
 62
7
  6
CONTINUOUS
  0
LAYER
  2
48
 70
0
 62
7
  6
CONTINUOUS
  0
LAYER
  2
49
 70
0
 62
7
  6
CONTINUOUS
  0
LAYER
  2
50
 70
0
 62
7
  6
CONTINUOUS
  0
LAYER
  2
51
 70
0
 62
7
  6
CONTINUOUS
  0
LAYER
  2
52
 70
0
 62
7
  6
CONTINUOUS
  0
LAYER
  2
53
 70
0
 62
7
  6
CONTINUOUS
  0
LAYER
  2
54
 70
0
 62
7
  6
CONTINUOUS
  0
LAYER
  2
55
 70
0
 62
7
  6
CONTINUOUS
  0
LAYER
  2
56
 70
0
 62
7
  6
CONTINUOUS
  0
LAYER
  2
57
 70
0
 62
7
  6
CONTINUOUS
  0
LAYER
  2
58
 70
0
 62
7
  6
CONTINUOUS
  0
LAYER
  2
59
 70
0
 62
7
  6
CONTINUOUS
  0
LAYER
  2
60
 70
0
 62
7
  6
CONTINUOUS
  0
LAYER
  2
61
 70
0
 62
7
  6
CONTINUOUS
  0
LAYER
  2
62
 70
0
 62
7
  6
CONTINUOUS
  0
LAYER
  2
63
 70
0
 62
7
  6
CONTINUOUS
  0
LAYER
  2
64
 70
0
 62
7
  6
CONTINUOUS
  0
LAYER
  2
65
 70
0
 62
7
  6
CONTINUOUS
  0
LAYER
  2
66
 70
0
 62
7
  6
CONTINUOUS
  0
LAYER
  2
67
 70
0
 62
7
  6
CONTINUOUS
  0
LAYER
  2
68
 70
0
 62
7
  6
CONTINUOUS
  0
LAYER
  2
69
 70
0
 62
7
  6
CONTINUOUS
  0
LAYER
  2
70
 70
0
 62
7
  6
CONTINUOUS
  0
LAYER
  2
71
 70
0
 62
7
  6
CONTINUOUS
  0
LAYER
  2
72
 70
0
 62
7
  6
CONTINUOUS
  0
LAYER
  2
73
 70
0
 62
7
  6
CONTINUOUS
  0
LAYER
  2
74
 70
0
 62
7
  6
CONTINUOUS
  0
LAYER
  2
75
 70
0
 62
7
  6
CONTINUOUS
  0
LAYER
  2
76
 70
0
 62
7
  6
CONTINUOUS
  0
LAYER
  2
77
 70
0
 62
7
  6
CONTINUOUS
  0
LAYER
  2
78
 70
0
 62
7
  6
CONTINUOUS
  0
LAYER
  2
79
 70
0
 62
7
  6
CONTINUOUS
  0
LAYER
  2
80
 70
0
 62
7
  6
CONTINUOUS
  0
LAYER
  2
81
 70
0
 62
7
  6
CONTINUOUS
  0
LAYER
  2
82
 70
0
 62
7
  6
CONTINUOUS
  0
LAYER
  2
83
 70
0
 62
7
  6
CONTINUOUS
  0
LAYER
  2
84
 70
0
 62
7
  6
CONTINUOUS
  0
LAYER
  2
85
 70
0
 62
7
  6
CONTINUOUS
  0
LAYER
  2
86
 70
0
 62
7
  6
CONTINUOUS
  0
LAYER
  2
87
 70
0
 62
7
  6
CONTINUOUS
  0
LAYER
  2
88
 70
0
 62
7
  6
CONTINUOUS
  0
LAYER
  2
89
 70
0
 62
7
  6
CONTINUOUS
  0
LAYER
  2
90
 70
0
 62
7
  6
CONTINUOUS
  0
LAYER
  2
91
 70
0
 62
7
  6
CONTINUOUS
  0
LAYER
  2
92
 70
0
 62
7
  6
CONTINUOUS
  0
LAYER
  2
93
 70
0
 62
7
  6
CONTINUOUS
  0
LAYER
  2
94
 70
0
 62
7
  6
CONTINUOUS
  0
LAYER
  2
95
 70
0
 62
7
  6
CONTINUOUS
  0
LAYER
  2
96
 70
0
 62
7
  6
CONTINUOUS
  0
LAYER
  2
97
 70
0
 62
7
  6
CONTINUOUS
  0
LAYER
  2
98
 70
0
 62
7
  6
CONTINUOUS
  0
LAYER
  2
99
 70
0
 62
7
  6
CONTINUOUS
  0
LAYER
  2
MED-0
 70
0
 62
230
  6
HIDDENNEW00
  0
LAYER
  2
101
 70
0
 62
7
  6
CONTINUOUS
  0
LAYER
  2
102
 70
0
 62
7
  6
CONTINUOUS
  0
LAYER
  2
103
 70
0
 62
7
  6
CONTINUOUS
  0
LAYER
  2
104
 70
0
 62
7
  6
CONTINUOUS
  0
LAYER
  2
105
 70
0
 62
7
  6
CONTINUOUS
  0
LAYER
  2
106
 70
0
 62
7
  6
CONTINUOUS
  0
LAYER
  2
107
 70
0
 62
7
  6
CONTINUOUS
  0
LAYER
  2
108
 70
0
 62
7
  6
CONTINUOUS
  0
LAYER
  2
109
 70
0
 62
7
  6
CONTINUOUS
  0
LAYER
  2
Drafting_Hidden_Entities
 70
1
 62
7
  6
CONTINUOUS
  0
ENDTAB
  0
TABLE
  2
STYLE
 70
1
  0
STYLE
  2
STANDARD
 70
64
 40
0.0
 41
1.0
 50
0.0
 71
0
 42
1.0
  3
monotxt.shx
  4

  0
ENDTAB
  0
TABLE
  2
VIEW
 70
0
  0
ENDTAB
  0
TABLE
  2
DIMSTYLE
 70
0
  0
ENDTAB
  0
ENDSEC
  0
SECTION
  2
BLOCKS
  0
BLOCK
  2
1
 10
0.0
 20
0.0
 70
0
  0
LINE
  8
104
  6
CONTINUOUS
 62
40
 10
-3.91196E+001
 20
-7.5
 11
-7.9725
 21
-7.5
  0
LINE
  8
106
  6
CENTERLINE
 62
1
 10
-2.35E+001
 20
8.462
 11
-2.35E+001
 21
-1.0411E+001
  0
CIRCLE
  8
104
  6
CONTINUOUS
 62
40
 10
-2.35E+001
 20
-3.75E+001
 40
6.0
  0
LINE
  8
99
  6
CONTINUOUS
 62
1
 10
0.0
 20
-7.5
 11
0.0
 21
0.0
  0
LINE
  8
99
  6
CONTINUOUS
 62
1
 10
0.0
 20
0.0
 11
7.376
 21
0.0
  0
LINE
  8
104
  6
CONTINUOUS
 62
40
 10
-2.20566E+001
 20
-3.5E+001
 11
-2.49434E+001
 21
-3.5E+001
  0
LINE
  8
104
  6
CONTINUOUS
 62
40
 10
-2.49434E+001
 20
-3.5E+001
 11
-2.63868E+001
 21
-3.75E+001
  0
LINE
  8
104
  6
CONTINUOUS
 62
40
 10
-2.63868E+001
 20
-3.75E+001
 11
-2.49434E+001
 21
-4.0E+001
  0
LINE
  8
104
  6
CONTINUOUS
 62
40
 10
-2.49434E+001
 20
-4.0E+001
 11
-2.20566E+001
 21
-4.0E+001
  0
LINE
  8
104
  6
CONTINUOUS
 62
40
 10
-2.20566E+001
 20
-4.0E+001
 11
-2.06132E+001
 21
-3.75E+001
  0
LINE
  8
104
  6
CONTINUOUS
 62
40
 10
-2.06132E+001
 20
-3.75E+001
 11
-2.20566E+001
 21
-3.5E+001
  0
LINE
  8
104
  6
CONTINUOUS
 62
40
 10
-4.65E+001
 20
-9.268
 11
-4.65E+001
 21
-6.5732E+001
  0
LINE
  8
106
  6
CENTERLINE
 62
1
 10
-4.34007E+001
 20
-1.5E+001
 11
1.0657E+001
 21
-1.5E+001
  0
LINE
  8
106
  6
CENTERLINE
 62
1
 10
-4.3511E+001
 20
-6.0E+001
 11
1.0851E+001
 21
-6.0E+001
  0
LINE
  8
104
  6
CONTINUOUS
 62
40
 10
-1.525E+001
 20
-7.325E+001
 11
-7.5
 21
-6.8217E+001
  0
LINE
  8
104
  6
CONTINUOUS
 62
40
 10
-7.5
 20
-6.8217E+001
 11
-7.5
 21
-6.75E+001
  0
LINE
  8
99
  6
CONTINUOUS
 62
1
 10
-7.5
 20
-6.8217E+001
 11
-3.95E+001
 21
-6.8217E+001
  0
LINE
  8
104
  6
CONTINUOUS
 62
40
 10
-3.175E+001
 20
-7.325E+001
 11
-3.95E+001
 21
-6.8217E+001
  0
LINE
  8
104
  6
CONTINUOUS
 62
40
 10
-3.95E+001
 20
-6.8217E+001
 11
-3.95E+001
 21
-6.75E+001
  0
LINE
  8
104
  6
CONTINUOUS
 62
40
 10
-3.175E+001
 20
-7.325E+001
 11
-1.525E+001
 21
-7.325E+001
  0
LINE
  8
106
  6
CENTERLINE
 62
1
 10
-3.23319E+001
 20
-3.75E+001
 11
-1.49466E+001
 21
-3.75E+001
  0
LINE
  8
104
  6
CONTINUOUS
 62
40
 10
-4.75E+001
 20
-9.8
 11
-4.75E+001
 21
-7.5
  0
LINE
  8
104
  6
CONTINUOUS
 62
40
 10
-4.75E+001
 20
-7.5
 11
0.0
 21
-7.5
  0
LINE
  8
104
  6
CONTINUOUS
 62
40
 10
0.0
 20
-7.5
 11
0.0
 21
-6.75E+001
  0
LINE
  8
104
  6
CONTINUOUS
 62
40
 10
0.0
 20
-6.75E+001
 11
-4.75E+001
 21
-6.75E+001
  0
LINE
  8
104
  6
CONTINUOUS
 62
40
 10
-4.75E+001
 20
-6.75E+001
 11
-4.75E+001
 21
-6.52E+001
  0
LINE
  8
104
  6
CONTINUOUS
 62
40
 10
-4.75E+001
 20
-6.52E+001
 11
-4.6E+001
 21
-6.5998E+001
  0
LINE
  8
104
  6
CONTINUOUS
 62
40
 10
-4.6E+001
 20
-6.5998E+001
 11
-4.6E+001
 21
-9.002
  0
LINE
  8
104
  6
CONTINUOUS
 62
40
 10
-4.6E+001
 20
-9.002
 11
-4.75E+001
 21
-9.8
  0
LINE
  8
106
  6
CENTERLINE
 62
1
 10
-2.35E+001
 20
-4.5751E+001
 11
-2.35E+001
 21
-2.8936E+001
  0
LINE
  8
MED-0
  6
CENTERLINE
 62
150
 10
8.0
 20
-6.25E+001
 11
0.0
 21
-6.25E+001
  0
LINE
  8
MED-0
  6
CENTERLINE
 62
150
 10
0.0
 20
-6.25E+001
 11
0.0
 21
-5.75E+001
  0
LINE
  8
MED-0
  6
CENTERLINE
 62
150
 10
0.0
 20
-5.75E+001
 11
8.0
 21
-5.75E+001
  0
LINE
  8
MED-0
  6
CENTERLINE
 62
150
 10
8.0
 20
-5.75E+001
 11
8.0
 21
-6.25E+001
  0
LINE
  8
99
  6
CONTINUOUS
 62
1
 10
0.0
 20
-6.175E+001
 11
8.0
 21
-6.175E+001
  0
LINE
  8
99
  6
CONTINUOUS
 62
1
 10
0.0
 20
-5.825E+001
 11
8.0
 21
-5.825E+001
  0
LINE
  8
106
  6
CENTERLINE
 62
1
 10
-1.684
 20
-6.0E+001
 11
1.0851E+001
 21
-6.0E+001
  0
LINE
  8
104
  6
CONTINUOUS
 62
40
 10
8.0
 20
-6.25E+001
 11
0.0
 21
-6.25E+001
  0
LINE
  8
104
  6
CONTINUOUS
 62
40
 10
0.0
 20
-6.25E+001
 11
0.0
 21
-5.75E+001
  0
LINE
  8
104
  6
CONTINUOUS
 62
40
 10
0.0
 20
-5.75E+001
 11
8.0
 21
-5.75E+001
  0
LINE
  8
104
  6
CONTINUOUS
 62
40
 10
8.0
 20
-5.75E+001
 11
8.0
 21
-6.25E+001
  0
LINE
  8
MED-0
  6
CENTERLINE
 62
150
 10
8.0
 20
-1.75E+001
 11
0.0
 21
-1.75E+001
  0
LINE
  8
MED-0
  6
CENTERLINE
 62
150
 10
0.0
 20
-1.75E+001
 11
0.0
 21
-1.25E+001
  0
LINE
  8
MED-0
  6
CENTERLINE
 62
150
 10
0.0
 20
-1.25E+001
 11
8.0
 21
-1.25E+001
  0
LINE
  8
MED-0
  6
CENTERLINE
 62
150
 10
8.0
 20
-1.25E+001
 11
8.0
 21
-1.75E+001
  0
LINE
  8
99
  6
CONTINUOUS
 62
1
 10
0.0
 20
-1.675E+001
 11
8.0
 21
-1.675E+001
  0
LINE
  8
99
  6
CONTINUOUS
 62
1
 10
0.0
 20
-1.325E+001
 11
8.0
 21
-1.325E+001
  0
LINE
  8
106
  6
CENTERLINE
 62
1
 10
-1.684
 20
-1.5E+001
 11
1.0851E+001
 21
-1.5E+001
  0
LINE
  8
104
  6
CONTINUOUS
 62
40
 10
8.0
 20
-1.75E+001
 11
0.0
 21
-1.75E+001
  0
LINE
  8
104
  6
CONTINUOUS
 62
40
 10
0.0
 20
-1.75E+001
 11
0.0
 21
-1.25E+001
  0
LINE
  8
104
  6
CONTINUOUS
 62
40
 10
0.0
 20
-1.25E+001
 11
8.0
 21
-1.25E+001
  0
LINE
  8
104
  6
CONTINUOUS
 62
40
 10
8.0
 20
-1.25E+001
 11
8.0
 21
-1.75E+001
  0
LINE
  8
MED-1
  6
CONTINUOUS
 62
40
 10
-2.5391984E+001
 20
8.75
 11
-1.2500004E+001
 21
8.75
  0
LINE
  8
MED-1
  6
CONTINUOUS
 62
40
 10
-2.6787894E+001
 20
8.74998
 11
-2.5391984E+001
 21
8.75
  0
LINE
  8
MED-1
  6
CONTINUOUS
 62
40
 10
-6.0393961E+001
 20
8.7499855
 11
-2.6787894E+001
 21
8.74998
  0
LINE
  8
106
  6
CENTERLINE
 62
1
 10
-2.35E+001
 20
-1.0249999E+001
 11
-2.350002E+001
 21
1.6749999E+001
  0
LINE
  8
MED-1
  6
CONTINUOUS
 62
40
 10
-2.6787874E+001
 20
1.375E+001
 11
-2.6787894E+001
 21
8.74998
  0
LINE
  8
MED-1
  6
CONTINUOUS
 62
40
 10
-2.6787874E+001
 20
1.375E+001
 11
-6.0393959E+001
 21
1.375E+001
  0
LINE
  8
MED-1
  6
CONTINUOUS
 62
40
 10
-3.4500002E+001
 20
-7.5
 11
-3.4500014E+001
 21
8.74998
  0
LINE
  8
MED-1
  6
CONTINUOUS
 62
40
 10
-1.2500004E+001
 20
8.75
 11
-1.2500004E+001
 21
-7.5
  0
LINE
  8
MED-1
  6
CONTINUOUS
 62
40
 10
-1.2507464E+001
 20
1.375E+001
 11
-1.2500004E+001
 21
8.75
  0
LINE
  8
MED-1
  6
CONTINUOUS
 62
40
 10
-1.2507464E+001
 20
1.375E+001
 11
-2.6787874E+001
 21
1.375E+001
  0
POLYLINE
  8
106
  6
CENTERLINE
 62
1
 66
1
 40
0.0
 41
0.0
 70
2
  0
VERTEX
  8
106
 42
0.0
 10
-6.0393959E+001
 20
1.375E+001
 70
0
  0
VERTEX
  8
106
 42
1.3804488E-002
 10
-6.0562764E+001
 20
1.3574783E+001
 70
1
  0
VERTEX
  8
106
 42
1.3660769E-002
 10
-6.0714646E+001
 20
1.3398997E+001
 70
0
  0
VERTEX
  8
106
 42
1.653911E-002
 10
-6.0849525E+001
 20
1.3222632E+001
 70
1
  0
VERTEX
  8
106
 42
2.4141298E-002
 10
-6.0963825E+001
 20
1.3045629E+001
 70
0
  0
VERTEX
  8
106
 42
3.1937598E-002
 10
-6.1051484E+001
 20
1.286786E+001
 70
1
  0
VERTEX
  8
106
 42
3.9947942E-002
 10
-6.1110014E+001
 20
1.2689288E+001
 70
0
  0
VERTEX
  8
106
 42
4.8379337E-002
 10
-6.1134559E+001
 20
1.2509809E+001
 70
1
  0
VERTEX
  8
106
 42
5.5946917E-002
 10
-6.1121727E+001
 20
1.2329368E+001
 70
0
  0
VERTEX
  8
106
 42
4.6858675E-002
 10
-6.1067432E+001
 20
1.2147874E+001
 70
1
  0
VERTEX
  8
106
 42
2.7220441E-002
 10
-6.0982704E+001
 20
1.1965554E+001
 70
0
  0
VERTEX
  8
106
 42
1.2195214E-002
 10
-6.0879067E+001
 20
1.1782622E+001
 70
1
  0
VERTEX
  8
106
 42
-3.203705E-003
 10
-6.0770993E+001
 20
1.1599353E+001
 70
0
  0
VERTEX
  8
106
 42
-1.8268733E-002
 10
-6.0673183E+001
 20
1.1416018E+001
 70
1
  0
VERTEX
  8
106
 42
-4.0170759E-002
 10
-6.0600711E+001
 20
1.1232962E+001
 70
0
  0
VERTEX
  8
106
 42
-5.9192136E-002
 10
-6.0569476E+001
 20
1.1050499E+001
 70
1
  0
VERTEX
  8
106
 42
-6.9603195E-002
 10
-6.058529E+001
 20
1.0868577E+001
 70
0
  0
VERTEX
  8
106
 42
-5.3847289E-002
 10
-6.0652092E+001
 20
1.0687312E+001
 70
1
  0
VERTEX
  8
106
 42
-2.444824E-002
 10
-6.0751235E+001
 20
1.050761E+001
 70
0
  0
VERTEX
  8
106
 42
-1.033372E-004
 10
-6.0861799E+001
 20
1.0329785E+001
 70
1
  0
VERTEX
  8
106
 42
3.212889E-002
 10
-6.0958775E+001
 20
1.014998E+001
 70
0
  0
VERTEX
  8
106
 42
4.2446281E-002
 10
-6.1020681E+001
 20
9.9668964
 70
1
  0
VERTEX
  8
106
 42
3.098173E-002
 10
-6.1052428E+001
 20
9.7954435
 70
0
  0
VERTEX
  8
106
 42
8.2788538E-002
 10
-6.1050641E+001
 20
9.6407937
 70
1
  0
VERTEX
  8
106
 42
9.0007326E-002
 10
-6.0965664E+001
 20
9.4438945
 70
0
  0
VERTEX
  8
106
 42
3.2482525E-002
 10
-6.074262E+001
 20
9.1428656
 70
1
  0
VERTEX
  8
106
 42
1.6150768E-002
 10
-6.0393961E+001
 20
8.7499855
 70
0
  0
SEQEND
  0
LINE
  8
106
  6
CENTERLINE
 62
1
 10
-3.23319E+001
 20
-3.75E+001
 11
-1.49466E+001
 21
-3.75E+001
  0
LINE
  8
MED-1
  6
CONTINUOUS
 62
40
 10
-2.0
 20
3.1E+001
 11
-5.23621
 21
3.1E+001
  0
LINE
  8
MED-1
  6
CONTINUOUS
 62
40
 10
-5.23621
 20
3.1E+001
 11
-6.44927
 21
3.1E+001
  0
LINE
  8
MED-1
  6
CONTINUOUS
 62
40
 10
-6.44927
 20
3.1E+001
 11
-1.806535E+001
 21
3.1E+001
  0
LINE
  8
MED-1
  6
CONTINUOUS
 62
40
 10
-1.806535E+001
 20
3.1E+001
 11
-1.95E+001
 21
3.1E+001
  0
LINE
  8
MED-1
  6
CONTINUOUS
 62
40
 10
-1.95E+001
 20
1.5E+001
 11
-1.806535E+001
 21
1.5E+001
  0
LINE
  8
MED-1
  6
CONTINUOUS
 62
40
 10
-1.806535E+001
 20
1.5E+001
 11
-6.44927
 21
1.5E+001
  0
LINE
  8
MED-1
  6
CONTINUOUS
 62
40
 10
-6.44927
 20
1.5E+001
 11
-5.23621
 21
1.5E+001
  0
LINE
  8
MED-1
  6
CONTINUOUS
 62
40
 10
-2.0
 20
1.5E+001
 11
-5.23621
 21
1.5E+001
  0
LINE
  8
MED-1
  6
CONTINUOUS
 62
40
 10
-5.23621
 20
1.7E+001
 11
-2.0
 21
1.7E+001
  0
LINE
  8
MED-1
  6
CONTINUOUS
 62
40
 10
-5.23621
 20
1.7E+001
 11
-6.44927
 21
1.7E+001
  0
LINE
  8
MED-1
  6
CONTINUOUS
 62
40
 10
-6.44927
 20
1.7E+001
 11
-1.806535E+001
 21
1.7E+001
  0
LINE
  8
MED-1
  6
CONTINUOUS
 62
40
 10
-1.806535E+001
 20
1.7E+001
 11
-1.95E+001
 21
1.7E+001
  0
LINE
  8
MED-1
  6
CONTINUOUS
 62
40
 10
-1.95E+001
 20
2.9E+001
 11
-1.806535E+001
 21
2.9E+001
  0
LINE
  8
MED-1
  6
CONTINUOUS
 62
40
 10
-1.806535E+001
 20
2.9E+001
 11
-6.44927
 21
2.9E+001
  0
LINE
  8
MED-1
  6
CONTINUOUS
 62
40
 10
-6.44927
 20
2.9E+001
 11
-5.23621
 21
2.9E+001
  0
LINE
  8
MED-1
  6
CONTINUOUS
 62
40
 10
-2.0
 20
2.9E+001
 11
-5.23621
 21
2.9E+001
  0
ARC
  8
MED-1
  6
CONTINUOUS
 62
40
 10
-2.0
 20
2.9E+001
 40
2.0000001
 50
0.0
 51
9.0E+001
  0
ARC
  8
MED-1
  6
CONTINUOUS
 62
40
 10
-2.0
 20
1.7E+001
 40
1.9999999
 50
2.7E+002
 51
3.6E+002
  0
LINE
  8
MED-1
  6
CONTINUOUS
 62
40
 10
-2.0
 20
1.7E+001
 11
-2.0
 21
2.9E+001
  0
LINE
  8
MED-1
  6
CONTINUOUS
 62
40
 10
0.0
 20
2.9E+001
 11
0.0
 21
1.7E+001
  0
LINE
  8
MED-1
  6
CONTINUOUS
 62
40
 10
-1.95E+001
 20
2.9E+001
 11
-1.95E+001
 21
3.1E+001
  0
LINE
  8
MED-1
  6
CONTINUOUS
 62
40
 10
-1.95E+001
 20
1.5E+001
 11
-1.95E+001
 21
1.7E+001
  0
CIRCLE
  8
MED-1
  6
CONTINUOUS
 62
40
 10
-2.9E+001
 20
2.3E+001
 40
3.5
  0
ARC
  8
MED-1
  6
CONTINUOUS
 62
40
 10
-1.2E+001
 20
2.641667E+001
 40
6.0833332
 50
4.888791E+001
 51
9.0E+001
  0
ARC
  8
MED-1
  6
CONTINUOUS
 62
40
 10
-1.2E+001
 20
2.641667E+001
 40
6.0833333
 50
9.0E+001
 51
1.3111209E+002
  0
LINE
  8
MED-1
  6
CONTINUOUS
 62
40
 10
-7.0
 20
1.725E+001
 11
-1.7E+001
 21
1.725E+001
  0
LINE
  8
MED-1
  6
CONTINUOUS
 62
40
 10
-1.7E+001
 20
2.875E+001
 11
-7.0
 21
2.875E+001
  0
LINE
  8
MED-1
  6
CONTINUOUS
 62
40
 10
-7.0
 20
2.875E+001
 11
-6.99999
 21
2.850001E+001
  0
LINE
  8
MED-1
  6
CONTINUOUS
 62
40
 10
-6.99999
 20
1.749998E+001
 11
-7.0
 21
1.725E+001
  0
LINE
  8
MED-1
  6
CONTINUOUS
 62
40
 10
-1.7E+001
 20
1.725E+001
 11
-1.699999E+001
 21
1.749998E+001
  0
LINE
  8
MED-1
  6
CONTINUOUS
 62
40
 10
-1.699999E+001
 20
2.850001E+001
 11
-1.7E+001
 21
2.875E+001
  0
ARC
  8
MED-1
  6
CONTINUOUS
 62
40
 10
-2.9E+001
 20
2.3E+001
 40
5.5
 50
9.0E+001
 51
1.8E+002
  0
ARC
  8
MED-1
  6
CONTINUOUS
 62
40
 10
-2.9E+001
 20
2.3E+001
 40
5.5
 50
1.8E+002
 51
2.7E+002
  0
LINE
  8
MED-1
  6
CONTINUOUS
 62
40
 10
-1.720481E+001
 20
2.85E+001
 11
-4.5
 21
2.85E+001
  0
LINE
  8
MED-1
  6
CONTINUOUS
 62
40
 10
-1.720481E+001
 20
2.85E+001
 11
-1.893975E+001
 21
2.85E+001
  0
LINE
  8
MED-1
  6
CONTINUOUS
 62
40
 10
-1.893975E+001
 20
2.85E+001
 11
-2.9E+001
 21
2.85E+001
  0
LINE
  8
MED-1
  6
CONTINUOUS
 62
40
 10
-2.9E+001
 20
1.75E+001
 11
-1.893975E+001
 21
1.75E+001
  0
LINE
  8
MED-1
  6
CONTINUOUS
 62
40
 10
-1.893975E+001
 20
1.75E+001
 11
-1.720481E+001
 21
1.75E+001
  0
LINE
  8
MED-1
  6
CONTINUOUS
 62
40
 10
-4.5
 20
1.75E+001
 11
-1.720481E+001
 21
1.75E+001
  0
LINE
  8
MED-1
  6
CONTINUOUS
 62
40
 10
-1.720481E+001
 20
1.75E+001
 11
-1.720481E+001
 21
2.85E+001
  0
LINE
  8
MED-1
  6
CONTINUOUS
 62
40
 10
-4.5
 20
2.85E+001
 11
-4.49999
 21
2.725001E+001
  0
LINE
  8
MED-1
  6
CONTINUOUS
 62
40
 10
-4.5
 20
1.875E+001
 11
-4.5
 21
1.75E+001
  0
LINE
  8
MED-1
  6
CONTINUOUS
 62
40
 10
-3.95E+001
 20
2.022236E+001
 11
-3.949975E+001
 21
1.946704E+001
  0
LINE
  8
MED-1
  6
CONTINUOUS
 62
40
 10
-3.95E+001
 20
2.022236E+001
 11
-3.95E+001
 21
2.023821E+001
  0
LINE
  8
MED-1
  6
CONTINUOUS
 62
40
 10
-3.95E+001
 20
2.57618E+001
 11
-3.95E+001
 21
2.023821E+001
  0
LINE
  8
MED-1
  6
CONTINUOUS
 62
40
 10
-3.95E+001
 20
2.650026E+001
 11
-3.95E+001
 21
2.582649E+001
  0
LINE
  8
MED-1
  6
CONTINUOUS
 62
40
 10
-3.95E+001
 20
2.57618E+001
 11
-3.95E+001
 21
2.582649E+001
  0
LINE
  8
MED-1
  6
CONTINUOUS
 62
40
 10
-3.95E+001
 20
2.66753E+001
 11
-3.95E+001
 21
2.650026E+001
  0
LINE
  8
MED-1
  6
CONTINUOUS
 62
40
 10
-3.630001E+001
 20
1.824997E+001
 11
-3.630001E+001
 21
1.898822E+001
  0
LINE
  8
MED-1
  6
CONTINUOUS
 62
40
 10
-3.177264E+001
 20
1.825E+001
 11
-3.205563E+001
 21
1.825E+001
  0
LINE
  8
MED-1
  6
CONTINUOUS
 62
40
 10
-3.205563E+001
 20
1.825E+001
 11
-3.233856E+001
 21
1.825E+001
  0
LINE
  8
MED-1
  6
CONTINUOUS
 62
40
 10
-3.233856E+001
 20
1.825E+001
 11
-3.262138E+001
 21
1.825E+001
  0
LINE
  8
MED-1
  6
CONTINUOUS
 62
40
 10
-3.262138E+001
 20
1.825E+001
 11
-3.290448E+001
 21
1.825E+001
  0
LINE
  8
MED-1
  6
CONTINUOUS
 62
40
 10
-3.290448E+001
 20
1.825E+001
 11
-3.318801E+001
 21
1.825E+001
  0
LINE
  8
MED-1
  6
CONTINUOUS
 62
40
 10
-3.318801E+001
 20
1.825E+001
 11
-3.34704E+001
 21
1.825E+001
  0
LINE
  8
MED-1
  6
CONTINUOUS
 62
40
 10
-3.34704E+001
 20
1.825E+001
 11
-3.37511E+001
 21
1.825E+001
  0
LINE
  8
MED-1
  6
CONTINUOUS
 62
40
 10
-3.37511E+001
 20
1.825E+001
 11
-3.403632E+001
 21
1.825E+001
  0
LINE
  8
MED-1
  6
CONTINUOUS
 62
40
 10
-3.403632E+001
 20
1.825E+001
 11
-3.432821E+001
 21
1.825E+001
  0
LINE
  8
MED-1
  6
CONTINUOUS
 62
40
 10
-3.432821E+001
 20
1.825E+001
 11
-3.460224E+001
 21
1.824999E+001
  0
LINE
  8
MED-1
  6
CONTINUOUS
 62
40
 10
-3.460224E+001
 20
1.824999E+001
 11
-3.484999E+001
 21
1.824999E+001
  0
LINE
  8
MED-1
  6
CONTINUOUS
 62
40
 10
-3.484999E+001
 20
1.824999E+001
 11
-3.516817E+001
 21
1.824999E+001
  0
LINE
  8
MED-1
  6
CONTINUOUS
 62
40
 10
-3.516817E+001
 20
1.824999E+001
 11
-3.565823E+001
 21
1.824998E+001
  0
LINE
  8
MED-1
  6
CONTINUOUS
 62
40
 10
-3.565823E+001
 20
1.824998E+001
 11
-3.630001E+001
 21
1.824997E+001
  0
LINE
  8
MED-1
  6
CONTINUOUS
 62
40
 10
-3.276239E+001
 20
1.898821E+001
 11
-3.630001E+001
 21
1.898822E+001
  0
LINE
  8
MED-1
  6
CONTINUOUS
 62
40
 10
-3.937653E+001
 20
1.938092E+001
 11
-3.93726E+001
 21
1.938556E+001
  0
ARC
  8
MED-1
  6
CONTINUOUS
 62
40
 10
-2.8385165E+001
 20
1.0051235E+001
 40
1.441712E+001
 50
1.3958391E+002
 51
1.3965059E+002
  0
LINE
  8
MED-1
  6
CONTINUOUS
 62
40
 10
-3.936173E+001
 20
1.939834E+001
 11
-3.934383E+001
 21
1.94194E+001
  0
LINE
  8
MED-1
  6
CONTINUOUS
 62
40
 10
-3.934383E+001
 20
1.94194E+001
 11
-3.931791E+001
 21
1.94499E+001
  0
LINE
  8
MED-1
  6
CONTINUOUS
 62
40
 10
-3.931791E+001
 20
1.94499E+001
 11
-3.92834E+001
 21
1.949049E+001
  0
LINE
  8
MED-1
  6
CONTINUOUS
 62
40
 10
-3.92834E+001
 20
1.949049E+001
 11
-3.924672E+001
 21
1.953364E+001
  0
LINE
  8
MED-1
  6
CONTINUOUS
 62
40
 10
-3.924672E+001
 20
1.953364E+001
 11
-3.920995E+001
 21
1.95769E+001
  0
LINE
  8
MED-1
  6
CONTINUOUS
 62
40
 10
-3.920995E+001
 20
1.95769E+001
 11
-3.915079E+001
 21
1.96465E+001
  0
LINE
  8
MED-1
  6
CONTINUOUS
 62
40
 10
-3.915079E+001
 20
1.96465E+001
 11
-3.904528E+001
 21
1.977062E+001
  0
LINE
  8
MED-1
  6
CONTINUOUS
 62
40
 10
-3.904528E+001
 20
1.977062E+001
 11
-3.889837E+001
 21
1.994343E+001
  0
LINE
  8
MED-1
  6
CONTINUOUS
 62
40
 10
-3.630001E+001
 20
1.824997E+001
 11
-3.647295E+001
 21
1.825306E+001
  0
ARC
  8
MED-1
  6
CONTINUOUS
 62
40
 10
-3.6297491E+001
 20
2.3292887E+001
 40
5.0428806
 50
2.6606087E+002
 51
2.6800608E+002
  0
ARC
  8
MED-1
  6
CONTINUOUS
 62
40
 10
-3.6301575E+001
 20
2.3120683E+001
 40
4.8708089
 50
2.6397496E+002
 51
2.6596964E+002
  0
ARC
  8
MED-1
  6
CONTINUOUS
 62
40
 10
-3.6313787E+001
 20
2.3013242E+001
 40
4.7626796
 50
2.6196142E+002
 51
2.639854E+002
  0
ARC
  8
MED-1
  6
CONTINUOUS
 62
40
 10
-3.6314903E+001
 20
2.2975249E+001
 40
4.7249057
 50
2.5988441E+002
 51
2.6191039E+002
  0
ARC
  8
MED-1
  6
CONTINUOUS
 62
40
 10
-3.6322487E+001
 20
2.2951077E+001
 40
4.6997785
 50
2.5789897E+002
 51
2.5992367E+002
  0
ARC
  8
MED-1
  6
CONTINUOUS
 62
40
 10
-3.6317237E+001
 20
2.2954942E+001
 40
4.7046604
 50
2.5583385E+002
 51
2.5784633E+002
  0
ARC
  8
MED-1
  6
CONTINUOUS
 62
40
 10
-3.6329182E+001
 20
2.2911913E+001
 40
4.6600159
 50
2.5381979E+002
 51
2.5584678E+002
  0
ARC
  8
MED-1
  6
CONTINUOUS
 62
40
 10
-3.6344775E+001
 20
2.2843603E+001
 40
4.5900692
 50
2.5171292E+002
 51
2.5376911E+002
  0
ARC
  8
MED-1
  6
CONTINUOUS
 62
40
 10
-3.6311492E+001
 20
2.2983475E+001
 40
4.7333367
 50
2.4987768E+002
 51
2.5186164E+002
  0
ARC
  8
MED-1
  6
CONTINUOUS
 62
40
 10
-3.6181201E+001
 20
2.33347E+001
 40
5.1079465
 50
2.480334E+002
 51
2.4986077E+002
  0
ARC
  8
MED-1
  6
CONTINUOUS
 62
40
 10
-3.6315887E+001
 20
2.2934926E+001
 40
4.6868783
 50
2.4570623E+002
 51
2.4773225E+002
  0
ARC
  8
MED-1
  6
CONTINUOUS
 62
40
 10
-3.6606349E+001
 20
2.2273988E+001
 40
3.9649732
 50
2.4314489E+002
 51
2.456025E+002
  0
ARC
  8
MED-1
  6
CONTINUOUS
 62
40
 10
-3.624115E+001
 20
2.3179089E+001
 40
4.9381325
 50
2.4225205E+002
 51
2.4410858E+002
  0
ARC
  8
MED-1
  6
CONTINUOUS
 62
40
 10
-3.2065266E+001
 20
3.1177506E+001
 40
1.3961015E+001
 50
2.4177296E+002
 51
2.4236799E+002
  0
ARC
  8
MED-1
  6
CONTINUOUS
 62
40
 10
-3.660438E+001
 20
2.2346754E+001
 40
4.0374599
 50
2.3658323E+002
 51
2.392557E+002
  0
ARC
  8
MED-1
  6
CONTINUOUS
 62
40
 10
-3.6823677E+001
 20
2.2038926E+001
 40
3.6597724
 50
2.3219282E+002
 51
2.3679483E+002
  0
ARC
  8
MED-1
  6
CONTINUOUS
 62
40
 10
-3.3133903E+001
 20
2.7330744E+001
 40
1.0107922E+001
 50
2.3185911E+002
 51
2.3405639E+002
  0
LINE
  8
MED-1
  6
CONTINUOUS
 62
40
 10
-3.630001E+001
 20
1.898822E+001
 11
-3.644607E+001
 21
1.899082E+001
  0
ARC
  8
MED-1
  6
CONTINUOUS
 62
40
 10
-3.6298338E+001
 20
2.3245989E+001
 40
4.2577323
 50
2.6606572E+002
 51
2.6801159E+002
  0
ARC
  8
MED-1
  6
CONTINUOUS
 62
40
 10
-3.6301475E+001
 20
2.3100503E+001
 40
4.1123802
 50
2.6397486E+002
 51
2.6597025E+002
  0
ARC
  8
MED-1
  6
CONTINUOUS
 62
40
 10
-3.631214E+001
 20
2.3009815E+001
 40
4.0210735
 50
2.6196568E+002
 51
2.6399035E+002
  0
ARC
  8
MED-1
  6
CONTINUOUS
 62
40
 10
-3.6312831E+001
 20
2.2977899E+001
 40
3.9893757
 50
2.598849E+002
 51
2.6191145E+002
  0
ARC
  8
MED-1
  6
CONTINUOUS
 62
40
 10
-3.6319063E+001
 20
2.2957974E+001
 40
3.9686668
 50
2.5789778E+002
 51
2.5992295E+002
  0
ARC
  8
MED-1
  6
CONTINUOUS
 62
40
 10
-3.6314832E+001
 20
2.2961074E+001
 40
3.9725872
 50
2.5583462E+002
 51
2.5784749E+002
  0
ARC
  8
MED-1
  6
CONTINUOUS
 62
40
 10
-3.6324723E+001
 20
2.2924947E+001
 40
3.9351377
 50
2.5381821E+002
 51
2.5584552E+002
  0
ARC
  8
MED-1
  6
CONTINUOUS
 62
40
 10
-3.6338085E+001
 20
2.2867673E+001
 40
3.8764107
 50
2.5171554E+002
 51
2.5377197E+002
  0
ARC
  8
MED-1
  6
CONTINUOUS
 62
40
 10
-3.6309584E+001
 20
2.2985627E+001
 40
3.9973634
 50
2.49874E+002
 51
2.5185808E+002
  0
ARC
  8
MED-1
  6
CONTINUOUS
 62
40
 10
-3.6199823E+001
 20
2.3282935E+001
 40
4.3142848
 50
2.4803655E+002
 51
2.4986391E+002
  0
ARC
  8
MED-1
  6
CONTINUOUS
 62
40
 10
-3.6313506E+001
 20
2.294483E+001
 40
3.958255
 50
2.4570611E+002
 51
2.4773223E+002
  0
ARC
  8
MED-1
  6
CONTINUOUS
 62
40
 10
-3.6558987E+001
 20
2.2386264E+001
 40
3.3481617
 50
2.4314436E+002
 51
2.456024E+002
  0
ARC
  8
MED-1
  6
CONTINUOUS
 62
40
 10
-3.6250662E+001
 20
2.3150308E+001
 40
4.1696748
 50
2.4225052E+002
 51
2.4410739E+002
  0
ARC
  8
MED-1
  6
CONTINUOUS
 62
40
 10
-3.2721591E+001
 20
2.9910087E+001
 40
1.1795207E+001
 50
2.4177318E+002
 51
2.4236806E+002
  0
ARC
  8
MED-1
  6
CONTINUOUS
 62
40
 10
-3.6557684E+001
 20
2.244713E+001
 40
3.4086908
 50
2.3658113E+002
 51
2.3925458E+002
  0
ARC
  8
MED-1
  6
CONTINUOUS
 62
40
 10
-3.6742858E+001
 20
2.2186921E+001
 40
3.0895375
 50
2.3218539E+002
 51
2.367897E+002
  0
ARC
  8
MED-1
  6
CONTINUOUS
 62
40
 10
-3.3627746E+001
 20
2.6653901E+001
 40
8.532872
 50
2.3185275E+002
 51
2.3405113E+002
  0
LINE
  8
MED-1
  6
CONTINUOUS
 62
40
 10
-3.937653E+001
 20
1.938092E+001
 11
-3.938783E+001
 21
1.939044E+001
  0
ARC
  8
MED-1
  6
CONTINUOUS
 62
40
 10
-4.0371214E+001
 20
1.8211041E+001
 40
1.5355867
 50
5.0178631E+001
 51
5.0696498E+001
  0
ARC
  8
MED-1
  6
CONTINUOUS
 62
40
 10
-4.0188881E+001
 20
1.8429918E+001
 40
1.2507263
 50
5.0808572E+001
 51
5.140246E+001
  0
ARC
  8
MED-1
  6
CONTINUOUS
 62
40
 10
-4.0052596E+001
 20
1.8598946E+001
 40
1.0336027
 50
5.1461535E+001
 51
5.2133791E+001
  0
ARC
  8
MED-1
  6
CONTINUOUS
 62
40
 10
-3.9963443E+001
 20
1.8712737E+001
 40
8.8904782E-001
 50
5.2168206E+001
 51
5.2898169E+001
  0
ARC
  8
MED-1
  6
CONTINUOUS
 62
40
 10
-3.9895248E+001
 20
1.8801573E+001
 40
7.7705764E-001
 50
5.2957234E+001
 51
5.3736617E+001
  0
ARC
  8
MED-1
  6
CONTINUOUS
 62
40
 10
-3.9849207E+001
 20
1.8862258E+001
 40
7.008952E-001
 50
5.3837084E+001
 51
5.4639992E+001
  0
ARC
  8
MED-1
  6
CONTINUOUS
 62
40
 10
-3.9769768E+001
 20
1.8972148E+001
 40
5.6530546E-001
 50
5.4760529E+001
 51
5.5700719E+001
  0
ARC
  8
MED-1
  6
CONTINUOUS
 62
40
 10
-3.9693815E+001
 20
1.9081203E+001
 40
4.3241601E-001
 50
5.5871809E+001
 51
5.7037154E+001
  0
ARC
  8
MED-1
  6
CONTINUOUS
 62
40
 10
-3.9700372E+001
 20
1.9075801E+001
 40
4.405232E-001
 50
5.6703906E+001
 51
5.7729603E+001
  0
ARC
  8
MED-1
  6
CONTINUOUS
 62
40
 10
-3.9863959E+001
 20
1.8817963E+001
 40
7.4587689E-001
 50
5.7679239E+001
 51
5.8203133E+001
  0
ARC
  8
MED-1
  6
CONTINUOUS
 62
40
 10
-3.9628724E+001
 20
1.9184377E+001
 40
3.1058211E-001
 50
5.9469723E+001
 51
6.0913372E+001
  0
ARC
  8
MED-1
  6
CONTINUOUS
 62
40
 10
-3.959502E+001
 20
1.924387E+001
 40
2.4220825E-001
 50
6.1039162E+001
 51
6.3638087E+001
  0
ARC
  8
MED-1
  6
CONTINUOUS
 62
40
 10
-3.9728574E+001
 20
1.8994802E+001
 40
5.2475653E-001
 50
6.2647841E+001
 51
6.4147429E+001
  0
LINE
  8
MED-1
  6
CONTINUOUS
 62
40
 10
-3.889837E+001
 20
1.994343E+001
 11
-3.892528E+001
 21
1.996566E+001
  0
ARC
  8
MED-1
  6
CONTINUOUS
 62
40
 10
-3.9750718E+001
 20
1.8939806E+001
 40
1.3167097
 50
5.1178618E+001
 51
5.2685371E+001
  0
ARC
  8
MED-1
  6
CONTINUOUS
 62
40
 10
-3.9727716E+001
 20
1.89674E+001
 40
1.2808214
 50
5.2755471E+001
 51
5.4292063E+001
  0
ARC
  8
MED-1
  6
CONTINUOUS
 62
40
 10
-3.971418E+001
 20
1.8987058E+001
 40
1.2569586
 50
5.4270085E+001
 51
5.5825653E+001
  0
ARC
  8
MED-1
  6
CONTINUOUS
 62
40
 10
-3.9707109E+001
 20
1.8995486E+001
 40
1.2460141
 50
5.5876972E+001
 51
5.7436414E+001
  0
ARC
  8
MED-1
  6
CONTINUOUS
 62
40
 10
-3.970309E+001
 20
1.9002815E+001
 40
1.2376739
 50
5.7410602E+001
 51
5.897135E+001
  0
ARC
  8
MED-1
  6
CONTINUOUS
 62
40
 10
-3.9701541E+001
 20
1.9003706E+001
 40
1.236113
 50
5.9011565E+001
 51
6.0566537E+001
  0
ARC
  8
MED-1
  6
CONTINUOUS
 62
40
 10
-3.9693561E+001
 20
1.9017575E+001
 40
1.2201121
 50
6.0572852E+001
 51
6.214333E+001
  0
ARC
  8
MED-1
  6
CONTINUOUS
 62
40
 10
-3.9681578E+001
 20
1.9038497E+001
 40
1.1960163
 50
6.2182556E+001
 51
6.3781316E+001
  0
ARC
  8
MED-1
  6
CONTINUOUS
 62
40
 10
-3.9695982E+001
 20
1.901456E+001
 40
1.2238562
 50
6.3671434E+001
 51
6.5223549E+001
  0
ARC
  8
MED-1
  6
CONTINUOUS
 62
40
 10
-3.9729645E+001
 20
1.8940485E+001
 40
1.30522
 50
6.5244604E+001
 51
6.6688969E+001
  0
ARC
  8
MED-1
  6
CONTINUOUS
 62
40
 10
-3.9686622E+001
 20
1.902948E+001
 40
1.2064724
 50
6.6892865E+001
 51
6.8477617E+001
  0
ARC
  8
MED-1
  6
CONTINUOUS
 62
40
 10
-3.9625285E+001
 20
1.9182182E+001
 40
1.0419151
 50
6.8534757E+001
 51
7.0412085E+001
  0
ARC
  8
MED-1
  6
CONTINUOUS
 62
40
 10
-3.9726645E+001
 20
1.8947074E+001
 40
1.297506
 50
6.9675794E+001
 51
7.1091114E+001
  0
ARC
  8
MED-1
  6
CONTINUOUS
 62
40
 10
-4.047828E+001
 20
1.6767453E+001
 40
3.6030852
 50
7.1015803E+001
 51
7.1476784E+001
  0
ARC
  8
MED-1
  6
CONTINUOUS
 62
40
 10
-3.9637501E+001
 20
1.916672E+001
 40
1.0615833
 50
7.3366259E+001
 51
7.5380008E+001
  0
ARC
  8
MED-1
  6
CONTINUOUS
 62
40
 10
-3.9609144E+001
 20
1.928343E+001
 40
9.4149625E-001
 50
7.5257102E+001
 51
7.8770034E+001
  0
ARC
  8
MED-1
  6
CONTINUOUS
 62
40
 10
-3.9982033E+001
 20
1.7725251E+001
 40
2.5432237
 50
7.7366389E+001
 51
7.9073593E+001
  0
LINE
  8
MED-1
  6
CONTINUOUS
 62
40
 10
-3.949997E+001
 20
1.949997E+001
 11
-5.8325081E+001
 21
1.949997E+001
  0
LINE
  8
MED-1
  6
CONTINUOUS
 62
40
 10
-5.9171194E+001
 20
2.6499957E+001
 11
-3.95E+001
 21
2.650026E+001
  0
LINE
  8
MED-1
  6
CONTINUOUS
 62
40
 10
-3.949997E+001
 20
2.582647E+001
 11
-3.948022E+001
 21
2.583333E+001
  0
ARC
  8
MED-1
  6
CONTINUOUS
 62
40
 10
-3.9903388E+001
 20
2.7019663E+001
 40
1.2595459
 50
2.8963145E+002
 51
2.9058286E+002
  0
ARC
  8
MED-1
  6
CONTINUOUS
 62
40
 10
-3.9909348E+001
 20
2.7033549E+001
 40
1.2746414
 50
2.9061423E+002
 51
2.9155512E+002
  0
ARC
  8
MED-1
  6
CONTINUOUS
 62
40
 10
-3.9905194E+001
 20
2.7024235E+001
 40
1.2644526
 50
2.9153509E+002
 51
2.9248424E+002
  0
ARC
  8
MED-1
  6
CONTINUOUS
 62
40
 10
-3.9891854E+001
 20
2.698946E+001
 40
1.22722
 50
2.9252969E+002
 51
2.9350872E+002
  0
ARC
  8
MED-1
  6
CONTINUOUS
 62
40
 10
-3.9887867E+001
 20
2.6980377E+001
 40
1.2173006
 50
2.9350717E+002
 51
2.9449539E+002
  0
ARC
  8
MED-1
  6
CONTINUOUS
 62
40
 10
-3.9892536E+001
 20
2.698969E+001
 40
1.2277111
 50
2.9451348E+002
 51
2.9549395E+002
  0
ARC
  8
MED-1
  6
CONTINUOUS
 62
40
 10
-3.9889207E+001
 20
2.6981887E+001
 40
1.2192352
 50
2.9551056E+002
 51
2.965009E+002
  0
ARC
  8
MED-1
  6
CONTINUOUS
 62
40
 10
-3.9877647E+001
 20
2.6957932E+001
 40
1.1926387
 50
2.9651741E+002
 51
2.9753347E+002
  0
ARC
  8
MED-1
  6
CONTINUOUS
 62
40
 10
-3.9890838E+001
 20
2.6986329E+001
 40
1.223919
 50
2.9746652E+002
 51
2.9845499E+002
  0
ARC
  8
MED-1
  6
CONTINUOUS
 62
40
 10
-3.9930594E+001
 20
2.7058514E+001
 40
1.3063256
 50
2.984795E+002
 51
2.9940221E+002
  0
ARC
  8
MED-1
  6
CONTINUOUS
 62
40
 10
-3.9881987E+001
 20
2.6966142E+001
 40
1.2019925
 50
2.9954533E+002
 51
3.005675E+002
  0
ARC
  8
MED-1
  6
CONTINUOUS
 62
40
 10
-3.9795855E+001
 20
2.6818792E+001
 40
1.0313174
 50
3.0061046E+002
 51
3.0183443E+002
  0
ARC
  8
MED-1
  6
CONTINUOUS
 62
40
 10
-3.9921851E+001
 20
2.704171E+001
 40
1.2872044
 50
3.0136535E+002
 51
3.0228792E+002
  0
ARC
  8
MED-1
  6
CONTINUOUS
 62
40
 10
-4.1115315E+001
 20
2.8937703E+001
 40
3.5275486
 50
3.0222512E+002
 51
3.0252995E+002
  0
ARC
  8
MED-1
  6
CONTINUOUS
 62
40
 10
-3.9808446E+001
 20
2.6847172E+001
 40
1.0624782
 50
3.037341E+002
 51
3.0504502E+002
  0
ARC
  8
MED-1
  6
CONTINUOUS
 62
40
 10
-3.9749358E+001
 20
2.6765436E+001
 40
9.6163213E-001
 50
3.0495919E+002
 51
3.0720721E+002
  0
ARC
  8
MED-1
  6
CONTINUOUS
 62
40
 10
-4.0720019E+001
 20
2.8112353E+001
 40
2.6216747
 50
3.0630252E+002
 51
3.0738644E+002
  0
LINE
  8
MED-1
  6
CONTINUOUS
 62
40
 10
-3.912817E+001
 20
2.602928E+001
 11
-3.901113E+001
 21
2.611919E+001
  0
ARC
  8
MED-1
  6
CONTINUOUS
 62
40
 10
-3.6314213E+001
 20
2.2489696E+001
 40
4.52179
 50
1.2476158E+002
 51
1.2661441E+002
  0
ARC
  8
MED-1
  6
CONTINUOUS
 62
40
 10
-3.6399416E+001
 20
2.260085E+001
 40
4.3818995
 50
1.2277968E+002
 51
1.2467501E+002
  0
ARC
  8
MED-1
  6
CONTINUOUS
 62
40
 10
-3.6447488E+001
 20
2.2677637E+001
 40
4.2913134
 50
1.2087379E+002
 51
1.2279511E+002
  0
ARC
  8
MED-1
  6
CONTINUOUS
 62
40
 10
-3.646888E+001
 20
2.270557E+001
 40
4.2563626
 50
1.1889484E+002
 51
1.2081958E+002
  0
ARC
  8
MED-1
  6
CONTINUOUS
 62
40
 10
-3.6477238E+001
 20
2.2726249E+001
 40
4.2342209
 50
1.1700678E+002
 51
1.1893104E+002
  0
ARC
  8
MED-1
  6
CONTINUOUS
 62
40
 10
-3.6478651E+001
 20
2.2721207E+001
 40
4.2380728
 50
1.1504523E+002
 51
1.169588E+002
  0
ARC
  8
MED-1
  6
CONTINUOUS
 62
40
 10
-3.6496069E+001
 20
2.2759083E+001
 40
4.196385
 50
1.131201E+002
 51
1.1504871E+002
  0
ARC
  8
MED-1
  6
CONTINUOUS
 62
40
 10
-3.6524944E+001
 20
2.2819345E+001
 40
4.1296255
 50
1.1112132E+002
 51
1.1307995E+002
  0
ARC
  8
MED-1
  6
CONTINUOUS
 62
40
 10
-3.647077E+001
 20
2.2706469E+001
 40
4.254451
 50
1.093624E+002
 51
1.1125412E+002
  0
ARC
  8
MED-1
  6
CONTINUOUS
 62
40
 10
-3.6362625E+001
 20
2.2394864E+001
 40
4.5842867
 50
1.0760138E+002
 51
1.0934639E+002
  0
ARC
  8
MED-1
  6
CONTINUOUS
 62
40
 10
-3.649762E+001
 20
2.27506E+001
 40
4.2044368
 50
1.0537832E+002
 51
1.0731379E+002
  0
ARC
  8
MED-1
  6
CONTINUOUS
 62
40
 10
-3.667529E+001
 20
2.3372473E+001
 40
3.5577185
 50
1.0292874E+002
 51
1.0527537E+002
  0
ARC
  8
MED-1
  6
CONTINUOUS
 62
40
 10
-3.6410827E+001
 20
2.2540806E+001
 40
4.4280525
 50
1.0208281E+002
 51
1.0385629E+002
  0
ARC
  8
MED-1
  6
CONTINUOUS
 62
40
 10
-3.4702433E+001
 20
1.4668314E+001
 40
1.2483768E+001
 50
1.0161676E+002
 51
1.021867E+002
  0
ARC
  8
MED-1
  6
CONTINUOUS
 62
40
 10
-3.663702E+001
 20
2.3325844E+001
 40
3.6171989
 50
9.6661872E+001
 51
9.9214096E+001
  0
ARC
  8
MED-1
  6
CONTINUOUS
 62
40
 10
-3.6665964E+001
 20
2.3670595E+001
 40
3.2714371
 50
9.2458936E+001
 51
9.6858818E+001
  0
ARC
  8
MED-1
  6
CONTINUOUS
 62
40
 10
-3.6140364E+001
 20
1.7953463E+001
 40
9.0102017
 50
9.2133274E+001
 51
9.4238674E+001
  0
LINE
  8
MED-1
  6
CONTINUOUS
 62
40
 10
-3.647576E+001
 20
2.695742E+001
 11
-3.624685E+001
 21
2.695745E+001
  0
LINE
  8
MED-1
  6
CONTINUOUS
 62
40
 10
-3.624685E+001
 20
2.695745E+001
 11
-3.601798E+001
 21
2.695753E+001
  0
LINE
  8
MED-1
  6
CONTINUOUS
 62
40
 10
-3.601798E+001
 20
2.695753E+001
 11
-3.578921E+001
 21
2.695766E+001
  0
LINE
  8
MED-1
  6
CONTINUOUS
 62
40
 10
-3.578921E+001
 20
2.695766E+001
 11
-3.55602E+001
 21
2.695783E+001
  0
LINE
  8
MED-1
  6
CONTINUOUS
 62
40
 10
-3.55602E+001
 20
2.695783E+001
 11
-3.533085E+001
 21
2.695805E+001
  0
LINE
  8
MED-1
  6
CONTINUOUS
 62
40
 10
-3.533085E+001
 20
2.695805E+001
 11
-3.510243E+001
 21
2.695832E+001
  0
LINE
  8
MED-1
  6
CONTINUOUS
 62
40
 10
-3.510243E+001
 20
2.695832E+001
 11
-3.487537E+001
 21
2.695862E+001
  0
LINE
  8
MED-1
  6
CONTINUOUS
 62
40
 10
-3.487537E+001
 20
2.695862E+001
 11
-3.464466E+001
 21
2.695897E+001
  0
LINE
  8
MED-1
  6
CONTINUOUS
 62
40
 10
-3.464466E+001
 20
2.695897E+001
 11
-3.440856E+001
 21
2.695938E+001
  0
LINE
  8
MED-1
  6
CONTINUOUS
 62
40
 10
-3.440856E+001
 20
2.695938E+001
 11
-3.418689E+001
 21
2.695979E+001
  0
LINE
  8
MED-1
  6
CONTINUOUS
 62
40
 10
-3.418689E+001
 20
2.695979E+001
 11
-3.398649E+001
 21
2.696019E+001
  0
LINE
  8
MED-1
  6
CONTINUOUS
 62
40
 10
-3.398649E+001
 20
2.696019E+001
 11
-3.372912E+001
 21
2.696077E+001
  0
LINE
  8
MED-1
  6
CONTINUOUS
 62
40
 10
-3.372912E+001
 20
2.696077E+001
 11
-3.333272E+001
 21
2.696178E+001
  0
LINE
  8
MED-1
  6
CONTINUOUS
 62
40
 10
-3.333272E+001
 20
2.696178E+001
 11
-3.281359E+001
 21
2.696316E+001
  0
LINE
  8
MED-1
  6
CONTINUOUS
 62
40
 10
-3.949997E+001
 20
2.650024E+001
 11
-3.94796E+001
 21
2.647443E+001
  0
LINE
  8
MED-1
  6
CONTINUOUS
 62
40
 10
-3.94796E+001
 20
2.647443E+001
 11
-3.945731E+001
 21
2.644619E+001
  0
LINE
  8
MED-1
  6
CONTINUOUS
 62
40
 10
-3.945731E+001
 20
2.644619E+001
 11
-3.943315E+001
 21
2.641559E+001
  0
LINE
  8
MED-1
  6
CONTINUOUS
 62
40
 10
-3.943315E+001
 20
2.641559E+001
 11
-3.940637E+001
 21
2.638167E+001
  0
LINE
  8
MED-1
  6
CONTINUOUS
 62
40
 10
-3.940637E+001
 20
2.638167E+001
 11
-3.937663E+001
 21
2.6344E+001
  0
LINE
  8
MED-1
  6
CONTINUOUS
 62
40
 10
-3.937663E+001
 20
2.6344E+001
 11
-3.934751E+001
 21
2.630711E+001
  0
LINE
  8
MED-1
  6
CONTINUOUS
 62
40
 10
-3.934751E+001
 20
2.630711E+001
 11
-3.932017E+001
 21
2.627248E+001
  0
LINE
  8
MED-1
  6
CONTINUOUS
 62
40
 10
-3.932017E+001
 20
2.627248E+001
 11
-3.928116E+001
 21
2.622307E+001
  0
LINE
  8
MED-1
  6
CONTINUOUS
 62
40
 10
-3.928116E+001
 20
2.622307E+001
 11
-3.92162E+001
 21
2.614078E+001
  0
LINE
  8
MED-1
  6
CONTINUOUS
 62
40
 10
-3.92162E+001
 20
2.614078E+001
 11
-3.912817E+001
 21
2.602928E+001
  0
LINE
  8
MED-1
  6
CONTINUOUS
 62
40
 10
-3.647304E+001
 20
2.769567E+001
 11
-3.647576E+001
 21
2.695742E+001
  0
ARC
  8
MED-1
  6
CONTINUOUS
 62
40
 10
-3.647305E+001
 20
2.269565E+001
 40
5.0
 50
8.999989E+001
 51
1.2725694E+002
  0
LINE
  8
MED-1
  6
CONTINUOUS
 62
40
 10
-3.647304E+001
 20
2.769567E+001
 11
-3.183593E+001
 21
2.771249E+001
  0
LINE
  8
MED-1
  6
CONTINUOUS
 62
40
 10
1.4E+001
 20
2.3E+001
 11
1.4E+001
 21
2.52E+001
  0
LINE
  8
MED-1
  6
CONTINUOUS
 62
40
 10
1.4E+001
 20
2.08E+001
 11
1.4E+001
 21
2.3E+001
  0
LINE
  8
MED-1
  6
CONTINUOUS
 62
40
 10
-5.3
 20
2.3E+001
 11
-5.3
 21
1.905E+001
  0
LINE
  8
MED-1
  6
CONTINUOUS
 62
40
 10
-5.3
 20
2.695E+001
 11
-5.3
 21
2.3E+001
  0
LINE
  8
MED-1
  6
CONTINUOUS
 62
40
 10
1.400003E+001
 20
2.079999E+001
 11
1.369996E+001
 21
2.05E+001
  0
LINE
  8
MED-1
  6
CONTINUOUS
 62
40
 10
1.369996E+001
 20
2.3E+001
 11
1.369996E+001
 21
2.05E+001
  0
LINE
  8
MED-1
  6
CONTINUOUS
 62
40
 10
1.369996E+001
 20
2.549999E+001
 11
1.369996E+001
 21
2.3E+001
  0
LINE
  8
MED-1
  6
CONTINUOUS
 62
40
 10
1.369996E+001
 20
2.549999E+001
 11
1.400003E+001
 21
2.52E+001
  0
LINE
  8
MED-1
  6
CONTINUOUS
 62
40
 10
-5.00001
 20
2.3E+001
 11
-5.00001
 21
2.725001E+001
  0
LINE
  8
MED-1
  6
CONTINUOUS
 62
40
 10
-5.00001
 20
1.874998E+001
 11
-5.00001
 21
2.3E+001
  0
LINE
  8
MED-1
  6
CONTINUOUS
 62
40
 10
-5.00001
 20
2.725001E+001
 11
-1.99999
 21
2.725001E+001
  0
LINE
  8
MED-1
  6
CONTINUOUS
 62
40
 10
-1.99999
 20
1.874998E+001
 11
-5.00001
 21
1.874998E+001
  0
LINE
  8
MED-1
  6
CONTINUOUS
 62
40
 10
1.369996E+001
 20
2.05E+001
 11
-1.0E-005
 21
2.05E+001
  0
LINE
  8
MED-1
  6
CONTINUOUS
 62
40
 10
-1.0E-005
 20
2.549999E+001
 11
1.369996E+001
 21
2.549999E+001
  0
LINE
  8
MED-1
  6
CONTINUOUS
 62
40
 10
-5.00001
 20
1.874998E+001
 11
-5.01793
 21
1.87505E+001
  0
ARC
  8
MED-1
  6
CONTINUOUS
 62
40
 10
-5.0013833
 20
1.9030422E+001
 40
2.8041036E-001
 50
2.6288609E+002
 51
2.6661708E+002
  0
ARC
  8
MED-1
  6
CONTINUOUS
 62
40
 10
-4.9988784
 20
1.9054927E+001
 40
3.0503748E-001
 50
2.5947651E+002
 51
2.6298923E+002
  0
ARC
  8
MED-1
  6
CONTINUOUS
 62
40
 10
-4.9967401
 20
1.9066763E+001
 40
3.1706532E-001
 50
2.5604193E+002
 51
2.5948726E+002
  0
ARC
  8
MED-1
  6
CONTINUOUS
 62
40
 10
-4.9978191
 20
1.9056717E+001
 40
3.0705904E-001
 50
2.5216189E+002
 51
2.5578516E+002
  0
ARC
  8
MED-1
  6
CONTINUOUS
 62
40
 10
-4.9984952
 20
1.9054538E+001
 40
3.047772E-001
 50
2.4845281E+002
 51
2.5215739E+002
  0
ARC
  8
MED-1
  6
CONTINUOUS
 62
40
 10
-4.9976155
 20
1.905489E+001
 40
3.0542888E-001
 50
2.4457189E+002
 51
2.4832358E+002
  0
ARC
  8
MED-1
  6
CONTINUOUS
 62
40
 10
-4.997383
 20
1.9055617E+001
 40
3.061851E-001
 50
2.4080823E+002
 51
2.44591E+002
  0
ARC
  8
MED-1
  6
CONTINUOUS
 62
40
 10
-4.9977528
 20
1.905306E+001
 40
3.0377374E-001
 50
2.3678381E+002
 51
2.4063388E+002
  0
ARC
  8
MED-1
  6
CONTINUOUS
 62
40
 10
-4.9978795
 20
1.9053467E+001
 40
3.0404515E-001
 50
2.3297367E+002
 51
2.368458E+002
  0
ARC
  8
MED-1
  6
CONTINUOUS
 62
40
 10
-4.9971452
 20
1.9053276E+001
 40
3.0433578E-001
 50
2.2895445E+002
 51
2.3284168E+002
  0
ARC
  8
MED-1
  6
CONTINUOUS
 62
40
 10
-4.9985282
 20
1.9051876E+001
 40
3.0237185E-001
 50
2.2505287E+002
 51
2.289779E+002
  0
ARC
  8
MED-1
  6
CONTINUOUS
 62
40
 10
-5.0017395
 20
1.9047588E+001
 40
2.9706876E-001
 50
2.2090882E+002
 51
2.2490687E+002
  0
ARC
  8
MED-1
  6
CONTINUOUS
 62
40
 10
-4.998844
 20
1.9051627E+001
 40
3.0190478E-001
 50
2.1721574E+002
 51
2.2112838E+002
  0
ARC
  8
MED-1
  6
CONTINUOUS
 62
40
 10
-4.9871059
 20
1.9060196E+001
 40
3.1643519E-001
 50
2.1346611E+002
 51
2.1716585E+002
  0
ARC
  8
MED-1
  6
CONTINUOUS
 62
40
 10
-5.0030283
 20
1.9047169E+001
 40
2.9597588E-001
 50
2.090856E+002
 51
2.13062E+002
  0
ARC
  8
MED-1
  6
CONTINUOUS
 62
40
 10
-5.0337748
 20
1.9029458E+001
 40
2.604978E-001
 50
2.0440849E+002
 51
2.0896885E+002
  0
ARC
  8
MED-1
  6
CONTINUOUS
 62
40
 10
-4.9937925
 20
1.9056553E+001
 40
3.0821103E-001
 50
2.0230605E+002
 51
2.0592388E+002
  0
ARC
  8
MED-1
  6
CONTINUOUS
 62
40
 10
-4.711885
 20
1.9174874E+001
 40
6.1393744E-001
 50
2.0089688E+002
 51
2.0253636E+002
  0
ARC
  8
MED-1
  6
CONTINUOUS
 62
40
 10
-5.0327975
 20
1.9033479E+001
 40
2.6428833E-001
 50
1.9239051E+002
 51
1.970723E+002
  0
ARC
  8
MED-1
  6
CONTINUOUS
 62
40
 10
-5.060162
 20
1.902839E+001
 40
2.3647093E-001
 50
1.8481037E+002
 51
1.9260881E+002
  0
ARC
  8
MED-1
  6
CONTINUOUS
 62
40
 10
-4.7102045
 20
1.9088862E+001
 40
5.9107578E-001
 50
1.8377179E+002
 51
1.8780825E+002
  0
LINE
  8
MED-1
  6
CONTINUOUS
 62
40
 10
-5.3
 20
2.695001E+001
 11
-5.29948
 21
2.696794E+001
  0
ARC
  8
MED-1
  6
CONTINUOUS
 62
40
 10
-5.0196396
 20
2.6951554E+001
 40
2.8031978E-001
 50
1.7291684E+002
 51
1.7664884E+002
  0
ARC
  8
MED-1
  6
CONTINUOUS
 62
40
 10
-4.9953109
 20
2.6948896E+001
 40
3.0479065E-001
 50
1.6947134E+002
 51
1.7298505E+002
  0
ARC
  8
MED-1
  6
CONTINUOUS
 62
40
 10
-4.9833148
 20
2.6946759E+001
 40
3.1697531E-001
 50
1.6604144E+002
 51
1.6948775E+002
  0
ARC
  8
MED-1
  6
CONTINUOUS
 62
40
 10
-4.993361
 20
2.6948001E+001
 40
3.0692865E-001
 50
1.6218975E+002
 51
1.6581405E+002
  0
ARC
  8
MED-1
  6
CONTINUOUS
 62
40
 10
-4.9955416
 20
2.6948524E+001
 40
3.0469277E-001
 50
1.5845229E+002
 51
1.621579E+002
  0
ARC
  8
MED-1
  6
CONTINUOUS
 62
40
 10
-4.9953421
 20
2.6947796E+001
 40
3.0514626E-001
 50
1.5458622E+002
 51
1.5833891E+002
  0
ARC
  8
MED-1
  6
CONTINUOUS
 62
40
 10
-4.9943048
 20
2.6947262E+001
 40
3.0631231E-001
 50
1.5079557E+002
 51
1.545793E+002
  0
ARC
  8
MED-1
  6
CONTINUOUS
 62
40
 10
-4.9970047
 20
2.6947938E+001
 40
3.0362669E-001
 50
1.4680736E+002
 51
1.5065832E+002
  0
ARC
  8
MED-1
  6
CONTINUOUS
 62
40
 10
-4.9965895
 20
2.6947768E+001
 40
3.0406722E-001
 50
1.4295045E+002
 51
1.4682339E+002
  0
ARC
  8
MED-1
  6
CONTINUOUS
 62
40
 10
-4.9967723
 20
2.6947328E+001
 40
3.0418661E-001
 50
1.3897564E+002
 51
1.4286358E+002
  0
ARC
  8
MED-1
  6
CONTINUOUS
 62
40
 10
-4.9983114
 20
2.6948553E+001
 40
3.0222153E-001
 50
1.3503372E+002
 51
1.3895931E+002
  0
ARC
  8
MED-1
  6
CONTINUOUS
 62
40
 10
-5.0022983
 20
2.6951755E+001
 40
2.9713827E-001
 50
1.3092888E+002
 51
1.349273E+002
  0
ARC
  8
MED-1
  6
CONTINUOUS
 62
40
 10
-4.9983897
 20
2.6948712E+001
 40
3.0199921E-001
 50
1.2719806E+002
 51
1.3111096E+002
  0
ARC
  8
MED-1
  6
CONTINUOUS
 62
40
 10
-4.9898117
 20
2.6937117E+001
 40
3.164215E-001
 50
1.2346603E+002
 51
1.2716593E+002
  0
ARC
  8
MED-1
  6
CONTINUOUS
 62
40
 10
-5.0028376
 20
2.6953174E+001
 40
2.9585019E-001
 50
1.1909999E+002
 51
1.2307642E+002
  0
ARC
  8
MED-1
  6
CONTINUOUS
 62
40
 10
-5.0205428
 20
2.6983641E+001
 40
2.6061959E-001
 50
1.1439616E+002
 51
1.1895635E+002
  0
ARC
  8
MED-1
  6
CONTINUOUS
 62
40
 10
-4.9934373
 20
2.694377E+001
 40
3.0823548E-001
 50
1.1230619E+002
 51
1.1592374E+002
  0
ARC
  8
MED-1
  6
CONTINUOUS
 62
40
 10
-4.875103
 20
2.6661826E+001
 40
6.1400079E-001
 50
1.1089696E+002
 51
1.1253627E+002
  0
ARC
  8
MED-1
  6
CONTINUOUS
 62
40
 10
-5.0165073
 20
2.6982643E+001
 40
2.6443979E-001
 50
1.0238406E+002
 51
1.0706526E+002
  0
ARC
  8
MED-1
  6
CONTINUOUS
 62
40
 10
-5.0215935
 20
2.701012E+001
 40
2.3651374E-001
 50
9.4811077E+001
 51
1.0260811E+002
  0
ARC
  8
MED-1
  6
CONTINUOUS
 62
40
 10
-4.9609722
 20
2.6660078E+001
 40
5.9122232E-001
 50
9.3785931E+001
 51
9.7821489E+001
  0
LINE
  8
104
  6
CONTINUOUS
 62
1
 10
1.4E+001
 20
2.520003E+001
 11
0.0
 21
2.520003E+001
  0
LINE
  8
104
  6
CONTINUOUS
 62
1
 10
1.4E+001
 20
2.079996E+001
 11
0.0
 21
2.079996E+001
  0
ARC
  8
MED-1
  6
CONTINUOUS
 62
40
 10
-1.2E+001
 20
1.958334E+001
 40
6.0833333
 50
2.7E+002
 51
3.1111209E+002
  0
ARC
  8
MED-1
  6
CONTINUOUS
 62
40
 10
-1.2E+001
 20
1.958334E+001
 40
6.0833332
 50
2.2888791E+002
 51
2.7E+002
  0
LINE
  8
106
  6
CENTERLINE
 62
1
 10
1.845441E+001
 20
2.3E+001
 11
-5.8959662E+001
 21
2.3E+001
  0
POINT
  8
Drafting_Hidden_Entities
  6
CONTINUOUS
 62
1
 10
0.0
 20
0.0
  0
ENDBLK
  0
BLOCK
  2
*XH29
  3
*XH
 10
0.0
 20
0.0
 70
65
  0
LINE
  8
108
  6
CONTINUOUS
 62
1
 10
-1.158181
 20
-1.158181
 11
1.158181
 21
1.158181
  0
LINE
  8
108
  6
CONTINUOUS
 62
1
 10
-2.6642136
 20
1.6421356E-001
 11
1.158181
 21
3.9866081
  0
LINE
  8
108
  6
CONTINUOUS
 62
1
 10
-3.841819
 20
1.8150353
 11
-8.1503527E-001
 21
4.841819
  0
LINE
  8
108
  6
CONTINUOUS
 62
1
 10
-3.841819
 20
4.6434624
 11
-3.6434624
 21
4.841819
  0
ENDBLK
  0
BLOCK
  2
*XH30
  3
*XH
 10
0.0
 20
0.0
 70
65
  0
LINE
  8
108
  6
CONTINUOUS
 62
1
 10
-6.7289965E-001
 20
-6.7289965E-001
 11
6.7289965E-001
 21
6.7289965E-001
  0
LINE
  8
108
  6
CONTINUOUS
 62
1
 10
-2.6642136
 20
1.6421356E-001
 11
6.7289965E-001
 21
3.5013268
  0
LINE
  8
108
  6
CONTINUOUS
 62
1
 10
-4.0784271
 20
1.5784271
 11
6.7289965E-001
 21
6.3297539
  0
LINE
  8
108
  6
CONTINUOUS
 62
1
 10
-4.3271003
 20
4.158181
 11
6.7289965E-001
 21
9.158181
  0
LINE
  8
108
  6
CONTINUOUS
 62
1
 10
-4.3271003
 20
6.9866081
 11
-9.8660815E-001
 21
1.03271E+001
  0
ENDBLK
  0
BLOCK
  2
*XH31
  3
*XH
 10
0.0
 20
0.0
 70
65
  0
LINE
  8
108
  6
CONTINUOUS
 62
1
 10
-5.160454E-001
 20
-5.160454E-001
 11
5.160454E-001
 21
5.160454E-001
  0
LINE
  8
108
  6
CONTINUOUS
 62
1
 10
-2.6642136
 20
1.6421356E-001
 11
5.160454E-001
 21
3.3444725
  0
LINE
  8
108
  6
CONTINUOUS
 62
1
 10
-4.0784271
 20
1.5784271
 11
-1.7289965E-001
 21
5.4839546
  0
ENDBLK
  0
BLOCK
  2
*XH32
  3
*XH
 10
0.0
 20
0.0
 70
65
  0
LINE
  8
108
  6
CONTINUOUS
 62
1
 10
-3.0764027E-002
 20
-3.0764027E-002
 11
3.0764027E-002
 21
3.0764027E-002
  0
LINE
  8
108
  6
CONTINUOUS
 62
1
 10
-2.6642136
 20
1.6421356E-001
 11
3.0764027E-002
 21
2.8591912
  0
LINE
  8
108
  6
CONTINUOUS
 62
1
 10
-4.0784271
 20
1.5784271
 11
3.0764027E-002
 21
5.6876183
  0
LINE
  8
108
  6
CONTINUOUS
 62
1
 10
-4.969236
 20
3.5160454
 11
3.0764027E-002
 21
8.5160454
  0
LINE
  8
108
  6
CONTINUOUS
 62
1
 10
-4.969236
 20
6.3444725
 11
-3.4447253E-001
 21
1.0969236E+001
  0
ENDBLK
  0
BLOCK
  2
*XH33
  3
*XH
 10
0.0
 20
0.0
 70
65
  0
LINE
  8
108
  6
CONTINUOUS
 62
1
 10
-1.2881233
 20
-1.2881233
 11
1.2881233
 21
1.2881233
  0
LINE
  8
108
  6
CONTINUOUS
 62
1
 10
-3.7118767
 20
-8.8344954E-001
 11
1.2881233
 21
4.1165505
  0
LINE
  8
108
  6
CONTINUOUS
 62
1
 10
-3.7118767
 20
1.9449776
 11
-9.4497759E-001
 21
4.7118767
  0
ENDBLK
  0
BLOCK
  2
MONTAGEPLATTE
 10
0.0
 20
0.0
 70
0
  0
LINE
  8
104
  6
CONTINUOUS
 62
40
 10
-5.0
 20
-8.5
 11
-5.0
 21
5.15E+001
  0
LINE
  8
104
  6
CONTINUOUS
 62
40
 10
0.0
 20
-8.5
 11
0.0
 21
5.15E+001
  0
LINE
  8
104
  6
CONTINUOUS
 62
40
 10
0.0
 20
-8.5
 11
-5.0
 21
-8.5
  0
LINE
  8
104
  6
CONTINUOUS
 62
40
 10
-5.0
 20
5.15E+001
 11
0.0
 21
5.15E+001
  0
LINE
  8
106
  6
CENTERLINE
 62
1
 10
-5.0
 20
2.7E+001
 11
2.426452
 21
2.7E+001
  0
LINE
  8
106
  6
CENTERLINE
 62
1
 10
-5.0
 20
1.6E+001
 11
2.426452
 21
1.6E+001
  0
LINE
  8
106
  6
CENTERLINE
 62
1
 10
-5.0
 20
4.3E+001
 11
2.426452
 21
4.3E+001
  0
LINE
  8
106
  6
CENTERLINE
 62
1
 10
-5.0
 20
0.0
 11
2.426452
 21
0.0
  0
LINE
  8
104
  6
CONTINUOUS
 62
40
 10
-2.5
 20
2.95E+001
 11
0.0
 21
2.95E+001
  0
LINE
  8
104
  6
CONTINUOUS
 62
40
 10
-2.5
 20
2.45E+001
 11
0.0
 21
2.45E+001
  0
LINE
  8
104
  6
CONTINUOUS
 62
40
 10
-5.0
 20
2.2E+001
 11
-2.5
 21
2.45E+001
  0
LINE
  8
104
  6
CONTINUOUS
 62
40
 10
-5.0
 20
3.2E+001
 11
-2.5
 21
2.95E+001
  0
LINE
  8
104
  6
CONTINUOUS
 62
40
 10
-2.5
 20
2.95E+001
 11
-2.5
 21
2.45E+001
  0
LINE
  8
104
  6
CONTINUOUS
 62
40
 10
-5.0
 20
3.8E+001
 11
-2.5
 21
4.05E+001
  0
LINE
  8
104
  6
CONTINUOUS
 62
40
 10
-2.5
 20
4.05E+001
 11
0.0
 21
4.05E+001
  0
LINE
  8
104
  6
CONTINUOUS
 62
40
 10
-2.5
 20
4.55E+001
 11
-2.5
 21
4.05E+001
  0
LINE
  8
104
  6
CONTINUOUS
 62
40
 10
-5.0
 20
4.8E+001
 11
-2.5
 21
4.55E+001
  0
LINE
  8
104
  6
CONTINUOUS
 62
40
 10
-2.5
 20
4.55E+001
 11
0.0
 21
4.55E+001
  0
LINE
  8
104
  6
CONTINUOUS
 62
40
 10
-5.0
 20
1.1E+001
 11
-2.5
 21
1.35E+001
  0
LINE
  8
104
  6
CONTINUOUS
 62
40
 10
-2.5
 20
1.35E+001
 11
0.0
 21
1.35E+001
  0
LINE
  8
104
  6
CONTINUOUS
 62
40
 10
-2.5
 20
1.85E+001
 11
-2.5
 21
1.35E+001
  0
LINE
  8
104
  6
CONTINUOUS
 62
40
 10
-5.0
 20
2.1E+001
 11
-2.5
 21
1.85E+001
  0
LINE
  8
104
  6
CONTINUOUS
 62
40
 10
-2.5
 20
1.85E+001
 11
0.0
 21
1.85E+001
  0
LINE
  8
104
  6
CONTINUOUS
 62
40
 10
-5.0
 20
-5.0
 11
-2.5
 21
-2.5
  0
LINE
  8
104
  6
CONTINUOUS
 62
40
 10
-2.5
 20
-2.5
 11
0.0
 21
-2.5
  0
LINE
  8
104
  6
CONTINUOUS
 62
40
 10
-2.5
 20
2.5
 11
-2.5
 21
-2.5
  0
LINE
  8
104
  6
CONTINUOUS
 62
40
 10
-5.0
 20
5.0
 11
-2.5
 21
2.5
  0
LINE
  8
104
  6
CONTINUOUS
 62
40
 10
-2.5
 20
2.5
 11
0.0
 21
2.5
  0
INSERT
  2
*XH29
  8
108
 10
-1.158181
 20
4.6658181E+001
  0
INSERT
  2
*XH30
  8
108
 10
-6.7289965E-001
 20
3.01729E+001
  0
INSERT
  2
*XH31
  8
108
 10
-5.160454E-001
 20
1.9016045E+001
  0
INSERT
  2
*XH32
  8
108
 10
-3.0764027E-002
 20
2.530764
  0
INSERT
  2
*XH33
  8
108
 10
-1.2881233
 20
-7.2118767
  0
LINE
  8
106
  6
CENTERLINE
 62
1
 10
-5.0
 20
8.0
 11
2.426452
 21
8.0
  0
LINE
  8
106
  6
CENTERLINE
 62
1
 10
-5.0
 20
3.5E+001
 11
2.426452
 21
3.5E+001
  0
POINT
  8
Drafting_Hidden_Entities
  6
CONTINUOUS
 62
1
 10
0.0
 20
0.0
  0
ENDBLK
  0
BLOCK
  2
M5
 10
0.0
 20
0.0
 70
0
  0
LINE
  8
104
  6
CONTINUOUS
 62
1
 10
0.0
 20
-2.0
 11
1.1E+001
 21
-2.0
  0
LINE
  8
104
  6
CONTINUOUS
 62
40
 10
0.0
 20
-2.5
 11
1.1E+001
 21
-2.5
  0
LINE
  8
104
  6
CONTINUOUS
 62
40
 10
1.1E+001
 20
-2.5
 11
1.1E+001
 21
2.5
  0
LINE
  8
106
  6
CENTERLINE
 62
1
 10
2.426452
 20
0.0
 11
1.3070472E+001
 21
0.0
  0
LINE
  8
104
  6
CONTINUOUS
 62
1
 10
0.0
 20
2.0
 11
1.1E+001
 21
2.0
  0
LINE
  8
104
  6
CONTINUOUS
 62
40
 10
0.0
 20
2.5
 11
1.1E+001
 21
2.5
  0
POINT
  8
Drafting_Hidden_Entities
  6
CONTINUOUS
 62
1
 10
0.0
 20
0.0
  0
ENDBLK
  0
BLOCK
  2
M5NEW00
 10
0.0
 20
0.0
 70
0
  0
LINE
  8
104
  6
CONTINUOUS
 62
1
 10
0.0
 20
-2.0
 11
1.1E+001
 21
-2.0
  0
LINE
  8
104
  6
CONTINUOUS
 62
40
 10
0.0
 20
-2.5
 11
1.1E+001
 21
-2.5
  0
LINE
  8
104
  6
CONTINUOUS
 62
40
 10
1.1E+001
 20
-2.5
 11
1.1E+001
 21
2.5
  0
LINE
  8
106
  6
CENTERLINE
 62
1
 10
2.426452
 20
0.0
 11
1.3070472E+001
 21
0.0
  0
LINE
  8
104
  6
CONTINUOUS
 62
1
 10
0.0
 20
2.0
 11
1.1E+001
 21
2.0
  0
LINE
  8
104
  6
CONTINUOUS
 62
40
 10
0.0
 20
2.5
 11
1.1E+001
 21
2.5
  0
POINT
  8
Drafting_Hidden_Entities
  6
CONTINUOUS
 62
1
 10
0.0
 20
0.0
  0
ENDBLK
  0
BLOCK
  2
1NEW00
 10
0.0
 20
0.0
 70
0
  0
LINE
  8
104
  6
CONTINUOUS
 62
40
 10
-4.41196E+001
 20
-6.5
 11
-1.29725E+001
 21
-6.5
  0
LINE
  8
106
  6
CENTERLINE
 62
1
 10
-2.85E+001
 20
8.462
 11
-2.85E+001
 21
-1.0411E+001
  0
CIRCLE
  8
104
  6
CONTINUOUS
 62
40
 10
-2.85E+001
 20
-3.65E+001
 40
6.0
  0
LINE
  8
104
  6
CONTINUOUS
 62
40
 10
-2.70566E+001
 20
-3.4E+001
 11
-2.99434E+001
 21
-3.4E+001
  0
LINE
  8
104
  6
CONTINUOUS
 62
40
 10
-2.99434E+001
 20
-3.4E+001
 11
-3.13868E+001
 21
-3.65E+001
  0
LINE
  8
104
  6
CONTINUOUS
 62
40
 10
-3.13868E+001
 20
-3.65E+001
 11
-2.99434E+001
 21
-3.9E+001
  0
LINE
  8
104
  6
CONTINUOUS
 62
40
 10
-2.99434E+001
 20
-3.9E+001
 11
-2.70566E+001
 21
-3.9E+001
  0
LINE
  8
104
  6
CONTINUOUS
 62
40
 10
-2.70566E+001
 20
-3.9E+001
 11
-2.56132E+001
 21
-3.65E+001
  0
LINE
  8
104
  6
CONTINUOUS
 62
40
 10
-2.56132E+001
 20
-3.65E+001
 11
-2.70566E+001
 21
-3.4E+001
  0
LINE
  8
104
  6
CONTINUOUS
 62
40
 10
-5.15E+001
 20
-8.268
 11
-5.15E+001
 21
-6.4732E+001
  0
LINE
  8
106
  6
CENTERLINE
 62
1
 10
-4.84007E+001
 20
-1.4E+001
 11
-5.0
 21
-1.4E+001
  0
LINE
  8
106
  6
CENTERLINE
 62
1
 10
-4.8511E+001
 20
-5.9E+001
 11
-2.5
 21
-5.9E+001
  0
LINE
  8
104
  6
CONTINUOUS
 62
40
 10
-2.025E+001
 20
-7.225E+001
 11
-1.25E+001
 21
-6.7217E+001
  0
LINE
  8
104
  6
CONTINUOUS
 62
40
 10
-1.25E+001
 20
-6.7217E+001
 11
-1.25E+001
 21
-6.65E+001
  0
LINE
  8
99
  6
CONTINUOUS
 62
1
 10
-1.25E+001
 20
-6.7217E+001
 11
-4.45E+001
 21
-6.7217E+001
  0
LINE
  8
104
  6
CONTINUOUS
 62
40
 10
-3.675E+001
 20
-7.225E+001
 11
-4.45E+001
 21
-6.7217E+001
  0
LINE
  8
104
  6
CONTINUOUS
 62
40
 10
-4.45E+001
 20
-6.7217E+001
 11
-4.45E+001
 21
-6.65E+001
  0
LINE
  8
104
  6
CONTINUOUS
 62
40
 10
-3.675E+001
 20
-7.225E+001
 11
-2.025E+001
 21
-7.225E+001
  0
LINE
  8
106
  6
CENTERLINE
 62
1
 10
-3.73319E+001
 20
-3.65E+001
 11
-1.99466E+001
 21
-3.65E+001
  0
LINE
  8
104
  6
CONTINUOUS
 62
40
 10
-5.25E+001
 20
-8.8
 11
-5.25E+001
 21
-6.5
  0
LINE
  8
104
  6
CONTINUOUS
 62
40
 10
-5.25E+001
 20
-6.5
 11
-5.0
 21
-6.5
  0
LINE
  8
104
  6
CONTINUOUS
 62
40
 10
-5.0
 20
-6.5
 11
-5.0
 21
-6.65E+001
  0
LINE
  8
104
  6
CONTINUOUS
 62
40
 10
-5.0
 20
-6.65E+001
 11
-5.25E+001
 21
-6.65E+001
  0
LINE
  8
104
  6
CONTINUOUS
 62
40
 10
-5.25E+001
 20
-6.65E+001
 11
-5.25E+001
 21
-6.42E+001
  0
LINE
  8
104
  6
CONTINUOUS
 62
40
 10
-5.25E+001
 20
-6.42E+001
 11
-5.1E+001
 21
-6.4998E+001
  0
LINE
  8
104
  6
CONTINUOUS
 62
40
 10
-5.1E+001
 20
-6.4998E+001
 11
-5.1E+001
 21
-8.002
  0
LINE
  8
104
  6
CONTINUOUS
 62
40
 10
-5.1E+001
 20
-8.002
 11
-5.25E+001
 21
-8.8
  0
LINE
  8
106
  6
CENTERLINE
 62
1
 10
-2.85E+001
 20
-4.4751E+001
 11
-2.85E+001
 21
-2.7936E+001
  0
LINE
  8
MED-1
  6
CONTINUOUS
 62
40
 10
-3.0391984E+001
 20
9.75
 11
-1.7500004E+001
 21
9.75
  0
LINE
  8
MED-1
  6
CONTINUOUS
 62
40
 10
-3.1787894E+001
 20
9.74998
 11
-3.0391984E+001
 21
9.75
  0
LINE
  8
MED-1
  6
CONTINUOUS
 62
40
 10
-6.5393961E+001
 20
9.7499855
 11
-3.1787894E+001
 21
9.74998
  0
LINE
  8
106
  6
CENTERLINE
 62
1
 10
-2.85E+001
 20
-9.2499992
 11
-2.850002E+001
 21
1.7749999E+001
  0
LINE
  8
MED-1
  6
CONTINUOUS
 62
40
 10
-3.1787874E+001
 20
1.575E+001
 11
-3.1787894E+001
 21
9.74998
  0
LINE
  8
105
  6
HIDDEN
 62
1
 10
-3.1787874E+001
 20
1.575E+001
 11
-3.65E+001
 21
1.575E+001
  0
LINE
  8
MED-1
  6
CONTINUOUS
 62
40
 10
-3.9500002E+001
 20
-6.5
 11
-3.9500014E+001
 21
9.74998
  0
LINE
  8
MED-1
  6
CONTINUOUS
 62
40
 10
-1.7500004E+001
 20
9.75
 11
-1.7500004E+001
 21
-6.5
  0
LINE
  8
MED-1
  6
CONTINUOUS
 62
40
 10
-1.7507464E+001
 20
1.575E+001
 11
-1.7500004E+001
 21
9.75
  0
LINE
  8
105
  6
HIDDEN
 62
1
 10
-1.7507464E+001
 20
1.575E+001
 11
-3.1787874E+001
 21
1.575E+001
  0
POLYLINE
  8
106
  6
CENTERLINE
 62
1
 66
1
 40
0.0
 41
0.0
 70
2
  0
VERTEX
  8
106
 42
0.0
 10
-6.5393959E+001
 20
1.575E+001
 70
0
  0
VERTEX
  8
106
 42
9.2324079E-003
 10
-6.5553073E+001
 20
1.5523192E+001
 70
1
  0
VERTEX
  8
106
 42
8.8411803E-003
 10
-6.5699822E+001
 20
1.5297298E+001
 70
0
  0
VERTEX
  8
106
 42
1.0296252E-002
 10
-6.583411E+001
 20
1.5072353E+001
 70
1
  0
VERTEX
  8
106
 42
1.4267972E-002
 10
-6.5953602E+001
 20
1.4848332E+001
 70
0
  0
VERTEX
  8
106
 42
1.8048001E-002
 10
-6.6054166E+001
 20
1.4625293E+001
 70
1
  0
VERTEX
  8
106
 42
2.2083838E-002
 10
-6.6133901E+001
 20
1.4403209E+001
 70
0
  0
VERTEX
  8
106
 42
2.6064686E-002
 10
-6.6189385E+001
 20
1.4182132E+001
 70
1
  0
VERTEX
  8
106
 42
3.0114061E-002
 10
-6.6219321E+001
 20
1.3962032E+001
 70
0
  0
VERTEX
  8
106
 42
3.4583056E-002
 10
-6.6219988E+001
 20
1.3742962E+001
 70
1
  0
VERTEX
  8
106
 42
3.9550655E-002
 10
-6.6188466E+001
 20
1.3524905E+001
 70
0
  0
VERTEX
  8
106
 42
3.6229736E-002
 10
-6.6120503E+001
 20
1.3307921E+001
 70
1
  0
VERTEX
  8
106
 42
2.6791222E-002
 10
-6.602216E+001
 20
1.3091924E+001
 70
0
  0
VERTEX
  8
106
 42
1.3968395E-002
 10
-6.5900737E+001
 20
1.2876909E+001
 70
1
  0
VERTEX
  8
106
 42
-4.2625463E-003
 10
-6.5774472E+001
 20
1.2662824E+001
 70
0
  0
VERTEX
  8
106
 42
-2.2308062E-002
 10
-6.5663488E+001
 20
1.2449629E+001
 70
1
  0
VERTEX
  8
106
 42
-4.8714177E-002
 10
-6.5587632E+001
 20
1.2236907E+001
 70
0
  0
VERTEX
  8
106
 42
-6.8097367E-002
 10
-6.5567203E+001
 20
1.2024495E+001
 70
1
  0
VERTEX
  8
106
 42
-7.2067293E-002
 10
-6.5606341E+001
 20
1.1813466E+001
 70
0
  0
VERTEX
  8
106
 42
-4.4895101E-002
 10
-6.5704672E+001
 20
1.1604247E+001
 70
1
  0
VERTEX
  8
106
 42
-5.698894E-004
 10
-6.5827367E+001
 20
1.1392517E+001
 70
0
  0
VERTEX
  8
106
 42
1.6372564E-002
 10
-6.5939577E+001
 20
1.1176948E+001
 70
1
  0
VERTEX
  8
106
 42
1.8487067E-002
 10
-6.6028071E+001
 20
1.0975149E+001
 70
0
  0
VERTEX
  8
106
 42
8.9583672E-002
 10
-6.6072335E+001
 20
1.0793315E+001
 70
1
  0
VERTEX
  8
106
 42
1.243969E-001
 10
-6.60113E+001
 20
1.0562327E+001
 70
0
  0
VERTEX
  8
106
 42
4.4765343E-002
 10
-6.5780195E+001
 20
1.0209764E+001
 70
1
  0
VERTEX
  8
106
 42
2.1079969E-002
 10
-6.5393961E+001
 20
9.7499855
 70
0
  0
SEQEND
  0
LINE
  8
106
  6
CENTERLINE
 62
1
 10
-3.73319E+001
 20
-3.65E+001
 11
-1.99466E+001
 21
-3.65E+001
  0
INSERT
  2
MONTAGEPLATTE
  8
109
 10
0.0
 20
-5.8E+001
  0
INSERT
  2
M5
  8
109
 10
0.0
 20
-4.2E+001
  0
INSERT
  2
M5NEW00
  8
109
 10
0.0
 20
-5.8E+001
  0
LINE
  8
MED-1
  6
CONTINUOUS
 62
40
 10
-1.95E+001
 20
1.575E+001
 11
-6.5393959E+001
 21
1.575E+001
  0
LINE
  8
104
  6
CONTINUOUS
 62
1
 10
0.0
 20
-6.5
 11
0.0
 21
0.0
  0
LINE
  8
104
  6
CONTINUOUS
 62
1
 10
0.0
 20
0.0
 11
1.7188014E+001
 21
0.0
  0
LINE
  8
MED-1
  6
CONTINUOUS
 62
40
 10
-2.0
 20
3.1E+001
 11
-5.23621
 21
3.1E+001
  0
LINE
  8
MED-1
  6
CONTINUOUS
 62
40
 10
-5.23621
 20
3.1E+001
 11
-6.44927
 21
3.1E+001
  0
LINE
  8
MED-1
  6
CONTINUOUS
 62
40
 10
-6.44927
 20
3.1E+001
 11
-1.806535E+001
 21
3.1E+001
  0
LINE
  8
MED-1
  6
CONTINUOUS
 62
40
 10
-1.806535E+001
 20
3.1E+001
 11
-1.95E+001
 21
3.1E+001
  0
LINE
  8
MED-1
  6
CONTINUOUS
 62
40
 10
-1.95E+001
 20
1.5E+001
 11
-1.806535E+001
 21
1.5E+001
  0
LINE
  8
MED-1
  6
CONTINUOUS
 62
40
 10
-1.806535E+001
 20
1.5E+001
 11
-6.44927
 21
1.5E+001
  0
LINE
  8
MED-1
  6
CONTINUOUS
 62
40
 10
-6.44927
 20
1.5E+001
 11
-5.23621
 21
1.5E+001
  0
LINE
  8
MED-1
  6
CONTINUOUS
 62
40
 10
-2.0
 20
1.5E+001
 11
-5.23621
 21
1.5E+001
  0
LINE
  8
MED-1
  6
CONTINUOUS
 62
40
 10
-5.23621
 20
1.7E+001
 11
-2.0
 21
1.7E+001
  0
LINE
  8
MED-1
  6
CONTINUOUS
 62
40
 10
-5.23621
 20
1.7E+001
 11
-6.44927
 21
1.7E+001
  0
LINE
  8
MED-1
  6
CONTINUOUS
 62
40
 10
-6.44927
 20
1.7E+001
 11
-1.806535E+001
 21
1.7E+001
  0
LINE
  8
MED-1
  6
CONTINUOUS
 62
40
 10
-1.806535E+001
 20
1.7E+001
 11
-1.95E+001
 21
1.7E+001
  0
LINE
  8
MED-1
  6
CONTINUOUS
 62
40
 10
-1.95E+001
 20
2.9E+001
 11
-1.806535E+001
 21
2.9E+001
  0
LINE
  8
MED-1
  6
CONTINUOUS
 62
40
 10
-1.806535E+001
 20
2.9E+001
 11
-6.44927
 21
2.9E+001
  0
LINE
  8
MED-1
  6
CONTINUOUS
 62
40
 10
-6.44927
 20
2.9E+001
 11
-5.23621
 21
2.9E+001
  0
LINE
  8
MED-1
  6
CONTINUOUS
 62
40
 10
-2.0
 20
2.9E+001
 11
-5.23621
 21
2.9E+001
  0
ARC
  8
MED-1
  6
CONTINUOUS
 62
40
 10
-2.0
 20
2.9E+001
 40
2.0000001
 50
0.0
 51
9.0E+001
  0
ARC
  8
MED-1
  6
CONTINUOUS
 62
40
 10
-2.0
 20
1.7E+001
 40
1.9999999
 50
2.7E+002
 51
3.6E+002
  0
LINE
  8
MED-1
  6
CONTINUOUS
 62
40
 10
-2.0
 20
1.7E+001
 11
-2.0
 21
2.9E+001
  0
LINE
  8
MED-1
  6
CONTINUOUS
 62
40
 10
0.0
 20
2.9E+001
 11
0.0
 21
1.7E+001
  0
LINE
  8
MED-1
  6
CONTINUOUS
 62
40
 10
-1.95E+001
 20
2.9E+001
 11
-1.95E+001
 21
3.1E+001
  0
LINE
  8
MED-1
  6
CONTINUOUS
 62
40
 10
-1.95E+001
 20
1.5E+001
 11
-1.95E+001
 21
1.7E+001
  0
CIRCLE
  8
MED-1
  6
CONTINUOUS
 62
40
 10
-2.9E+001
 20
2.3E+001
 40
3.5
  0
ARC
  8
MED-1
  6
CONTINUOUS
 62
40
 10
-1.2E+001
 20
2.641667E+001
 40
6.0833332
 50
4.888791E+001
 51
9.0E+001
  0
ARC
  8
MED-1
  6
CONTINUOUS
 62
40
 10
-1.2E+001
 20
2.641667E+001
 40
6.0833333
 50
9.0E+001
 51
1.3111209E+002
  0
LINE
  8
MED-1
  6
CONTINUOUS
 62
40
 10
-7.0
 20
1.725E+001
 11
-1.7E+001
 21
1.725E+001
  0
LINE
  8
MED-1
  6
CONTINUOUS
 62
40
 10
-1.7E+001
 20
2.875E+001
 11
-7.0
 21
2.875E+001
  0
LINE
  8
MED-1
  6
CONTINUOUS
 62
40
 10
-7.0
 20
2.875E+001
 11
-6.99999
 21
2.850001E+001
  0
LINE
  8
MED-1
  6
CONTINUOUS
 62
40
 10
-6.99999
 20
1.749998E+001
 11
-7.0
 21
1.725E+001
  0
LINE
  8
MED-1
  6
CONTINUOUS
 62
40
 10
-1.7E+001
 20
1.725E+001
 11
-1.699999E+001
 21
1.749998E+001
  0
LINE
  8
MED-1
  6
CONTINUOUS
 62
40
 10
-1.699999E+001
 20
2.850001E+001
 11
-1.7E+001
 21
2.875E+001
  0
ARC
  8
MED-1
  6
CONTINUOUS
 62
40
 10
-2.9E+001
 20
2.3E+001
 40
5.5
 50
9.0E+001
 51
1.8E+002
  0
ARC
  8
MED-1
  6
CONTINUOUS
 62
40
 10
-2.9E+001
 20
2.3E+001
 40
5.5
 50
1.8E+002
 51
2.7E+002
  0
LINE
  8
MED-1
  6
CONTINUOUS
 62
40
 10
-1.720481E+001
 20
2.85E+001
 11
-4.5
 21
2.85E+001
  0
LINE
  8
MED-1
  6
CONTINUOUS
 62
40
 10
-1.720481E+001
 20
2.85E+001
 11
-1.893975E+001
 21
2.85E+001
  0
LINE
  8
MED-1
  6
CONTINUOUS
 62
40
 10
-1.893975E+001
 20
2.85E+001
 11
-2.9E+001
 21
2.85E+001
  0
LINE
  8
MED-1
  6
CONTINUOUS
 62
40
 10
-2.9E+001
 20
1.75E+001
 11
-1.893975E+001
 21
1.75E+001
  0
LINE
  8
MED-1
  6
CONTINUOUS
 62
40
 10
-1.893975E+001
 20
1.75E+001
 11
-1.720481E+001
 21
1.75E+001
  0
LINE
  8
MED-1
  6
CONTINUOUS
 62
40
 10
-4.5
 20
1.75E+001
 11
-1.720481E+001
 21
1.75E+001
  0
LINE
  8
MED-1
  6
CONTINUOUS
 62
40
 10
-1.720481E+001
 20
1.75E+001
 11
-1.720481E+001
 21
2.85E+001
  0
LINE
  8
MED-1
  6
CONTINUOUS
 62
40
 10
-4.5
 20
2.85E+001
 11
-4.49999
 21
2.725001E+001
  0
LINE
  8
MED-1
  6
CONTINUOUS
 62
40
 10
-4.5
 20
1.875E+001
 11
-4.5
 21
1.75E+001
  0
LINE
  8
MED-1
  6
CONTINUOUS
 62
40
 10
-3.95E+001
 20
2.022236E+001
 11
-3.949975E+001
 21
1.946704E+001
  0
LINE
  8
MED-1
  6
CONTINUOUS
 62
40
 10
-3.95E+001
 20
2.022236E+001
 11
-3.95E+001
 21
2.023821E+001
  0
LINE
  8
MED-1
  6
CONTINUOUS
 62
40
 10
-3.95E+001
 20
2.57618E+001
 11
-3.95E+001
 21
2.023821E+001
  0
LINE
  8
MED-1
  6
CONTINUOUS
 62
40
 10
-3.95E+001
 20
2.650026E+001
 11
-3.95E+001
 21
2.582649E+001
  0
LINE
  8
MED-1
  6
CONTINUOUS
 62
40
 10
-3.95E+001
 20
2.57618E+001
 11
-3.95E+001
 21
2.582649E+001
  0
LINE
  8
MED-1
  6
CONTINUOUS
 62
40
 10
-3.95E+001
 20
2.66753E+001
 11
-3.95E+001
 21
2.650026E+001
  0
LINE
  8
MED-1
  6
CONTINUOUS
 62
40
 10
-3.630001E+001
 20
1.824997E+001
 11
-3.630001E+001
 21
1.898822E+001
  0
LINE
  8
MED-1
  6
CONTINUOUS
 62
40
 10
-3.177264E+001
 20
1.825E+001
 11
-3.205563E+001
 21
1.825E+001
  0
LINE
  8
MED-1
  6
CONTINUOUS
 62
40
 10
-3.205563E+001
 20
1.825E+001
 11
-3.233856E+001
 21
1.825E+001
  0
LINE
  8
MED-1
  6
CONTINUOUS
 62
40
 10
-3.233856E+001
 20
1.825E+001
 11
-3.262138E+001
 21
1.825E+001
  0
LINE
  8
MED-1
  6
CONTINUOUS
 62
40
 10
-3.262138E+001
 20
1.825E+001
 11
-3.290448E+001
 21
1.825E+001
  0
LINE
  8
MED-1
  6
CONTINUOUS
 62
40
 10
-3.290448E+001
 20
1.825E+001
 11
-3.318801E+001
 21
1.825E+001
  0
LINE
  8
MED-1
  6
CONTINUOUS
 62
40
 10
-3.318801E+001
 20
1.825E+001
 11
-3.34704E+001
 21
1.825E+001
  0
LINE
  8
MED-1
  6
CONTINUOUS
 62
40
 10
-3.34704E+001
 20
1.825E+001
 11
-3.37511E+001
 21
1.825E+001
  0
LINE
  8
MED-1
  6
CONTINUOUS
 62
40
 10
-3.37511E+001
 20
1.825E+001
 11
-3.403632E+001
 21
1.825E+001
  0
LINE
  8
MED-1
  6
CONTINUOUS
 62
40
 10
-3.403632E+001
 20
1.825E+001
 11
-3.432821E+001
 21
1.825E+001
  0
LINE
  8
MED-1
  6
CONTINUOUS
 62
40
 10
-3.432821E+001
 20
1.825E+001
 11
-3.460224E+001
 21
1.824999E+001
  0
LINE
  8
MED-1
  6
CONTINUOUS
 62
40
 10
-3.460224E+001
 20
1.824999E+001
 11
-3.484999E+001
 21
1.824999E+001
  0
LINE
  8
MED-1
  6
CONTINUOUS
 62
40
 10
-3.484999E+001
 20
1.824999E+001
 11
-3.516817E+001
 21
1.824999E+001
  0
LINE
  8
MED-1
  6
CONTINUOUS
 62
40
 10
-3.516817E+001
 20
1.824999E+001
 11
-3.565823E+001
 21
1.824998E+001
  0
LINE
  8
MED-1
  6
CONTINUOUS
 62
40
 10
-3.565823E+001
 20
1.824998E+001
 11
-3.630001E+001
 21
1.824997E+001
  0
LINE
  8
MED-1
  6
CONTINUOUS
 62
40
 10
-3.276239E+001
 20
1.898821E+001
 11
-3.630001E+001
 21
1.898822E+001
  0
LINE
  8
MED-1
  6
CONTINUOUS
 62
40
 10
-3.937653E+001
 20
1.938092E+001
 11
-3.93726E+001
 21
1.938556E+001
  0
ARC
  8
MED-1
  6
CONTINUOUS
 62
40
 10
-2.8385165E+001
 20
1.0051235E+001
 40
1.441712E+001
 50
1.3958391E+002
 51
1.3965059E+002
  0
LINE
  8
MED-1
  6
CONTINUOUS
 62
40
 10
-3.936173E+001
 20
1.939834E+001
 11
-3.934383E+001
 21
1.94194E+001
  0
LINE
  8
MED-1
  6
CONTINUOUS
 62
40
 10
-3.934383E+001
 20
1.94194E+001
 11
-3.931791E+001
 21
1.94499E+001
  0
LINE
  8
MED-1
  6
CONTINUOUS
 62
40
 10
-3.931791E+001
 20
1.94499E+001
 11
-3.92834E+001
 21
1.949049E+001
  0
LINE
  8
MED-1
  6
CONTINUOUS
 62
40
 10
-3.92834E+001
 20
1.949049E+001
 11
-3.924672E+001
 21
1.953364E+001
  0
LINE
  8
MED-1
  6
CONTINUOUS
 62
40
 10
-3.924672E+001
 20
1.953364E+001
 11
-3.920995E+001
 21
1.95769E+001
  0
LINE
  8
MED-1
  6
CONTINUOUS
 62
40
 10
-3.920995E+001
 20
1.95769E+001
 11
-3.915079E+001
 21
1.96465E+001
  0
LINE
  8
MED-1
  6
CONTINUOUS
 62
40
 10
-3.915079E+001
 20
1.96465E+001
 11
-3.904528E+001
 21
1.977062E+001
  0
LINE
  8
MED-1
  6
CONTINUOUS
 62
40
 10
-3.904528E+001
 20
1.977062E+001
 11
-3.889837E+001
 21
1.994343E+001
  0
LINE
  8
MED-1
  6
CONTINUOUS
 62
40
 10
-3.630001E+001
 20
1.824997E+001
 11
-3.647295E+001
 21
1.825306E+001
  0
ARC
  8
MED-1
  6
CONTINUOUS
 62
40
 10
-3.6297491E+001
 20
2.3292887E+001
 40
5.0428806
 50
2.6606087E+002
 51
2.6800608E+002
  0
ARC
  8
MED-1
  6
CONTINUOUS
 62
40
 10
-3.6301575E+001
 20
2.3120683E+001
 40
4.8708089
 50
2.6397496E+002
 51
2.6596964E+002
  0
ARC
  8
MED-1
  6
CONTINUOUS
 62
40
 10
-3.6313787E+001
 20
2.3013242E+001
 40
4.7626796
 50
2.6196142E+002
 51
2.639854E+002
  0
ARC
  8
MED-1
  6
CONTINUOUS
 62
40
 10
-3.6314903E+001
 20
2.2975249E+001
 40
4.7249057
 50
2.5988441E+002
 51
2.6191039E+002
  0
ARC
  8
MED-1
  6
CONTINUOUS
 62
40
 10
-3.6322487E+001
 20
2.2951077E+001
 40
4.6997785
 50
2.5789897E+002
 51
2.5992367E+002
  0
ARC
  8
MED-1
  6
CONTINUOUS
 62
40
 10
-3.6317237E+001
 20
2.2954942E+001
 40
4.7046604
 50
2.5583385E+002
 51
2.5784633E+002
  0
ARC
  8
MED-1
  6
CONTINUOUS
 62
40
 10
-3.6329182E+001
 20
2.2911913E+001
 40
4.6600159
 50
2.5381979E+002
 51
2.5584678E+002
  0
ARC
  8
MED-1
  6
CONTINUOUS
 62
40
 10
-3.6344775E+001
 20
2.2843603E+001
 40
4.5900692
 50
2.5171292E+002
 51
2.5376911E+002
  0
ARC
  8
MED-1
  6
CONTINUOUS
 62
40
 10
-3.6311492E+001
 20
2.2983475E+001
 40
4.7333367
 50
2.4987768E+002
 51
2.5186164E+002
  0
ARC
  8
MED-1
  6
CONTINUOUS
 62
40
 10
-3.6181201E+001
 20
2.33347E+001
 40
5.1079465
 50
2.480334E+002
 51
2.4986077E+002
  0
ARC
  8
MED-1
  6
CONTINUOUS
 62
40
 10
-3.6315887E+001
 20
2.2934926E+001
 40
4.6868783
 50
2.4570623E+002
 51
2.4773225E+002
  0
ARC
  8
MED-1
  6
CONTINUOUS
 62
40
 10
-3.6606349E+001
 20
2.2273988E+001
 40
3.9649732
 50
2.4314489E+002
 51
2.456025E+002
  0
ARC
  8
MED-1
  6
CONTINUOUS
 62
40
 10
-3.624115E+001
 20
2.3179089E+001
 40
4.9381325
 50
2.4225205E+002
 51
2.4410858E+002
  0
ARC
  8
MED-1
  6
CONTINUOUS
 62
40
 10
-3.2065266E+001
 20
3.1177506E+001
 40
1.3961015E+001
 50
2.4177296E+002
 51
2.4236799E+002
  0
ARC
  8
MED-1
  6
CONTINUOUS
 62
40
 10
-3.660438E+001
 20
2.2346754E+001
 40
4.0374599
 50
2.3658323E+002
 51
2.392557E+002
  0
ARC
  8
MED-1
  6
CONTINUOUS
 62
40
 10
-3.6823677E+001
 20
2.2038926E+001
 40
3.6597724
 50
2.3219282E+002
 51
2.3679483E+002
  0
ARC
  8
MED-1
  6
CONTINUOUS
 62
40
 10
-3.3133903E+001
 20
2.7330744E+001
 40
1.0107922E+001
 50
2.3185911E+002
 51
2.3405639E+002
  0
LINE
  8
MED-1
  6
CONTINUOUS
 62
40
 10
-3.630001E+001
 20
1.898822E+001
 11
-3.644607E+001
 21
1.899082E+001
  0
ARC
  8
MED-1
  6
CONTINUOUS
 62
40
 10
-3.6298338E+001
 20
2.3245989E+001
 40
4.2577323
 50
2.6606572E+002
 51
2.6801159E+002
  0
ARC
  8
MED-1
  6
CONTINUOUS
 62
40
 10
-3.6301475E+001
 20
2.3100503E+001
 40
4.1123802
 50
2.6397486E+002
 51
2.6597025E+002
  0
ARC
  8
MED-1
  6
CONTINUOUS
 62
40
 10
-3.631214E+001
 20
2.3009815E+001
 40
4.0210735
 50
2.6196568E+002
 51
2.6399035E+002
  0
ARC
  8
MED-1
  6
CONTINUOUS
 62
40
 10
-3.6312831E+001
 20
2.2977899E+001
 40
3.9893757
 50
2.598849E+002
 51
2.6191145E+002
  0
ARC
  8
MED-1
  6
CONTINUOUS
 62
40
 10
-3.6319063E+001
 20
2.2957974E+001
 40
3.9686668
 50
2.5789778E+002
 51
2.5992295E+002
  0
ARC
  8
MED-1
  6
CONTINUOUS
 62
40
 10
-3.6314832E+001
 20
2.2961074E+001
 40
3.9725872
 50
2.5583462E+002
 51
2.5784749E+002
  0
ARC
  8
MED-1
  6
CONTINUOUS
 62
40
 10
-3.6324723E+001
 20
2.2924947E+001
 40
3.9351377
 50
2.5381821E+002
 51
2.5584552E+002
  0
ARC
  8
MED-1
  6
CONTINUOUS
 62
40
 10
-3.6338085E+001
 20
2.2867673E+001
 40
3.8764107
 50
2.5171554E+002
 51
2.5377197E+002
  0
ARC
  8
MED-1
  6
CONTINUOUS
 62
40
 10
-3.6309584E+001
 20
2.2985627E+001
 40
3.9973634
 50
2.49874E+002
 51
2.5185808E+002
  0
ARC
  8
MED-1
  6
CONTINUOUS
 62
40
 10
-3.6199823E+001
 20
2.3282935E+001
 40
4.3142848
 50
2.4803655E+002
 51
2.4986391E+002
  0
ARC
  8
MED-1
  6
CONTINUOUS
 62
40
 10
-3.6313506E+001
 20
2.294483E+001
 40
3.958255
 50
2.4570611E+002
 51
2.4773223E+002
  0
ARC
  8
MED-1
  6
CONTINUOUS
 62
40
 10
-3.6558987E+001
 20
2.2386264E+001
 40
3.3481617
 50
2.4314436E+002
 51
2.456024E+002
  0
ARC
  8
MED-1
  6
CONTINUOUS
 62
40
 10
-3.6250662E+001
 20
2.3150308E+001
 40
4.1696748
 50
2.4225052E+002
 51
2.4410739E+002
  0
ARC
  8
MED-1
  6
CONTINUOUS
 62
40
 10
-3.2721591E+001
 20
2.9910087E+001
 40
1.1795207E+001
 50
2.4177318E+002
 51
2.4236806E+002
  0
ARC
  8
MED-1
  6
CONTINUOUS
 62
40
 10
-3.6557684E+001
 20
2.244713E+001
 40
3.4086908
 50
2.3658113E+002
 51
2.3925458E+002
  0
ARC
  8
MED-1
  6
CONTINUOUS
 62
40
 10
-3.6742858E+001
 20
2.2186921E+001
 40
3.0895375
 50
2.3218539E+002
 51
2.367897E+002
  0
ARC
  8
MED-1
  6
CONTINUOUS
 62
40
 10
-3.3627746E+001
 20
2.6653901E+001
 40
8.532872
 50
2.3185275E+002
 51
2.3405113E+002
  0
LINE
  8
MED-1
  6
CONTINUOUS
 62
40
 10
-3.937653E+001
 20
1.938092E+001
 11
-3.938783E+001
 21
1.939044E+001
  0
ARC
  8
MED-1
  6
CONTINUOUS
 62
40
 10
-4.0371214E+001
 20
1.8211041E+001
 40
1.5355867
 50
5.0178631E+001
 51
5.0696498E+001
  0
ARC
  8
MED-1
  6
CONTINUOUS
 62
40
 10
-4.0188881E+001
 20
1.8429918E+001
 40
1.2507263
 50
5.0808572E+001
 51
5.140246E+001
  0
ARC
  8
MED-1
  6
CONTINUOUS
 62
40
 10
-4.0052596E+001
 20
1.8598946E+001
 40
1.0336027
 50
5.1461535E+001
 51
5.2133791E+001
  0
ARC
  8
MED-1
  6
CONTINUOUS
 62
40
 10
-3.9963443E+001
 20
1.8712737E+001
 40
8.8904782E-001
 50
5.2168206E+001
 51
5.2898169E+001
  0
ARC
  8
MED-1
  6
CONTINUOUS
 62
40
 10
-3.9895248E+001
 20
1.8801573E+001
 40
7.7705764E-001
 50
5.2957234E+001
 51
5.3736617E+001
  0
ARC
  8
MED-1
  6
CONTINUOUS
 62
40
 10
-3.9849207E+001
 20
1.8862258E+001
 40
7.008952E-001
 50
5.3837084E+001
 51
5.4639992E+001
  0
ARC
  8
MED-1
  6
CONTINUOUS
 62
40
 10
-3.9769768E+001
 20
1.8972148E+001
 40
5.6530546E-001
 50
5.4760529E+001
 51
5.5700719E+001
  0
ARC
  8
MED-1
  6
CONTINUOUS
 62
40
 10
-3.9693815E+001
 20
1.9081203E+001
 40
4.3241601E-001
 50
5.5871809E+001
 51
5.7037154E+001
  0
ARC
  8
MED-1
  6
CONTINUOUS
 62
40
 10
-3.9700372E+001
 20
1.9075801E+001
 40
4.405232E-001
 50
5.6703906E+001
 51
5.7729603E+001
  0
ARC
  8
MED-1
  6
CONTINUOUS
 62
40
 10
-3.9863959E+001
 20
1.8817963E+001
 40
7.4587689E-001
 50
5.7679239E+001
 51
5.8203133E+001
  0
ARC
  8
MED-1
  6
CONTINUOUS
 62
40
 10
-3.9628724E+001
 20
1.9184377E+001
 40
3.1058211E-001
 50
5.9469723E+001
 51
6.0913372E+001
  0
ARC
  8
MED-1
  6
CONTINUOUS
 62
40
 10
-3.959502E+001
 20
1.924387E+001
 40
2.4220825E-001
 50
6.1039162E+001
 51
6.3638087E+001
  0
ARC
  8
MED-1
  6
CONTINUOUS
 62
40
 10
-3.9728574E+001
 20
1.8994802E+001
 40
5.2475653E-001
 50
6.2647841E+001
 51
6.4147429E+001
  0
LINE
  8
MED-1
  6
CONTINUOUS
 62
40
 10
-3.889837E+001
 20
1.994343E+001
 11
-3.892528E+001
 21
1.996566E+001
  0
ARC
  8
MED-1
  6
CONTINUOUS
 62
40
 10
-3.9750718E+001
 20
1.8939806E+001
 40
1.3167097
 50
5.1178618E+001
 51
5.2685371E+001
  0
ARC
  8
MED-1
  6
CONTINUOUS
 62
40
 10
-3.9727716E+001
 20
1.89674E+001
 40
1.2808214
 50
5.2755471E+001
 51
5.4292063E+001
  0
ARC
  8
MED-1
  6
CONTINUOUS
 62
40
 10
-3.971418E+001
 20
1.8987058E+001
 40
1.2569586
 50
5.4270085E+001
 51
5.5825653E+001
  0
ARC
  8
MED-1
  6
CONTINUOUS
 62
40
 10
-3.9707109E+001
 20
1.8995486E+001
 40
1.2460141
 50
5.5876972E+001
 51
5.7436414E+001
  0
ARC
  8
MED-1
  6
CONTINUOUS
 62
40
 10
-3.970309E+001
 20
1.9002815E+001
 40
1.2376739
 50
5.7410602E+001
 51
5.897135E+001
  0
ARC
  8
MED-1
  6
CONTINUOUS
 62
40
 10
-3.9701541E+001
 20
1.9003706E+001
 40
1.236113
 50
5.9011565E+001
 51
6.0566537E+001
  0
ARC
  8
MED-1
  6
CONTINUOUS
 62
40
 10
-3.9693561E+001
 20
1.9017575E+001
 40
1.2201121
 50
6.0572852E+001
 51
6.214333E+001
  0
ARC
  8
MED-1
  6
CONTINUOUS
 62
40
 10
-3.9681578E+001
 20
1.9038497E+001
 40
1.1960163
 50
6.2182556E+001
 51
6.3781316E+001
  0
ARC
  8
MED-1
  6
CONTINUOUS
 62
40
 10
-3.9695982E+001
 20
1.901456E+001
 40
1.2238562
 50
6.3671434E+001
 51
6.5223549E+001
  0
ARC
  8
MED-1
  6
CONTINUOUS
 62
40
 10
-3.9729645E+001
 20
1.8940485E+001
 40
1.30522
 50
6.5244604E+001
 51
6.6688969E+001
  0
ARC
  8
MED-1
  6
CONTINUOUS
 62
40
 10
-3.9686622E+001
 20
1.902948E+001
 40
1.2064724
 50
6.6892865E+001
 51
6.8477617E+001
  0
ARC
  8
MED-1
  6
CONTINUOUS
 62
40
 10
-3.9625285E+001
 20
1.9182182E+001
 40
1.0419151
 50
6.8534757E+001
 51
7.0412085E+001
  0
ARC
  8
MED-1
  6
CONTINUOUS
 62
40
 10
-3.9726645E+001
 20
1.8947074E+001
 40
1.297506
 50
6.9675794E+001
 51
7.1091114E+001
  0
ARC
  8
MED-1
  6
CONTINUOUS
 62
40
 10
-4.047828E+001
 20
1.6767453E+001
 40
3.6030852
 50
7.1015803E+001
 51
7.1476784E+001
  0
ARC
  8
MED-1
  6
CONTINUOUS
 62
40
 10
-3.9637501E+001
 20
1.916672E+001
 40
1.0615833
 50
7.3366259E+001
 51
7.5380008E+001
  0
ARC
  8
MED-1
  6
CONTINUOUS
 62
40
 10
-3.9609144E+001
 20
1.928343E+001
 40
9.4149625E-001
 50
7.5257102E+001
 51
7.8770034E+001
  0
ARC
  8
MED-1
  6
CONTINUOUS
 62
40
 10
-3.9982033E+001
 20
1.7725251E+001
 40
2.5432237
 50
7.7366389E+001
 51
7.9073593E+001
  0
LINE
  8
MED-1
  6
CONTINUOUS
 62
40
 10
-3.949997E+001
 20
1.949997E+001
 11
-5.8325081E+001
 21
1.949997E+001
  0
LINE
  8
MED-1
  6
CONTINUOUS
 62
40
 10
-5.9171194E+001
 20
2.6499957E+001
 11
-3.95E+001
 21
2.650026E+001
  0
LINE
  8
MED-1
  6
CONTINUOUS
 62
40
 10
-3.949997E+001
 20
2.582647E+001
 11
-3.948022E+001
 21
2.583333E+001
  0
ARC
  8
MED-1
  6
CONTINUOUS
 62
40
 10
-3.9903388E+001
 20
2.7019663E+001
 40
1.2595459
 50
2.8963145E+002
 51
2.9058286E+002
  0
ARC
  8
MED-1
  6
CONTINUOUS
 62
40
 10
-3.9909348E+001
 20
2.7033549E+001
 40
1.2746414
 50
2.9061423E+002
 51
2.9155512E+002
  0
ARC
  8
MED-1
  6
CONTINUOUS
 62
40
 10
-3.9905194E+001
 20
2.7024235E+001
 40
1.2644526
 50
2.9153509E+002
 51
2.9248424E+002
  0
ARC
  8
MED-1
  6
CONTINUOUS
 62
40
 10
-3.9891854E+001
 20
2.698946E+001
 40
1.22722
 50
2.9252969E+002
 51
2.9350872E+002
  0
ARC
  8
MED-1
  6
CONTINUOUS
 62
40
 10
-3.9887867E+001
 20
2.6980377E+001
 40
1.2173006
 50
2.9350717E+002
 51
2.9449539E+002
  0
ARC
  8
MED-1
  6
CONTINUOUS
 62
40
 10
-3.9892536E+001
 20
2.698969E+001
 40
1.2277111
 50
2.9451348E+002
 51
2.9549395E+002
  0
ARC
  8
MED-1
  6
CONTINUOUS
 62
40
 10
-3.9889207E+001
 20
2.6981887E+001
 40
1.2192352
 50
2.9551056E+002
 51
2.965009E+002
  0
ARC
  8
MED-1
  6
CONTINUOUS
 62
40
 10
-3.9877647E+001
 20
2.6957932E+001
 40
1.1926387
 50
2.9651741E+002
 51
2.9753347E+002
  0
ARC
  8
MED-1
  6
CONTINUOUS
 62
40
 10
-3.9890838E+001
 20
2.6986329E+001
 40
1.223919
 50
2.9746652E+002
 51
2.9845499E+002
  0
ARC
  8
MED-1
  6
CONTINUOUS
 62
40
 10
-3.9930594E+001
 20
2.7058514E+001
 40
1.3063256
 50
2.984795E+002
 51
2.9940221E+002
  0
ARC
  8
MED-1
  6
CONTINUOUS
 62
40
 10
-3.9881987E+001
 20
2.6966142E+001
 40
1.2019925
 50
2.9954533E+002
 51
3.005675E+002
  0
ARC
  8
MED-1
  6
CONTINUOUS
 62
40
 10
-3.9795855E+001
 20
2.6818792E+001
 40
1.0313174
 50
3.0061046E+002
 51
3.0183443E+002
  0
ARC
  8
MED-1
  6
CONTINUOUS
 62
40
 10
-3.9921851E+001
 20
2.704171E+001
 40
1.2872044
 50
3.0136535E+002
 51
3.0228792E+002
  0
ARC
  8
MED-1
  6
CONTINUOUS
 62
40
 10
-4.1115315E+001
 20
2.8937703E+001
 40
3.5275486
 50
3.0222512E+002
 51
3.0252995E+002
  0
ARC
  8
MED-1
  6
CONTINUOUS
 62
40
 10
-3.9808446E+001
 20
2.6847172E+001
 40
1.0624782
 50
3.037341E+002
 51
3.0504502E+002
  0
ARC
  8
MED-1
  6
CONTINUOUS
 62
40
 10
-3.9749358E+001
 20
2.6765436E+001
 40
9.6163213E-001
 50
3.0495919E+002
 51
3.0720721E+002
  0
ARC
  8
MED-1
  6
CONTINUOUS
 62
40
 10
-4.0720019E+001
 20
2.8112353E+001
 40
2.6216747
 50
3.0630252E+002
 51
3.0738644E+002
  0
LINE
  8
MED-1
  6
CONTINUOUS
 62
40
 10
-3.912817E+001
 20
2.602928E+001
 11
-3.901113E+001
 21
2.611919E+001
  0
ARC
  8
MED-1
  6
CONTINUOUS
 62
40
 10
-3.6314213E+001
 20
2.2489696E+001
 40
4.52179
 50
1.2476158E+002
 51
1.2661441E+002
  0
ARC
  8
MED-1
  6
CONTINUOUS
 62
40
 10
-3.6399416E+001
 20
2.260085E+001
 40
4.3818995
 50
1.2277968E+002
 51
1.2467501E+002
  0
ARC
  8
MED-1
  6
CONTINUOUS
 62
40
 10
-3.6447488E+001
 20
2.2677637E+001
 40
4.2913134
 50
1.2087379E+002
 51
1.2279511E+002
  0
ARC
  8
MED-1
  6
CONTINUOUS
 62
40
 10
-3.646888E+001
 20
2.270557E+001
 40
4.2563626
 50
1.1889484E+002
 51
1.2081958E+002
  0
ARC
  8
MED-1
  6
CONTINUOUS
 62
40
 10
-3.6477238E+001
 20
2.2726249E+001
 40
4.2342209
 50
1.1700678E+002
 51
1.1893104E+002
  0
ARC
  8
MED-1
  6
CONTINUOUS
 62
40
 10
-3.6478651E+001
 20
2.2721207E+001
 40
4.2380728
 50
1.1504523E+002
 51
1.169588E+002
  0
ARC
  8
MED-1
  6
CONTINUOUS
 62
40
 10
-3.6496069E+001
 20
2.2759083E+001
 40
4.196385
 50
1.131201E+002
 51
1.1504871E+002
  0
ARC
  8
MED-1
  6
CONTINUOUS
 62
40
 10
-3.6524944E+001
 20
2.2819345E+001
 40
4.1296255
 50
1.1112132E+002
 51
1.1307995E+002
  0
ARC
  8
MED-1
  6
CONTINUOUS
 62
40
 10
-3.647077E+001
 20
2.2706469E+001
 40
4.254451
 50
1.093624E+002
 51
1.1125412E+002
  0
ARC
  8
MED-1
  6
CONTINUOUS
 62
40
 10
-3.6362625E+001
 20
2.2394864E+001
 40
4.5842867
 50
1.0760138E+002
 51
1.0934639E+002
  0
ARC
  8
MED-1
  6
CONTINUOUS
 62
40
 10
-3.649762E+001
 20
2.27506E+001
 40
4.2044368
 50
1.0537832E+002
 51
1.0731379E+002
  0
ARC
  8
MED-1
  6
CONTINUOUS
 62
40
 10
-3.667529E+001
 20
2.3372473E+001
 40
3.5577185
 50
1.0292874E+002
 51
1.0527537E+002
  0
ARC
  8
MED-1
  6
CONTINUOUS
 62
40
 10
-3.6410827E+001
 20
2.2540806E+001
 40
4.4280525
 50
1.0208281E+002
 51
1.0385629E+002
  0
ARC
  8
MED-1
  6
CONTINUOUS
 62
40
 10
-3.4702433E+001
 20
1.4668314E+001
 40
1.2483768E+001
 50
1.0161676E+002
 51
1.021867E+002
  0
ARC
  8
MED-1
  6
CONTINUOUS
 62
40
 10
-3.663702E+001
 20
2.3325844E+001
 40
3.6171989
 50
9.6661872E+001
 51
9.9214096E+001
  0
ARC
  8
MED-1
  6
CONTINUOUS
 62
40
 10
-3.6665964E+001
 20
2.3670595E+001
 40
3.2714371
 50
9.2458936E+001
 51
9.6858818E+001
  0
ARC
  8
MED-1
  6
CONTINUOUS
 62
40
 10
-3.6140364E+001
 20
1.7953463E+001
 40
9.0102017
 50
9.2133274E+001
 51
9.4238674E+001
  0
LINE
  8
MED-1
  6
CONTINUOUS
 62
40
 10
-3.647576E+001
 20
2.695742E+001
 11
-3.624685E+001
 21
2.695745E+001
  0
LINE
  8
MED-1
  6
CONTINUOUS
 62
40
 10
-3.624685E+001
 20
2.695745E+001
 11
-3.601798E+001
 21
2.695753E+001
  0
LINE
  8
MED-1
  6
CONTINUOUS
 62
40
 10
-3.601798E+001
 20
2.695753E+001
 11
-3.578921E+001
 21
2.695766E+001
  0
LINE
  8
MED-1
  6
CONTINUOUS
 62
40
 10
-3.578921E+001
 20
2.695766E+001
 11
-3.55602E+001
 21
2.695783E+001
  0
LINE
  8
MED-1
  6
CONTINUOUS
 62
40
 10
-3.55602E+001
 20
2.695783E+001
 11
-3.533085E+001
 21
2.695805E+001
  0
LINE
  8
MED-1
  6
CONTINUOUS
 62
40
 10
-3.533085E+001
 20
2.695805E+001
 11
-3.510243E+001
 21
2.695832E+001
  0
LINE
  8
MED-1
  6
CONTINUOUS
 62
40
 10
-3.510243E+001
 20
2.695832E+001
 11
-3.487537E+001
 21
2.695862E+001
  0
LINE
  8
MED-1
  6
CONTINUOUS
 62
40
 10
-3.487537E+001
 20
2.695862E+001
 11
-3.464466E+001
 21
2.695897E+001
  0
LINE
  8
MED-1
  6
CONTINUOUS
 62
40
 10
-3.464466E+001
 20
2.695897E+001
 11
-3.440856E+001
 21
2.695938E+001
  0
LINE
  8
MED-1
  6
CONTINUOUS
 62
40
 10
-3.440856E+001
 20
2.695938E+001
 11
-3.418689E+001
 21
2.695979E+001
  0
LINE
  8
MED-1
  6
CONTINUOUS
 62
40
 10
-3.418689E+001
 20
2.695979E+001
 11
-3.398649E+001
 21
2.696019E+001
  0
LINE
  8
MED-1
  6
CONTINUOUS
 62
40
 10
-3.398649E+001
 20
2.696019E+001
 11
-3.372912E+001
 21
2.696077E+001
  0
LINE
  8
MED-1
  6
CONTINUOUS
 62
40
 10
-3.372912E+001
 20
2.696077E+001
 11
-3.333272E+001
 21
2.696178E+001
  0
LINE
  8
MED-1
  6
CONTINUOUS
 62
40
 10
-3.333272E+001
 20
2.696178E+001
 11
-3.281359E+001
 21
2.696316E+001
  0
LINE
  8
MED-1
  6
CONTINUOUS
 62
40
 10
-3.949997E+001
 20
2.650024E+001
 11
-3.94796E+001
 21
2.647443E+001
  0
LINE
  8
MED-1
  6
CONTINUOUS
 62
40
 10
-3.94796E+001
 20
2.647443E+001
 11
-3.945731E+001
 21
2.644619E+001
  0
LINE
  8
MED-1
  6
CONTINUOUS
 62
40
 10
-3.945731E+001
 20
2.644619E+001
 11
-3.943315E+001
 21
2.641559E+001
  0
LINE
  8
MED-1
  6
CONTINUOUS
 62
40
 10
-3.943315E+001
 20
2.641559E+001
 11
-3.940637E+001
 21
2.638167E+001
  0
LINE
  8
MED-1
  6
CONTINUOUS
 62
40
 10
-3.940637E+001
 20
2.638167E+001
 11
-3.937663E+001
 21
2.6344E+001
  0
LINE
  8
MED-1
  6
CONTINUOUS
 62
40
 10
-3.937663E+001
 20
2.6344E+001
 11
-3.934751E+001
 21
2.630711E+001
  0
LINE
  8
MED-1
  6
CONTINUOUS
 62
40
 10
-3.934751E+001
 20
2.630711E+001
 11
-3.932017E+001
 21
2.627248E+001
  0
LINE
  8
MED-1
  6
CONTINUOUS
 62
40
 10
-3.932017E+001
 20
2.627248E+001
 11
-3.928116E+001
 21
2.622307E+001
  0
LINE
  8
MED-1
  6
CONTINUOUS
 62
40
 10
-3.928116E+001
 20
2.622307E+001
 11
-3.92162E+001
 21
2.614078E+001
  0
LINE
  8
MED-1
  6
CONTINUOUS
 62
40
 10
-3.92162E+001
 20
2.614078E+001
 11
-3.912817E+001
 21
2.602928E+001
  0
LINE
  8
MED-1
  6
CONTINUOUS
 62
40
 10
-3.647304E+001
 20
2.769567E+001
 11
-3.647576E+001
 21
2.695742E+001
  0
ARC
  8
MED-1
  6
CONTINUOUS
 62
40
 10
-3.647305E+001
 20
2.269565E+001
 40
5.0
 50
8.999989E+001
 51
1.2725694E+002
  0
LINE
  8
MED-1
  6
CONTINUOUS
 62
40
 10
-3.647304E+001
 20
2.769567E+001
 11
-3.183593E+001
 21
2.771249E+001
  0
LINE
  8
MED-1
  6
CONTINUOUS
 62
40
 10
1.4E+001
 20
2.3E+001
 11
1.4E+001
 21
2.52E+001
  0
LINE
  8
MED-1
  6
CONTINUOUS
 62
40
 10
1.4E+001
 20
2.08E+001
 11
1.4E+001
 21
2.3E+001
  0
LINE
  8
MED-1
  6
CONTINUOUS
 62
40
 10
-5.3
 20
2.3E+001
 11
-5.3
 21
1.905E+001
  0
LINE
  8
MED-1
  6
CONTINUOUS
 62
40
 10
-5.3
 20
2.695E+001
 11
-5.3
 21
2.3E+001
  0
LINE
  8
MED-1
  6
CONTINUOUS
 62
40
 10
1.400003E+001
 20
2.079999E+001
 11
1.369996E+001
 21
2.05E+001
  0
LINE
  8
MED-1
  6
CONTINUOUS
 62
40
 10
1.369996E+001
 20
2.3E+001
 11
1.369996E+001
 21
2.05E+001
  0
LINE
  8
MED-1
  6
CONTINUOUS
 62
40
 10
1.369996E+001
 20
2.549999E+001
 11
1.369996E+001
 21
2.3E+001
  0
LINE
  8
MED-1
  6
CONTINUOUS
 62
40
 10
1.369996E+001
 20
2.549999E+001
 11
1.400003E+001
 21
2.52E+001
  0
LINE
  8
MED-1
  6
CONTINUOUS
 62
40
 10
-5.00001
 20
2.3E+001
 11
-5.00001
 21
2.725001E+001
  0
LINE
  8
MED-1
  6
CONTINUOUS
 62
40
 10
-5.00001
 20
1.874998E+001
 11
-5.00001
 21
2.3E+001
  0
LINE
  8
MED-1
  6
CONTINUOUS
 62
40
 10
-5.00001
 20
2.725001E+001
 11
-1.99999
 21
2.725001E+001
  0
LINE
  8
MED-1
  6
CONTINUOUS
 62
40
 10
-1.99999
 20
1.874998E+001
 11
-5.00001
 21
1.874998E+001
  0
LINE
  8
MED-1
  6
CONTINUOUS
 62
40
 10
1.369996E+001
 20
2.05E+001
 11
-1.0E-005
 21
2.05E+001
  0
LINE
  8
MED-1
  6
CONTINUOUS
 62
40
 10
-1.0E-005
 20
2.549999E+001
 11
1.369996E+001
 21
2.549999E+001
  0
LINE
  8
MED-1
  6
CONTINUOUS
 62
40
 10
-5.00001
 20
1.874998E+001
 11
-5.01793
 21
1.87505E+001
  0
ARC
  8
MED-1
  6
CONTINUOUS
 62
40
 10
-5.0013833
 20
1.9030422E+001
 40
2.8041036E-001
 50
2.6288609E+002
 51
2.6661708E+002
  0
ARC
  8
MED-1
  6
CONTINUOUS
 62
40
 10
-4.9988784
 20
1.9054927E+001
 40
3.0503748E-001
 50
2.5947651E+002
 51
2.6298923E+002
  0
ARC
  8
MED-1
  6
CONTINUOUS
 62
40
 10
-4.9967401
 20
1.9066763E+001
 40
3.1706532E-001
 50
2.5604193E+002
 51
2.5948726E+002
  0
ARC
  8
MED-1
  6
CONTINUOUS
 62
40
 10
-4.9978191
 20
1.9056717E+001
 40
3.0705904E-001
 50
2.5216189E+002
 51
2.5578516E+002
  0
ARC
  8
MED-1
  6
CONTINUOUS
 62
40
 10
-4.9984952
 20
1.9054538E+001
 40
3.047772E-001
 50
2.4845281E+002
 51
2.5215739E+002
  0
ARC
  8
MED-1
  6
CONTINUOUS
 62
40
 10
-4.9976155
 20
1.905489E+001
 40
3.0542888E-001
 50
2.4457189E+002
 51
2.4832358E+002
  0
ARC
  8
MED-1
  6
CONTINUOUS
 62
40
 10
-4.997383
 20
1.9055617E+001
 40
3.061851E-001
 50
2.4080823E+002
 51
2.44591E+002
  0
ARC
  8
MED-1
  6
CONTINUOUS
 62
40
 10
-4.9977528
 20
1.905306E+001
 40
3.0377374E-001
 50
2.3678381E+002
 51
2.4063388E+002
  0
ARC
  8
MED-1
  6
CONTINUOUS
 62
40
 10
-4.9978795
 20
1.9053467E+001
 40
3.0404515E-001
 50
2.3297367E+002
 51
2.368458E+002
  0
ARC
  8
MED-1
  6
CONTINUOUS
 62
40
 10
-4.9971452
 20
1.9053276E+001
 40
3.0433578E-001
 50
2.2895445E+002
 51
2.3284168E+002
  0
ARC
  8
MED-1
  6
CONTINUOUS
 62
40
 10
-4.9985282
 20
1.9051876E+001
 40
3.0237185E-001
 50
2.2505287E+002
 51
2.289779E+002
  0
ARC
  8
MED-1
  6
CONTINUOUS
 62
40
 10
-5.0017395
 20
1.9047588E+001
 40
2.9706876E-001
 50
2.2090882E+002
 51
2.2490687E+002
  0
ARC
  8
MED-1
  6
CONTINUOUS
 62
40
 10
-4.998844
 20
1.9051627E+001
 40
3.0190478E-001
 50
2.1721574E+002
 51
2.2112838E+002
  0
ARC
  8
MED-1
  6
CONTINUOUS
 62
40
 10
-4.9871059
 20
1.9060196E+001
 40
3.1643519E-001
 50
2.1346611E+002
 51
2.1716585E+002
  0
ARC
  8
MED-1
  6
CONTINUOUS
 62
40
 10
-5.0030283
 20
1.9047169E+001
 40
2.9597588E-001
 50
2.090856E+002
 51
2.13062E+002
  0
ARC
  8
MED-1
  6
CONTINUOUS
 62
40
 10
-5.0337748
 20
1.9029458E+001
 40
2.604978E-001
 50
2.0440849E+002
 51
2.0896885E+002
  0
ARC
  8
MED-1
  6
CONTINUOUS
 62
40
 10
-4.9937925
 20
1.9056553E+001
 40
3.0821103E-001
 50
2.0230605E+002
 51
2.0592388E+002
  0
ARC
  8
MED-1
  6
CONTINUOUS
 62
40
 10
-4.711885
 20
1.9174874E+001
 40
6.1393744E-001
 50
2.0089688E+002
 51
2.0253636E+002
  0
ARC
  8
MED-1
  6
CONTINUOUS
 62
40
 10
-5.0327975
 20
1.9033479E+001
 40
2.6428833E-001
 50
1.9239051E+002
 51
1.970723E+002
  0
ARC
  8
MED-1
  6
CONTINUOUS
 62
40
 10
-5.060162
 20
1.902839E+001
 40
2.3647093E-001
 50
1.8481037E+002
 51
1.9260881E+002
  0
ARC
  8
MED-1
  6
CONTINUOUS
 62
40
 10
-4.7102045
 20
1.9088862E+001
 40
5.9107578E-001
 50
1.8377179E+002
 51
1.8780825E+002
  0
LINE
  8
MED-1
  6
CONTINUOUS
 62
40
 10
-5.3
 20
2.695001E+001
 11
-5.29948
 21
2.696794E+001
  0
ARC
  8
MED-1
  6
CONTINUOUS
 62
40
 10
-5.0196396
 20
2.6951554E+001
 40
2.8031978E-001
 50
1.7291684E+002
 51
1.7664884E+002
  0
ARC
  8
MED-1
  6
CONTINUOUS
 62
40
 10
-4.9953109
 20
2.6948896E+001
 40
3.0479065E-001
 50
1.6947134E+002
 51
1.7298505E+002
  0
ARC
  8
MED-1
  6
CONTINUOUS
 62
40
 10
-4.9833148
 20
2.6946759E+001
 40
3.1697531E-001
 50
1.6604144E+002
 51
1.6948775E+002
  0
ARC
  8
MED-1
  6
CONTINUOUS
 62
40
 10
-4.993361
 20
2.6948001E+001
 40
3.0692865E-001
 50
1.6218975E+002
 51
1.6581405E+002
  0
ARC
  8
MED-1
  6
CONTINUOUS
 62
40
 10
-4.9955416
 20
2.6948524E+001
 40
3.0469277E-001
 50
1.5845229E+002
 51
1.621579E+002
  0
ARC
  8
MED-1
  6
CONTINUOUS
 62
40
 10
-4.9953421
 20
2.6947796E+001
 40
3.0514626E-001
 50
1.5458622E+002
 51
1.5833891E+002
  0
ARC
  8
MED-1
  6
CONTINUOUS
 62
40
 10
-4.9943048
 20
2.6947262E+001
 40
3.0631231E-001
 50
1.5079557E+002
 51
1.545793E+002
  0
ARC
  8
MED-1
  6
CONTINUOUS
 62
40
 10
-4.9970047
 20
2.6947938E+001
 40
3.0362669E-001
 50
1.4680736E+002
 51
1.5065832E+002
  0
ARC
  8
MED-1
  6
CONTINUOUS
 62
40
 10
-4.9965895
 20
2.6947768E+001
 40
3.0406722E-001
 50
1.4295045E+002
 51
1.4682339E+002
  0
ARC
  8
MED-1
  6
CONTINUOUS
 62
40
 10
-4.9967723
 20
2.6947328E+001
 40
3.0418661E-001
 50
1.3897564E+002
 51
1.4286358E+002
  0
ARC
  8
MED-1
  6
CONTINUOUS
 62
40
 10
-4.9983114
 20
2.6948553E+001
 40
3.0222153E-001
 50
1.3503372E+002
 51
1.3895931E+002
  0
ARC
  8
MED-1
  6
CONTINUOUS
 62
40
 10
-5.0022983
 20
2.6951755E+001
 40
2.9713827E-001
 50
1.3092888E+002
 51
1.349273E+002
  0
ARC
  8
MED-1
  6
CONTINUOUS
 62
40
 10
-4.9983897
 20
2.6948712E+001
 40
3.0199921E-001
 50
1.2719806E+002
 51
1.3111096E+002
  0
ARC
  8
MED-1
  6
CONTINUOUS
 62
40
 10
-4.9898117
 20
2.6937117E+001
 40
3.164215E-001
 50
1.2346603E+002
 51
1.2716593E+002
  0
ARC
  8
MED-1
  6
CONTINUOUS
 62
40
 10
-5.0028376
 20
2.6953174E+001
 40
2.9585019E-001
 50
1.1909999E+002
 51
1.2307642E+002
  0
ARC
  8
MED-1
  6
CONTINUOUS
 62
40
 10
-5.0205428
 20
2.6983641E+001
 40
2.6061959E-001
 50
1.1439616E+002
 51
1.1895635E+002
  0
ARC
  8
MED-1
  6
CONTINUOUS
 62
40
 10
-4.9934373
 20
2.694377E+001
 40
3.0823548E-001
 50
1.1230619E+002
 51
1.1592374E+002
  0
ARC
  8
MED-1
  6
CONTINUOUS
 62
40
 10
-4.875103
 20
2.6661826E+001
 40
6.1400079E-001
 50
1.1089696E+002
 51
1.1253627E+002
  0
ARC
  8
MED-1
  6
CONTINUOUS
 62
40
 10
-5.0165073
 20
2.6982643E+001
 40
2.6443979E-001
 50
1.0238406E+002
 51
1.0706526E+002
  0
ARC
  8
MED-1
  6
CONTINUOUS
 62
40
 10
-5.0215935
 20
2.701012E+001
 40
2.3651374E-001
 50
9.4811077E+001
 51
1.0260811E+002
  0
ARC
  8
MED-1
  6
CONTINUOUS
 62
40
 10
-4.9609722
 20
2.6660078E+001
 40
5.9122232E-001
 50
9.3785931E+001
 51
9.7821489E+001
  0
LINE
  8
104
  6
CONTINUOUS
 62
1
 10
1.4E+001
 20
2.520003E+001
 11
0.0
 21
2.520003E+001
  0
LINE
  8
104
  6
CONTINUOUS
 62
1
 10
1.4E+001
 20
2.079996E+001
 11
0.0
 21
2.079996E+001
  0
ARC
  8
MED-1
  6
CONTINUOUS
 62
40
 10
-1.2E+001
 20
1.958334E+001
 40
6.0833333
 50
2.7E+002
 51
3.1111209E+002
  0
ARC
  8
MED-1
  6
CONTINUOUS
 62
40
 10
-1.2E+001
 20
1.958334E+001
 40
6.0833332
 50
2.2888791E+002
 51
2.7E+002
  0
LINE
  8
106
  6
CENTERLINE
 62
1
 10
1.845441E+001
 20
2.3E+001
 11
-5.8959662E+001
 21
2.3E+001
  0
POINT
  8
Drafting_Hidden_Entities
  6
CONTINUOUS
 62
1
 10
0.0
 20
0.0
  0
ENDBLK
  0
BLOCK
  2
2
 10
0.0
 20
0.0
 70
0
  0
CIRCLE
  8
105
  6
HIDDEN
 62
1
 10
7.199947E+001
 20
-5.2
 40
2.5
  0
CIRCLE
  8
105
  6
HIDDEN
 62
1
 10
7.199947E+001
 20
-5.02E+001
 40
2.5
  0
LINE
  8
106
  6
CENTERLINE
 62
1
 10
7.800197E+001
 20
-5.02E+001
 11
6.623197E+001
 21
-5.02E+001
  0
LINE
  8
106
  6
CENTERLINE
 62
1
 10
7.199947E+001
 20
-5.5786E+001
 11
7.199947E+001
 21
-4.4753E+001
  0
LINE
  8
106
  6
CENTERLINE
 62
1
 10
1.2800197E+002
 20
-5.02E+001
 11
1.1623197E+002
 21
-5.02E+001
  0
LINE
  8
106
  6
CENTERLINE
 62
1
 10
1.2199947E+002
 20
-5.5786E+001
 11
1.2199947E+002
 21
-4.4753E+001
  0
LINE
  8
106
  6
CENTERLINE
 62
1
 10
1.2800197E+002
 20
-5.2
 11
1.1623197E+002
 21
-5.2
  0
LINE
  8
106
  6
CENTERLINE
 62
1
 10
1.2199947E+002
 20
-1.0786E+001
 11
1.2199947E+002
 21
2.47E-001
  0
LINE
  8
106
  6
CENTERLINE
 62
1
 10
7.800197E+001
 20
-5.2
 11
6.623197E+001
 21
-5.2
  0
LINE
  8
106
  6
CENTERLINE
 62
1
 10
7.199947E+001
 20
-1.0786E+001
 11
7.199947E+001
 21
2.47E-001
  0
LINE
  8
106
  6
CENTERLINE
 62
1
 10
2.800197E+001
 20
-5.2
 11
1.623197E+001
 21
-5.2
  0
LINE
  8
106
  6
CENTERLINE
 62
1
 10
2.199947E+001
 20
-1.0786E+001
 11
2.199947E+001
 21
2.47E-001
  0
LINE
  8
106
  6
CENTERLINE
 62
1
 10
2.800197E+001
 20
-5.02E+001
 11
1.623197E+001
 21
-5.02E+001
  0
LINE
  8
106
  6
CENTERLINE
 62
1
 10
2.199947E+001
 20
-5.5786E+001
 11
2.199947E+001
 21
-4.4753E+001
  0
CIRCLE
  8
105
  6
HIDDEN
 62
1
 10
1.2199947E+002
 20
-5.02E+001
 40
4.75
  0
CIRCLE
  8
105
  6
HIDDEN
 62
1
 10
2.199947E+001
 20
-5.2
 40
4.75
  0
CIRCLE
  8
105
  6
HIDDEN
 62
1
 10
2.199947E+001
 20
-5.02E+001
 40
4.75
  0
CIRCLE
  8
105
  6
HIDDEN
 62
1
 10
7.199947E+001
 20
-5.02E+001
 40
4.75
  0
CIRCLE
  8
105
  6
HIDDEN
 62
1
 10
7.199947E+001
 20
-5.2
 40
4.75
  0
CIRCLE
  8
105
  6
HIDDEN
 62
1
 10
1.2199947E+002
 20
-5.2
 40
4.75
  0
LINE
  8
104
  6
CONTINUOUS
 62
40
 10
1.599947E+001
 20
-5.77E+001
 11
1.599947E+001
 21
-5.8417E+001
  0
LINE
  8
104
  6
CONTINUOUS
 62
40
 10
1.599947E+001
 20
-5.8417E+001
 11
8.24947
 21
-6.345E+001
  0
LINE
  8
104
  6
CONTINUOUS
 62
40
 10
8.24947
 20
-6.345E+001
 11
-8.25053
 21
-6.345E+001
  0
LINE
  8
104
  6
CONTINUOUS
 62
40
 10
-8.25053
 20
-6.345E+001
 11
-1.600053E+001
 21
-5.8417E+001
  0
LINE
  8
104
  6
CONTINUOUS
 62
40
 10
-1.600053E+001
 20
-5.8417E+001
 11
-1.600053E+001
 21
-5.77E+001
  0
LINE
  8
99
  6
CONTINUOUS
 62
1
 10
-1.600053E+001
 20
-5.8417E+001
 11
1.599947E+001
 21
-5.8417E+001
  0
LINE
  8
99
  6
CONTINUOUS
 62
1
 10
2.0149947E+002
 20
-5.54E+001
 11
-9.150153E+001
 21
-5.54E+001
  0
LINE
  8
99
  6
CONTINUOUS
 62
1
 10
-9.150153E+001
 20
0.0
 11
2.0149947E+002
 21
0.0
  0
LINE
  8
104
  6
CONTINUOUS
 62
40
 10
2.0149947E+002
 20
-5.77E+001
 11
-9.150153E+001
 21
-5.77E+001
  0
LINE
  8
104
  6
CONTINUOUS
 62
40
 10
-9.150153E+001
 20
-5.77E+001
 11
-9.150153E+001
 21
2.3
  0
LINE
  8
104
  6
CONTINUOUS
 62
40
 10
-9.150153E+001
 20
2.3
 11
2.0149947E+002
 21
2.3
  0
LINE
  8
104
  6
CONTINUOUS
 62
40
 10
2.0149947E+002
 20
2.3
 11
2.0149947E+002
 21
-5.77E+001
  0
LINE
  8
106
  6
CENTERLINE
 62
1
 10
7.999947E+001
 20
3.28E+001
 11
6.824947E+001
 21
3.28E+001
  0
LINE
  8
MED-1
  6
CONTINUOUS
 62
40
 10
1.1E+001
 20
2.3
 11
1.1E+001
 21
1.855001E+001
  0
LINE
  8
MED-1
  6
CONTINUOUS
 62
40
 10
-1.083607E+001
 20
1.68E+001
 11
-1.1E+001
 21
1.68E+001
  0
LINE
  8
MED-1
  6
CONTINUOUS
 62
40
 10
-1.059235E+001
 20
1.680001E+001
 11
-1.083607E+001
 21
1.68E+001
  0
LINE
  8
MED-1
  6
CONTINUOUS
 62
40
 10
-1.1E+001
 20
1.855E+001
 11
-1.1E+001
 21
2.3
  0
LINE
  8
MED-1
  6
CONTINUOUS
 62
40
 10
-1.059235E+001
 20
2.355E+001
 11
-1.059235E+001
 21
1.855001E+001
  0
LINE
  8
MED-1
  6
CONTINUOUS
 62
40
 10
5.358545E+001
 20
2.355E+001
 11
5.358545E+001
 21
1.855E+001
  0
LINE
  8
MED-1
  6
CONTINUOUS
 62
40
 10
-1.059235E+001
 20
2.355E+001
 11
3.191967E+001
 21
2.355E+001
  0
LINE
  8
MED-1
  6
CONTINUOUS
 62
40
 10
3.191967E+001
 20
1.855E+001
 11
-1.059235E+001
 21
1.855001E+001
  0
LINE
  8
MED-1
  6
CONTINUOUS
 62
40
 10
3.191967E+001
 20
1.855E+001
 11
3.191967E+001
 21
2.355E+001
  0
LINE
  8
MED-1
  6
CONTINUOUS
 62
40
 10
3.191967E+001
 20
2.355E+001
 11
3.321269E+001
 21
2.355E+001
  0
LINE
  8
MED-1
  6
CONTINUOUS
 62
40
 10
3.321269E+001
 20
1.855E+001
 11
3.191967E+001
 21
1.855E+001
  0
LINE
  8
MED-1
  6
CONTINUOUS
 62
40
 10
3.321269E+001
 20
2.355E+001
 11
5.358545E+001
 21
2.355E+001
  0
LINE
  8
MED-1
  6
CONTINUOUS
 62
40
 10
5.358545E+001
 20
1.855E+001
 11
3.321269E+001
 21
1.855E+001
  0
LINE
  8
MED-1
  6
CONTINUOUS
 62
40
 10
3.799946E+001
 20
2.755001E+001
 11
3.799946E+001
 21
2.354998E+001
  0
LINE
  8
MED-1
  6
CONTINUOUS
 62
40
 10
4.799945E+001
 20
2.354998E+001
 11
4.799945E+001
 21
2.755001E+001
  0
ARC
  8
MED-1
  6
CONTINUOUS
 62
40
 10
4.299947E+001
 20
3.269214E+001
 40
1.5E+001
 50
2.7E+002
 51
2.8947122E+002
  0
ARC
  8
MED-1
  6
CONTINUOUS
 62
40
 10
4.299947E+001
 20
3.269214E+001
 40
1.5E+001
 50
2.5052878E+002
 51
2.7E+002
  0
LINE
  8
MED-1
  6
CONTINUOUS
 62
40
 10
5.299947E+001
 20
3.925E+001
 11
5.299947E+001
 21
3.355003E+001
  0
LINE
  8
MED-1
  6
CONTINUOUS
 62
40
 10
3.299947E+001
 20
3.345E+001
 11
3.299947E+001
 21
3.925E+001
  0
ARC
  8
MED-1
  6
CONTINUOUS
 62
40
 10
3.529947E+001
 20
3.925E+001
 40
2.3
 50
9.0E+001
 51
1.8E+002
  0
ARC
  8
MED-1
  6
CONTINUOUS
 62
40
 10
5.069947E+001
 20
3.925E+001
 40
2.3000001
 50
0.0
 51
9.0E+001
  0
LINE
  8
MED-1
  6
CONTINUOUS
 62
40
 10
3.529947E+001
 20
4.155E+001
 11
5.069947E+001
 21
4.155E+001
  0
LINE
  8
MED-1
  6
CONTINUOUS
 62
40
 10
3.299947E+001
 20
3.345E+001
 11
5.299947E+001
 21
3.345E+001
  0
LINE
  8
MED-1
  6
CONTINUOUS
 62
40
 10
5.299947E+001
 20
3.925E+001
 11
3.299947E+001
 21
3.925E+001
  0
LINE
  8
MED-1
  6
CONTINUOUS
 62
40
 10
5.299947E+001
 20
3.355003E+001
 11
3.299947E+001
 21
3.355E+001
  0
LINE
  8
MED-1
  6
CONTINUOUS
 62
40
 10
3.399947E+001
 20
2.755E+001
 11
5.199947E+001
 21
2.755E+001
  0
LINE
  8
MED-1
  6
CONTINUOUS
 62
40
 10
4.886377E+001
 20
4.165E+001
 11
3.713517E+001
 21
4.165E+001
  0
LINE
  8
MED-1
  6
CONTINUOUS
 62
40
 10
5.299947E+001
 20
2.855E+001
 11
5.199947E+001
 21
2.755E+001
  0
LINE
  8
MED-1
  6
CONTINUOUS
 62
40
 10
3.299949E+001
 20
2.855E+001
 11
3.399947E+001
 21
2.755E+001
  0
LINE
  8
MED-1
  6
CONTINUOUS
 62
40
 10
5.299947E+001
 20
2.855E+001
 11
3.299949E+001
 21
2.855E+001
  0
LINE
  8
MED-1
  6
CONTINUOUS
 62
40
 10
5.299947E+001
 20
3.355003E+001
 11
5.299947E+001
 21
2.855E+001
  0
LINE
  8
MED-1
  6
CONTINUOUS
 62
40
 10
3.299947E+001
 20
3.345E+001
 11
3.299949E+001
 21
2.855E+001
  0
ARC
  8
MED-1
  6
CONTINUOUS
 62
40
 10
4.299947E+001
 20
3.355E+001
 40
1.0E+001
 50
5.4095932E+001
 51
9.0E+001
  0
ARC
  8
MED-1
  6
CONTINUOUS
 62
40
 10
4.299947E+001
 20
3.355E+001
 40
1.0E+001
 50
9.0E+001
 51
1.2590407E+002
  0
LINE
  8
MED-1
  6
CONTINUOUS
 62
40
 10
3.899945E+001
 20
4.164998E+001
 11
3.899947E+001
 21
4.155E+001
  0
LINE
  8
MED-1
  6
CONTINUOUS
 62
40
 10
4.699946E+001
 20
4.164998E+001
 11
4.699947E+001
 21
4.155E+001
  0
LINE
  8
MED-1
  6
CONTINUOUS
 62
40
 10
7.999947E+001
 20
2.68E+001
 11
7.999947E+001
 21
2.48E+001
  0
LINE
  8
MED-1
  6
CONTINUOUS
 62
40
 10
7.999947E+001
 20
4.08E+001
 11
7.999947E+001
 21
3.88E+001
  0
LINE
  8
MED-1
  6
CONTINUOUS
 62
40
 10
7.999947E+001
 20
3.88E+001
 11
7.999947E+001
 21
2.68E+001
  0
LINE
  8
MED-1
  6
CONTINUOUS
 62
40
 10
2.199947E+001
 20
2.48E+001
 11
2.199947E+001
 21
2.68E+001
  0
LINE
  8
MED-1
  6
CONTINUOUS
 62
40
 10
2.199947E+001
 20
2.68E+001
 11
2.199947E+001
 21
3.88E+001
  0
LINE
  8
MED-1
  6
CONTINUOUS
 62
40
 10
2.199947E+001
 20
3.88E+001
 11
2.199947E+001
 21
4.08E+001
  0
LINE
  8
MED-1
  6
CONTINUOUS
 62
40
 10
7.903098E+001
 20
4.08E+001
 11
7.999947E+001
 21
4.08E+001
  0
LINE
  8
MED-1
  6
CONTINUOUS
 62
40
 10
2.199947E+001
 20
4.08E+001
 11
2.261716E+001
 21
4.08E+001
  0
LINE
  8
MED-1
  6
CONTINUOUS
 62
40
 10
2.261716E+001
 20
4.08E+001
 11
3.3600205E+001
 21
4.08E+001
  0
LINE
  8
MED-1
  6
CONTINUOUS
 62
40
 10
3.858794E+001
 20
4.255E+001
 11
3.864057E+001
 21
4.255E+001
  0
LINE
  8
MED-1
  6
CONTINUOUS
 62
40
 10
5.2398735E+001
 20
4.08E+001
 11
7.903098E+001
 21
4.08E+001
  0
LINE
  8
MED-1
  6
CONTINUOUS
 62
40
 10
7.999947E+001
 20
2.48E+001
 11
7.903098E+001
 21
2.48E+001
  0
LINE
  8
MED-1
  6
CONTINUOUS
 62
40
 10
7.903098E+001
 20
2.48E+001
 11
4.799947E+001
 21
2.48E+001
  0
LINE
  8
MED-1
  6
CONTINUOUS
 62
40
 10
3.799947E+001
 20
2.48E+001
 11
2.261716E+001
 21
2.48E+001
  0
LINE
  8
MED-1
  6
CONTINUOUS
 62
40
 10
2.261716E+001
 20
2.48E+001
 11
2.199947E+001
 21
2.48E+001
  0
LINE
  8
MED-1
  6
CONTINUOUS
 62
40
 10
7.903098E+001
 20
2.68E+001
 11
7.999947E+001
 21
2.68E+001
  0
LINE
  8
MED-1
  6
CONTINUOUS
 62
40
 10
2.199947E+001
 20
2.68E+001
 11
2.261716E+001
 21
2.68E+001
  0
LINE
  8
MED-1
  6
CONTINUOUS
 62
40
 10
2.261716E+001
 20
2.68E+001
 11
3.299949E+001
 21
2.68E+001
  0
LINE
  8
MED-1
  6
CONTINUOUS
 62
40
 10
5.299947E+001
 20
2.68E+001
 11
7.903098E+001
 21
2.68E+001
  0
LINE
  8
MED-1
  6
CONTINUOUS
 62
40
 10
7.999947E+001
 20
3.88E+001
 11
7.903098E+001
 21
3.88E+001
  0
LINE
  8
MED-1
  6
CONTINUOUS
 62
40
 10
7.903098E+001
 20
3.88E+001
 11
5.254018E+001
 21
3.879998E+001
  0
LINE
  8
MED-1
  6
CONTINUOUS
 62
40
 10
3.345873E+001
 20
3.879998E+001
 11
2.261716E+001
 21
3.88E+001
  0
LINE
  8
MED-1
  6
CONTINUOUS
 62
40
 10
2.261716E+001
 20
3.88E+001
 11
2.199947E+001
 21
3.88E+001
  0
LINE
  8
MED-1
  6
CONTINUOUS
 62
40
 10
6.449947E+001
 20
3.58E+001
 11
7.048907E+001
 21
3.58E+001
  0
ARC
  8
MED-1
  6
CONTINUOUS
 62
40
 10
6.449947E+001
 20
3.28E+001
 40
3.0000001
 50
9.0E+001
 51
2.7E+002
  0
LINE
  8
MED-1
  6
CONTINUOUS
 62
40
 10
7.048907E+001
 20
2.98E+001
 11
6.449947E+001
 21
2.98E+001
  0
CIRCLE
  8
MED-1
  6
CONTINUOUS
 62
40
 10
2.849947E+001
 20
3.28E+001
 40
4.25
  0
LINE
  8
MED-1
  6
CONTINUOUS
 62
40
 10
2.924949E+001
 20
3.504997E+001
 11
2.924949E+001
 21
3.354998E+001
  0
LINE
  8
MED-1
  6
CONTINUOUS
 62
40
 10
2.774944E+001
 20
3.504997E+001
 11
2.924949E+001
 21
3.504997E+001
  0
LINE
  8
MED-1
  6
CONTINUOUS
 62
40
 10
2.774944E+001
 20
3.354998E+001
 11
2.774944E+001
 21
3.504997E+001
  0
LINE
  8
MED-1
  6
CONTINUOUS
 62
40
 10
2.624945E+001
 20
3.354998E+001
 11
2.774944E+001
 21
3.354998E+001
  0
LINE
  8
MED-1
  6
CONTINUOUS
 62
40
 10
2.624945E+001
 20
3.204999E+001
 11
2.624945E+001
 21
3.354998E+001
  0
LINE
  8
MED-1
  6
CONTINUOUS
 62
40
 10
2.774944E+001
 20
3.204999E+001
 11
2.624945E+001
 21
3.204999E+001
  0
LINE
  8
MED-1
  6
CONTINUOUS
 62
40
 10
2.774944E+001
 20
3.055E+001
 11
2.774944E+001
 21
3.204999E+001
  0
LINE
  8
MED-1
  6
CONTINUOUS
 62
40
 10
2.924949E+001
 20
3.055E+001
 11
2.774944E+001
 21
3.055E+001
  0
LINE
  8
MED-1
  6
CONTINUOUS
 62
40
 10
2.924949E+001
 20
3.204999E+001
 11
2.924949E+001
 21
3.055E+001
  0
LINE
  8
MED-1
  6
CONTINUOUS
 62
40
 10
3.074948E+001
 20
3.204999E+001
 11
2.924949E+001
 21
3.204999E+001
  0
LINE
  8
MED-1
  6
CONTINUOUS
 62
40
 10
3.074948E+001
 20
3.354998E+001
 11
3.074948E+001
 21
3.204999E+001
  0
LINE
  8
MED-1
  6
CONTINUOUS
 62
40
 10
2.924949E+001
 20
3.354998E+001
 11
3.074948E+001
 21
3.354998E+001
  0
CIRCLE
  8
MED-1
  6
CONTINUOUS
 62
40
 10
7.349947E+001
 20
3.28E+001
 40
4.25
  0
LINE
  8
MED-1
  6
CONTINUOUS
 62
40
 10
7.424947E+001
 20
3.504997E+001
 11
7.424947E+001
 21
3.354998E+001
  0
LINE
  8
MED-1
  6
CONTINUOUS
 62
40
 10
7.274948E+001
 20
3.504997E+001
 11
7.424947E+001
 21
3.504997E+001
  0
LINE
  8
MED-1
  6
CONTINUOUS
 62
40
 10
7.274948E+001
 20
3.354998E+001
 11
7.274948E+001
 21
3.504997E+001
  0
LINE
  8
MED-1
  6
CONTINUOUS
 62
40
 10
7.124949E+001
 20
3.354998E+001
 11
7.274948E+001
 21
3.354998E+001
  0
LINE
  8
MED-1
  6
CONTINUOUS
 62
40
 10
7.124949E+001
 20
3.204999E+001
 11
7.124949E+001
 21
3.354998E+001
  0
LINE
  8
MED-1
  6
CONTINUOUS
 62
40
 10
7.274948E+001
 20
3.204999E+001
 11
7.124949E+001
 21
3.204999E+001
  0
LINE
  8
MED-1
  6
CONTINUOUS
 62
40
 10
7.274948E+001
 20
3.055E+001
 11
7.274948E+001
 21
3.204999E+001
  0
LINE
  8
MED-1
  6
CONTINUOUS
 62
40
 10
7.424947E+001
 20
3.055E+001
 11
7.274948E+001
 21
3.055E+001
  0
LINE
  8
MED-1
  6
CONTINUOUS
 62
40
 10
7.424947E+001
 20
3.204999E+001
 11
7.424947E+001
 21
3.055E+001
  0
LINE
  8
MED-1
  6
CONTINUOUS
 62
40
 10
7.574946E+001
 20
3.204999E+001
 11
7.424947E+001
 21
3.204999E+001
  0
LINE
  8
MED-1
  6
CONTINUOUS
 62
40
 10
7.574946E+001
 20
3.354998E+001
 11
7.574946E+001
 21
3.204999E+001
  0
LINE
  8
MED-1
  6
CONTINUOUS
 62
40
 10
7.424947E+001
 20
3.354998E+001
 11
7.574946E+001
 21
3.354998E+001
  0
LINE
  8
106
  6
CENTERLINE
 62
1
 10
7.874947E+001
 20
3.28E+001
 11
6.035848E+001
 21
3.28E+001
  0
LINE
  8
106
  6
CENTERLINE
 62
1
 10
7.349947E+001
 20
2.755E+001
 11
7.349947E+001
 21
3.805E+001
  0
LINE
  8
106
  6
CENTERLINE
 62
1
 10
3.374947E+001
 20
3.28E+001
 11
2.324947E+001
 21
3.28E+001
  0
LINE
  8
106
  6
CENTERLINE
 62
1
 10
2.849947E+001
 20
2.755E+001
 11
2.849947E+001
 21
3.805E+001
  0
LINE
  8
3
  6
CENTERLINE
 62
1
 10
4.299947E+001
 20
4.6778632E+001
 11
4.299947E+001
 21
1.5071968E+001
  0
LINE
  8
3
  6
CENTERLINE
 62
1
 10
0.0
 20
-5.2097844E+001
 11
0.0
 21
2.4350644E+001
  0
POINT
  8
Drafting_Hidden_Entities
  6
CONTINUOUS
 62
1
 10
0.0
 20
0.0
  0
ENDBLK
  0
BLOCK
  2
2NEW00
 10
0.0
 20
0.0
 70
0
  0
LINE
  8
104
  6
CONTINUOUS
 62
40
 10
1.599947E+001
 20
-5.77E+001
 11
1.599947E+001
 21
-5.8417E+001
  0
LINE
  8
104
  6
CONTINUOUS
 62
40
 10
1.599947E+001
 20
-5.8417E+001
 11
8.24947
 21
-6.345E+001
  0
LINE
  8
104
  6
CONTINUOUS
 62
40
 10
8.24947
 20
-6.345E+001
 11
-8.25053
 21
-6.345E+001
  0
LINE
  8
104
  6
CONTINUOUS
 62
40
 10
-8.25053
 20
-6.345E+001
 11
-1.600053E+001
 21
-5.8417E+001
  0
LINE
  8
104
  6
CONTINUOUS
 62
40
 10
-1.600053E+001
 20
-5.8417E+001
 11
-1.600053E+001
 21
-5.77E+001
  0
LINE
  8
99
  6
CONTINUOUS
 62
1
 10
-1.600053E+001
 20
-5.8417E+001
 11
1.599947E+001
 21
-5.8417E+001
  0
LINE
  8
99
  6
CONTINUOUS
 62
1
 10
2.0149947E+002
 20
-5.54E+001
 11
-9.150153E+001
 21
-5.54E+001
  0
LINE
  8
99
  6
CONTINUOUS
 62
1
 10
-9.150153E+001
 20
0.0
 11
2.0149947E+002
 21
0.0
  0
LINE
  8
104
  6
CONTINUOUS
 62
40
 10
2.0149947E+002
 20
-5.77E+001
 11
-9.150153E+001
 21
-5.77E+001
  0
LINE
  8
104
  6
CONTINUOUS
 62
40
 10
-9.150153E+001
 20
-5.77E+001
 11
-9.150153E+001
 21
2.3
  0
LINE
  8
104
  6
CONTINUOUS
 62
40
 10
-9.150153E+001
 20
2.3
 11
2.0149947E+002
 21
2.3
  0
LINE
  8
104
  6
CONTINUOUS
 62
40
 10
2.0149947E+002
 20
2.3
 11
2.0149947E+002
 21
-5.77E+001
  0
LINE
  8
106
  6
CENTERLINE
 62
1
 10
7.999947E+001
 20
3.18E+001
 11
6.824947E+001
 21
3.18E+001
  0
LINE
  8
MED-1
  6
CONTINUOUS
 62
40
 10
1.1E+001
 20
2.3
 11
1.1E+001
 21
1.855001E+001
  0
LINE
  8
MED-1
  6
CONTINUOUS
 62
40
 10
-1.083607E+001
 20
1.68E+001
 11
-1.1E+001
 21
1.68E+001
  0
LINE
  8
MED-1
  6
CONTINUOUS
 62
40
 10
-1.059235E+001
 20
1.680001E+001
 11
-1.083607E+001
 21
1.68E+001
  0
LINE
  8
MED-1
  6
CONTINUOUS
 62
40
 10
-1.1E+001
 20
1.855E+001
 11
-1.1E+001
 21
2.3
  0
LINE
  8
MED-1
  6
CONTINUOUS
 62
40
 10
-1.059235E+001
 20
2.455E+001
 11
-1.059235E+001
 21
1.855001E+001
  0
LINE
  8
MED-1
  6
CONTINUOUS
 62
40
 10
5.358545E+001
 20
2.455E+001
 11
5.358545E+001
 21
1.855E+001
  0
LINE
  8
MED-1
  6
CONTINUOUS
 62
40
 10
-1.059235E+001
 20
2.455E+001
 11
3.191967E+001
 21
2.455E+001
  0
LINE
  8
MED-1
  6
CONTINUOUS
 62
40
 10
3.191967E+001
 20
1.855E+001
 11
-1.059235E+001
 21
1.855001E+001
  0
LINE
  8
MED-1
  6
CONTINUOUS
 62
40
 10
3.191967E+001
 20
1.855E+001
 11
3.191967E+001
 21
2.455E+001
  0
LINE
  8
MED-1
  6
CONTINUOUS
 62
40
 10
3.191967E+001
 20
2.455E+001
 11
3.321269E+001
 21
2.455E+001
  0
LINE
  8
MED-1
  6
CONTINUOUS
 62
40
 10
3.321269E+001
 20
1.855E+001
 11
3.191967E+001
 21
1.855E+001
  0
LINE
  8
MED-1
  6
CONTINUOUS
 62
40
 10
3.321269E+001
 20
2.455E+001
 11
5.358545E+001
 21
2.455E+001
  0
LINE
  8
MED-1
  6
CONTINUOUS
 62
40
 10
5.358545E+001
 20
1.855E+001
 11
3.321269E+001
 21
1.855E+001
  0
LINE
  8
MED-1
  6
CONTINUOUS
 62
40
 10
3.799946E+001
 20
2.755001E+001
 11
3.799946E+001
 21
2.454998E+001
  0
LINE
  8
MED-1
  6
CONTINUOUS
 62
40
 10
4.799945E+001
 20
2.454998E+001
 11
4.799945E+001
 21
2.755001E+001
  0
ARC
  8
MED-1
  6
CONTINUOUS
 62
40
 10
4.299947E+001
 20
3.269214E+001
 40
1.5E+001
 50
2.7E+002
 51
2.8947122E+002
  0
ARC
  8
MED-1
  6
CONTINUOUS
 62
40
 10
4.299947E+001
 20
3.269214E+001
 40
1.5E+001
 50
2.5052878E+002
 51
2.7E+002
  0
LINE
  8
MED-1
  6
CONTINUOUS
 62
40
 10
5.299947E+001
 20
3.925E+001
 11
5.299947E+001
 21
3.355003E+001
  0
LINE
  8
MED-1
  6
CONTINUOUS
 62
40
 10
3.299947E+001
 20
3.345E+001
 11
3.299947E+001
 21
3.925E+001
  0
ARC
  8
MED-1
  6
CONTINUOUS
 62
40
 10
3.529947E+001
 20
3.925E+001
 40
2.3
 50
9.0E+001
 51
1.8E+002
  0
ARC
  8
MED-1
  6
CONTINUOUS
 62
40
 10
5.069947E+001
 20
3.925E+001
 40
2.3000001
 50
0.0
 51
9.0E+001
  0
LINE
  8
MED-1
  6
CONTINUOUS
 62
40
 10
3.529947E+001
 20
4.155E+001
 11
5.069947E+001
 21
4.155E+001
  0
LINE
  8
MED-1
  6
CONTINUOUS
 62
40
 10
3.299947E+001
 20
3.345E+001
 11
5.299947E+001
 21
3.345E+001
  0
LINE
  8
MED-1
  6
CONTINUOUS
 62
40
 10
5.299947E+001
 20
3.925E+001
 11
3.299947E+001
 21
3.925E+001
  0
LINE
  8
MED-1
  6
CONTINUOUS
 62
40
 10
5.299947E+001
 20
3.355003E+001
 11
3.299947E+001
 21
3.355E+001
  0
LINE
  8
MED-1
  6
CONTINUOUS
 62
40
 10
3.399947E+001
 20
2.755E+001
 11
5.199947E+001
 21
2.755E+001
  0
LINE
  8
MED-1
  6
CONTINUOUS
 62
40
 10
4.886377E+001
 20
4.165E+001
 11
3.713517E+001
 21
4.165E+001
  0
LINE
  8
MED-1
  6
CONTINUOUS
 62
40
 10
5.299947E+001
 20
2.855E+001
 11
5.199947E+001
 21
2.755E+001
  0
LINE
  8
MED-1
  6
CONTINUOUS
 62
40
 10
3.299949E+001
 20
2.855E+001
 11
3.399947E+001
 21
2.755E+001
  0
LINE
  8
MED-1
  6
CONTINUOUS
 62
40
 10
5.299947E+001
 20
2.855E+001
 11
3.299949E+001
 21
2.855E+001
  0
LINE
  8
MED-1
  6
CONTINUOUS
 62
40
 10
5.299947E+001
 20
3.355003E+001
 11
5.299947E+001
 21
2.855E+001
  0
LINE
  8
MED-1
  6
CONTINUOUS
 62
40
 10
3.299947E+001
 20
3.345E+001
 11
3.299949E+001
 21
2.855E+001
  0
ARC
  8
MED-1
  6
CONTINUOUS
 62
40
 10
4.299947E+001
 20
3.355E+001
 40
1.0E+001
 50
5.4095932E+001
 51
9.0E+001
  0
ARC
  8
MED-1
  6
CONTINUOUS
 62
40
 10
4.299947E+001
 20
3.355E+001
 40
1.0E+001
 50
9.0E+001
 51
1.2590407E+002
  0
LINE
  8
MED-1
  6
CONTINUOUS
 62
40
 10
3.899945E+001
 20
4.164998E+001
 11
3.899947E+001
 21
4.155E+001
  0
LINE
  8
MED-1
  6
CONTINUOUS
 62
40
 10
4.699946E+001
 20
4.164998E+001
 11
4.699947E+001
 21
4.155E+001
  0
LINE
  8
MED-1
  6
CONTINUOUS
 62
40
 10
7.999947E+001
 20
2.58E+001
 11
7.999947E+001
 21
2.38E+001
  0
LINE
  8
MED-1
  6
CONTINUOUS
 62
40
 10
7.999947E+001
 20
3.98E+001
 11
7.999947E+001
 21
3.78E+001
  0
LINE
  8
MED-1
  6
CONTINUOUS
 62
40
 10
7.999947E+001
 20
3.78E+001
 11
7.999947E+001
 21
2.58E+001
  0
LINE
  8
MED-1
  6
CONTINUOUS
 62
40
 10
2.199947E+001
 20
2.38E+001
 11
2.199947E+001
 21
2.58E+001
  0
LINE
  8
MED-1
  6
CONTINUOUS
 62
40
 10
2.199947E+001
 20
2.58E+001
 11
2.199947E+001
 21
3.78E+001
  0
LINE
  8
MED-1
  6
CONTINUOUS
 62
40
 10
2.199947E+001
 20
3.78E+001
 11
2.199947E+001
 21
3.98E+001
  0
LINE
  8
MED-1
  6
CONTINUOUS
 62
40
 10
7.903098E+001
 20
3.98E+001
 11
7.999947E+001
 21
3.98E+001
  0
LINE
  8
MED-1
  6
CONTINUOUS
 62
40
 10
2.199947E+001
 20
3.98E+001
 11
2.261716E+001
 21
3.98E+001
  0
LINE
  8
MED-1
  6
CONTINUOUS
 62
40
 10
2.261716E+001
 20
3.98E+001
 11
3.3066199E+001
 21
3.98E+001
  0
LINE
  8
MED-1
  6
CONTINUOUS
 62
40
 10
3.858794E+001
 20
4.255E+001
 11
3.864057E+001
 21
4.255E+001
  0
LINE
  8
MED-1
  6
CONTINUOUS
 62
40
 10
5.2932741E+001
 20
3.98E+001
 11
7.903098E+001
 21
3.98E+001
  0
LINE
  8
MED-1
  6
CONTINUOUS
 62
40
 10
7.999947E+001
 20
2.38E+001
 11
7.903098E+001
 21
2.38E+001
  0
LINE
  8
MED-1
  6
CONTINUOUS
 62
40
 10
7.903098E+001
 20
2.38E+001
 11
5.358545E+001
 21
2.38E+001
  0
LINE
  8
MED-1
  6
CONTINUOUS
 62
40
 10
3.191967E+001
 20
2.38E+001
 11
2.261716E+001
 21
2.38E+001
  0
LINE
  8
MED-1
  6
CONTINUOUS
 62
40
 10
2.261716E+001
 20
2.38E+001
 11
2.199947E+001
 21
2.38E+001
  0
LINE
  8
MED-1
  6
CONTINUOUS
 62
40
 10
7.903098E+001
 20
2.58E+001
 11
7.999947E+001
 21
2.58E+001
  0
LINE
  8
MED-1
  6
CONTINUOUS
 62
40
 10
2.199947E+001
 20
2.58E+001
 11
2.261716E+001
 21
2.58E+001
  0
LINE
  8
MED-1
  6
CONTINUOUS
 62
40
 10
2.261716E+001
 20
2.58E+001
 11
3.799946E+001
 21
2.58E+001
  0
LINE
  8
MED-1
  6
CONTINUOUS
 62
40
 10
4.799945E+001
 20
2.58E+001
 11
7.903098E+001
 21
2.58E+001
  0
LINE
  8
MED-1
  6
CONTINUOUS
 62
40
 10
7.999947E+001
 20
3.78E+001
 11
7.903098E+001
 21
3.78E+001
  0
LINE
  8
MED-1
  6
CONTINUOUS
 62
40
 10
7.903098E+001
 20
3.78E+001
 11
5.299947E+001
 21
3.779998E+001
  0
LINE
  8
MED-1
  6
CONTINUOUS
 62
40
 10
3.299947E+001
 20
3.7799981E+001
 11
2.261716E+001
 21
3.78E+001
  0
LINE
  8
MED-1
  6
CONTINUOUS
 62
40
 10
2.261716E+001
 20
3.78E+001
 11
2.199947E+001
 21
3.78E+001
  0
LINE
  8
MED-1
  6
CONTINUOUS
 62
40
 10
6.449947E+001
 20
3.48E+001
 11
7.048907E+001
 21
3.48E+001
  0
ARC
  8
MED-1
  6
CONTINUOUS
 62
40
 10
6.449947E+001
 20
3.18E+001
 40
3.0000001
 50
9.0E+001
 51
2.7E+002
  0
LINE
  8
MED-1
  6
CONTINUOUS
 62
40
 10
7.048907E+001
 20
2.88E+001
 11
6.449947E+001
 21
2.88E+001
  0
CIRCLE
  8
MED-1
  6
CONTINUOUS
 62
40
 10
2.849947E+001
 20
3.18E+001
 40
4.25
  0
LINE
  8
MED-1
  6
CONTINUOUS
 62
40
 10
2.924949E+001
 20
3.404997E+001
 11
2.924949E+001
 21
3.254998E+001
  0
LINE
  8
MED-1
  6
CONTINUOUS
 62
40
 10
2.774944E+001
 20
3.404997E+001
 11
2.924949E+001
 21
3.404997E+001
  0
LINE
  8
MED-1
  6
CONTINUOUS
 62
40
 10
2.774944E+001
 20
3.254998E+001
 11
2.774944E+001
 21
3.404997E+001
  0
LINE
  8
MED-1
  6
CONTINUOUS
 62
40
 10
2.624945E+001
 20
3.254998E+001
 11
2.774944E+001
 21
3.254998E+001
  0
LINE
  8
MED-1
  6
CONTINUOUS
 62
40
 10
2.624945E+001
 20
3.104999E+001
 11
2.624945E+001
 21
3.254998E+001
  0
LINE
  8
MED-1
  6
CONTINUOUS
 62
40
 10
2.774944E+001
 20
3.104999E+001
 11
2.624945E+001
 21
3.104999E+001
  0
LINE
  8
MED-1
  6
CONTINUOUS
 62
40
 10
2.774944E+001
 20
2.955E+001
 11
2.774944E+001
 21
3.104999E+001
  0
LINE
  8
MED-1
  6
CONTINUOUS
 62
40
 10
2.924949E+001
 20
2.955E+001
 11
2.774944E+001
 21
2.955E+001
  0
LINE
  8
MED-1
  6
CONTINUOUS
 62
40
 10
2.924949E+001
 20
3.104999E+001
 11
2.924949E+001
 21
2.955E+001
  0
LINE
  8
MED-1
  6
CONTINUOUS
 62
40
 10
3.074948E+001
 20
3.104999E+001
 11
2.924949E+001
 21
3.104999E+001
  0
LINE
  8
MED-1
  6
CONTINUOUS
 62
40
 10
3.074948E+001
 20
3.254998E+001
 11
3.074948E+001
 21
3.104999E+001
  0
LINE
  8
MED-1
  6
CONTINUOUS
 62
40
 10
2.924949E+001
 20
3.254998E+001
 11
3.074948E+001
 21
3.254998E+001
  0
CIRCLE
  8
MED-1
  6
CONTINUOUS
 62
40
 10
7.349947E+001
 20
3.18E+001
 40
4.25
  0
LINE
  8
MED-1
  6
CONTINUOUS
 62
40
 10
7.424947E+001
 20
3.404997E+001
 11
7.424947E+001
 21
3.254998E+001
  0
LINE
  8
MED-1
  6
CONTINUOUS
 62
40
 10
7.274948E+001
 20
3.404997E+001
 11
7.424947E+001
 21
3.404997E+001
  0
LINE
  8
MED-1
  6
CONTINUOUS
 62
40
 10
7.274948E+001
 20
3.254998E+001
 11
7.274948E+001
 21
3.404997E+001
  0
LINE
  8
MED-1
  6
CONTINUOUS
 62
40
 10
7.124949E+001
 20
3.254998E+001
 11
7.274948E+001
 21
3.254998E+001
  0
LINE
  8
MED-1
  6
CONTINUOUS
 62
40
 10
7.124949E+001
 20
3.104999E+001
 11
7.124949E+001
 21
3.254998E+001
  0
LINE
  8
MED-1
  6
CONTINUOUS
 62
40
 10
7.274948E+001
 20
3.104999E+001
 11
7.124949E+001
 21
3.104999E+001
  0
LINE
  8
MED-1
  6
CONTINUOUS
 62
40
 10
7.274948E+001
 20
2.955E+001
 11
7.274948E+001
 21
3.104999E+001
  0
LINE
  8
MED-1
  6
CONTINUOUS
 62
40
 10
7.424947E+001
 20
2.955E+001
 11
7.274948E+001
 21
2.955E+001
  0
LINE
  8
MED-1
  6
CONTINUOUS
 62
40
 10
7.424947E+001
 20
3.104999E+001
 11
7.424947E+001
 21
2.955E+001
  0
LINE
  8
MED-1
  6
CONTINUOUS
 62
40
 10
7.574946E+001
 20
3.104999E+001
 11
7.424947E+001
 21
3.104999E+001
  0
LINE
  8
MED-1
  6
CONTINUOUS
 62
40
 10
7.574946E+001
 20
3.254998E+001
 11
7.574946E+001
 21
3.104999E+001
  0
LINE
  8
MED-1
  6
CONTINUOUS
 62
40
 10
7.424947E+001
 20
3.254998E+001
 11
7.574946E+001
 21
3.254998E+001
  0
LINE
  8
106
  6
CENTERLINE
 62
1
 10
7.874947E+001
 20
3.18E+001
 11
6.035848E+001
 21
3.18E+001
  0
LINE
  8
106
  6
CENTERLINE
 62
1
 10
7.349947E+001
 20
2.655E+001
 11
7.349947E+001
 21
3.705E+001
  0
LINE
  8
106
  6
CENTERLINE
 62
1
 10
3.374947E+001
 20
3.18E+001
 11
2.324947E+001
 21
3.18E+001
  0
LINE
  8
106
  6
CENTERLINE
 62
1
 10
2.849947E+001
 20
2.655E+001
 11
2.849947E+001
 21
3.705E+001
  0
LINE
  8
3
  6
CENTERLINE
 62
1
 10
4.299947E+001
 20
4.5778632E+001
 11
4.299947E+001
 21
1.4071968E+001
  0
LINE
  8
3
  6
CENTERLINE
 62
1
 10
0.0
 20
-5.2097844E+001
 11
0.0
 21
2.4350644E+001
  0
CIRCLE
  8
104
  6
CONTINUOUS
 62
40
 10
1.0849847E+002
 20
-4.92E+001
 40
5.0
  0
CIRCLE
  8
104
  6
CONTINUOUS
 62
40
 10
1.0849847E+002
 20
-4.92E+001
 40
2.5
  0
CIRCLE
  8
104
  6
CONTINUOUS
 62
40
 10
-5.150153E+001
 20
-4.92E+001
 40
5.0
  0
CIRCLE
  8
104
  6
CONTINUOUS
 62
40
 10
-5.150153E+001
 20
-4.92E+001
 40
2.5
  0
CIRCLE
  8
104
  6
CONTINUOUS
 62
40
 10
-5.150153E+001
 20
-3.32E+001
 40
5.0
  0
CIRCLE
  8
104
  6
CONTINUOUS
 62
40
 10
-5.150153E+001
 20
-3.32E+001
 40
2.5
  0
CIRCLE
  8
104
  6
CONTINUOUS
 62
40
 10
-5.150153E+001
 20
-2.22E+001
 40
5.0
  0
CIRCLE
  8
104
  6
CONTINUOUS
 62
40
 10
-5.150153E+001
 20
-2.22E+001
 40
2.5
  0
CIRCLE
  8
104
  6
CONTINUOUS
 62
40
 10
-5.150153E+001
 20
-6.2
 40
5.0
  0
CIRCLE
  8
104
  6
CONTINUOUS
 62
40
 10
-5.150153E+001
 20
-6.2
 40
2.5
  0
CIRCLE
  8
104
  6
CONTINUOUS
 62
40
 10
1.0849847E+002
 20
-3.32E+001
 40
5.0
  0
CIRCLE
  8
104
  6
CONTINUOUS
 62
40
 10
1.0849847E+002
 20
-3.32E+001
 40
2.5
  0
CIRCLE
  8
104
  6
CONTINUOUS
 62
40
 10
5.649847E+001
 20
-1.42E+001
 40
5.0
  0
CIRCLE
  8
104
  6
CONTINUOUS
 62
40
 10
5.649847E+001
 20
-1.42E+001
 40
2.5
  0
CIRCLE
  8
104
  6
CONTINUOUS
 62
40
 10
5.649847E+001
 20
-4.12E+001
 40
5.0
  0
CIRCLE
  8
104
  6
CONTINUOUS
 62
40
 10
5.649847E+001
 20
-4.12E+001
 40
2.5
  0
CIRCLE
  8
104
  6
CONTINUOUS
 62
40
 10
4.9847E-001
 20
-1.42E+001
 40
5.0
  0
CIRCLE
  8
104
  6
CONTINUOUS
 62
40
 10
4.9847E-001
 20
-1.42E+001
 40
2.5
  0
CIRCLE
  8
104
  6
CONTINUOUS
 62
40
 10
4.9847E-001
 20
-4.12E+001
 40
5.0
  0
CIRCLE
  8
104
  6
CONTINUOUS
 62
40
 10
4.9847E-001
 20
-4.12E+001
 40
2.5
  0
LINE
  8
MED-0
  6
CONTINUOUS
 62
1
 10
1.0882931E+002
 20
-5.6736206
 11
1.0882931E+002
 21
-5.6736206
  0
LINE
  8
MED-0
  6
CONTINUOUS
 62
1
 10
1.0882931E+002
 20
-5.6736206
 11
1.0882931E+002
 21
-5.6736206
  0
LINE
  8
MED-0
  6
CONTINUOUS
 62
1
 10
1.0849847E+002
 20
-3.32E+001
 11
1.0849847E+002
 21
-3.32E+001
  0
LINE
  8
MED-0
  6
CONTINUOUS
 62
1
 10
1.0849847E+002
 20
-3.32E+001
 11
1.0849847E+002
 21
-3.32E+001
  0
LINE
  8
MED-0
  6
CONTINUOUS
 62
1
 10
1.0849847E+002
 20
-3.32E+001
 11
1.1599847E+002
 21
-3.32E+001
  0
LINE
  8
MED-0
  6
CONTINUOUS
 62
1
 10
1.0849847E+002
 20
-3.32E+001
 11
1.0849847E+002
 21
-2.57E+001
  0
LINE
  8
MED-0
  6
CONTINUOUS
 62
1
 10
1.0849847E+002
 20
-3.32E+001
 11
1.0099847E+002
 21
-3.32E+001
  0
LINE
  8
MED-0
  6
CONTINUOUS
 62
1
 10
1.0849847E+002
 20
-3.32E+001
 11
1.0849847E+002
 21
-4.07E+001
  0
LINE
  8
MED-0
  6
CONTINUOUS
 62
1
 10
1.0849847E+002
 20
-4.92E+001
 11
1.0849847E+002
 21
-4.92E+001
  0
LINE
  8
MED-0
  6
CONTINUOUS
 62
1
 10
1.0849847E+002
 20
-4.92E+001
 11
1.0849847E+002
 21
-4.92E+001
  0
LINE
  8
MED-0
  6
CONTINUOUS
 62
1
 10
1.0849847E+002
 20
-4.92E+001
 11
1.1599847E+002
 21
-4.92E+001
  0
LINE
  8
MED-0
  6
CONTINUOUS
 62
1
 10
1.0849847E+002
 20
-4.92E+001
 11
1.0849847E+002
 21
-4.17E+001
  0
LINE
  8
MED-0
  6
CONTINUOUS
 62
1
 10
1.0849847E+002
 20
-4.92E+001
 11
1.0099847E+002
 21
-4.92E+001
  0
LINE
  8
MED-0
  6
CONTINUOUS
 62
1
 10
5.649847E+001
 20
-4.12E+001
 11
5.649847E+001
 21
-4.12E+001
  0
LINE
  8
MED-0
  6
CONTINUOUS
 62
1
 10
5.649847E+001
 20
-4.12E+001
 11
5.649847E+001
 21
-4.12E+001
  0
LINE
  8
MED-0
  6
CONTINUOUS
 62
1
 10
5.649847E+001
 20
-4.12E+001
 11
6.399847E+001
 21
-4.12E+001
  0
LINE
  8
MED-0
  6
CONTINUOUS
 62
1
 10
5.649847E+001
 20
-4.12E+001
 11
5.649847E+001
 21
-3.37E+001
  0
LINE
  8
MED-0
  6
CONTINUOUS
 62
1
 10
5.649847E+001
 20
-4.12E+001
 11
4.899847E+001
 21
-4.12E+001
  0
LINE
  8
MED-0
  6
CONTINUOUS
 62
1
 10
5.649847E+001
 20
-4.12E+001
 11
5.649847E+001
 21
-4.87E+001
  0
LINE
  8
MED-0
  6
CONTINUOUS
 62
1
 10
5.649847E+001
 20
-1.42E+001
 11
5.649847E+001
 21
-1.42E+001
  0
LINE
  8
MED-0
  6
CONTINUOUS
 62
1
 10
5.649847E+001
 20
-1.42E+001
 11
5.649847E+001
 21
-1.42E+001
  0
LINE
  8
MED-0
  6
CONTINUOUS
 62
1
 10
5.649847E+001
 20
-1.42E+001
 11
6.399847E+001
 21
-1.42E+001
  0
LINE
  8
MED-0
  6
CONTINUOUS
 62
1
 10
5.649847E+001
 20
-1.42E+001
 11
5.649847E+001
 21
-6.7
  0
LINE
  8
MED-0
  6
CONTINUOUS
 62
1
 10
5.649847E+001
 20
-1.42E+001
 11
4.899847E+001
 21
-1.42E+001
  0
LINE
  8
MED-0
  6
CONTINUOUS
 62
1
 10
5.649847E+001
 20
-1.42E+001
 11
5.649847E+001
 21
-2.17E+001
  0
LINE
  8
MED-0
  6
CONTINUOUS
 62
1
 10
4.9847E-001
 20
-1.42E+001
 11
4.9847E-001
 21
-1.42E+001
  0
LINE
  8
MED-0
  6
CONTINUOUS
 62
1
 10
4.9847E-001
 20
-1.42E+001
 11
4.9847E-001
 21
-1.42E+001
  0
LINE
  8
MED-0
  6
CONTINUOUS
 62
1
 10
4.9847E-001
 20
-1.42E+001
 11
7.99847
 21
-1.42E+001
  0
LINE
  8
MED-0
  6
CONTINUOUS
 62
1
 10
4.9847E-001
 20
-1.42E+001
 11
4.9847E-001
 21
-6.7
  0
LINE
  8
MED-0
  6
CONTINUOUS
 62
1
 10
4.9847E-001
 20
-1.42E+001
 11
-7.00153
 21
-1.42E+001
  0
LINE
  8
MED-0
  6
CONTINUOUS
 62
1
 10
4.9847E-001
 20
-1.42E+001
 11
4.9847E-001
 21
-2.17E+001
  0
LINE
  8
MED-0
  6
CONTINUOUS
 62
1
 10
4.9847E-001
 20
-4.12E+001
 11
4.9847E-001
 21
-4.12E+001
  0
LINE
  8
MED-0
  6
CONTINUOUS
 62
1
 10
4.9847E-001
 20
-4.12E+001
 11
4.9847E-001
 21
-4.12E+001
  0
LINE
  8
MED-0
  6
CONTINUOUS
 62
1
 10
4.9847E-001
 20
-4.12E+001
 11
7.99847
 21
-4.12E+001
  0
LINE
  8
MED-0
  6
CONTINUOUS
 62
1
 10
4.9847E-001
 20
-4.12E+001
 11
4.9847E-001
 21
-3.37E+001
  0
LINE
  8
MED-0
  6
CONTINUOUS
 62
1
 10
4.9847E-001
 20
-4.12E+001
 11
-7.00153
 21
-4.12E+001
  0
LINE
  8
MED-0
  6
CONTINUOUS
 62
1
 10
4.9847E-001
 20
-4.12E+001
 11
4.9847E-001
 21
-4.87E+001
  0
LINE
  8
MED-0
  6
CONTINUOUS
 62
1
 10
-5.150153E+001
 20
-4.92E+001
 11
-5.150153E+001
 21
-4.92E+001
  0
LINE
  8
MED-0
  6
CONTINUOUS
 62
1
 10
-5.150153E+001
 20
-4.92E+001
 11
-5.150153E+001
 21
-4.92E+001
  0
LINE
  8
MED-0
  6
CONTINUOUS
 62
1
 10
-5.150153E+001
 20
-4.92E+001
 11
-4.400153E+001
 21
-4.92E+001
  0
LINE
  8
MED-0
  6
CONTINUOUS
 62
1
 10
-5.150153E+001
 20
-4.92E+001
 11
-5.150153E+001
 21
-4.17E+001
  0
LINE
  8
MED-0
  6
CONTINUOUS
 62
1
 10
-5.150153E+001
 20
-4.92E+001
 11
-5.900153E+001
 21
-4.92E+001
  0
LINE
  8
MED-0
  6
CONTINUOUS
 62
1
 10
-5.150153E+001
 20
-3.32E+001
 11
-5.150153E+001
 21
-3.32E+001
  0
LINE
  8
MED-0
  6
CONTINUOUS
 62
1
 10
-5.150153E+001
 20
-3.32E+001
 11
-5.150153E+001
 21
-3.32E+001
  0
LINE
  8
MED-0
  6
CONTINUOUS
 62
1
 10
-5.150153E+001
 20
-3.32E+001
 11
-4.400153E+001
 21
-3.32E+001
  0
LINE
  8
MED-0
  6
CONTINUOUS
 62
1
 10
-5.150153E+001
 20
-3.32E+001
 11
-5.150153E+001
 21
-2.57E+001
  0
LINE
  8
MED-0
  6
CONTINUOUS
 62
1
 10
-5.150153E+001
 20
-3.32E+001
 11
-5.900153E+001
 21
-3.32E+001
  0
LINE
  8
MED-0
  6
CONTINUOUS
 62
1
 10
-5.150153E+001
 20
-3.32E+001
 11
-5.150153E+001
 21
-4.07E+001
  0
LINE
  8
MED-0
  6
CONTINUOUS
 62
1
 10
-5.150153E+001
 20
-2.22E+001
 11
-5.150153E+001
 21
-2.22E+001
  0
LINE
  8
MED-0
  6
CONTINUOUS
 62
1
 10
-5.150153E+001
 20
-2.22E+001
 11
-5.150153E+001
 21
-2.22E+001
  0
LINE
  8
MED-0
  6
CONTINUOUS
 62
1
 10
-5.150153E+001
 20
-2.22E+001
 11
-4.400153E+001
 21
-2.22E+001
  0
LINE
  8
MED-0
  6
CONTINUOUS
 62
1
 10
-5.150153E+001
 20
-2.22E+001
 11
-5.150153E+001
 21
-1.47E+001
  0
LINE
  8
MED-0
  6
CONTINUOUS
 62
1
 10
-5.150153E+001
 20
-2.22E+001
 11
-5.900153E+001
 21
-2.22E+001
  0
LINE
  8
MED-0
  6
CONTINUOUS
 62
1
 10
-5.150153E+001
 20
-2.22E+001
 11
-5.150153E+001
 21
-2.97E+001
  0
LINE
  8
MED-0
  6
CONTINUOUS
 62
1
 10
-5.150153E+001
 20
-6.2
 11
-5.150153E+001
 21
-6.2
  0
LINE
  8
MED-0
  6
CONTINUOUS
 62
1
 10
-5.150153E+001
 20
-6.2
 11
-5.150153E+001
 21
-6.2
  0
LINE
  8
MED-0
  6
CONTINUOUS
 62
1
 10
-5.150153E+001
 20
-6.2
 11
-4.400153E+001
 21
-6.2
  0
LINE
  8
MED-0
  6
CONTINUOUS
 62
1
 10
-5.150153E+001
 20
-6.2
 11
-5.150153E+001
 21
1.3
  0
LINE
  8
MED-0
  6
CONTINUOUS
 62
1
 10
-5.150153E+001
 20
-6.2
 11
-5.900153E+001
 21
-6.2
  0
LINE
  8
MED-0
  6
CONTINUOUS
 62
1
 10
-5.150153E+001
 20
-6.2
 11
-5.150153E+001
 21
-1.37E+001
  0
CIRCLE
  8
104
  6
CONTINUOUS
 62
40
 10
1.0849847E+002
 20
-2.22E+001
 40
5.0
  0
CIRCLE
  8
104
  6
CONTINUOUS
 62
40
 10
1.0849847E+002
 20
-2.22E+001
 40
2.5
  0
LINE
  8
MED-0
  6
CONTINUOUS
 62
1
 10
1.0849847E+002
 20
-2.22E+001
 11
1.0849847E+002
 21
-2.22E+001
  0
LINE
  8
MED-0
  6
CONTINUOUS
 62
1
 10
1.0849847E+002
 20
-2.22E+001
 11
1.0849847E+002
 21
-2.22E+001
  0
LINE
  8
MED-0
  6
CONTINUOUS
 62
1
 10
1.0849847E+002
 20
-2.22E+001
 11
1.1599847E+002
 21
-2.22E+001
  0
LINE
  8
MED-0
  6
CONTINUOUS
 62
1
 10
1.0849847E+002
 20
-2.22E+001
 11
1.0849847E+002
 21
-1.47E+001
  0
LINE
  8
MED-0
  6
CONTINUOUS
 62
1
 10
1.0849847E+002
 20
-2.22E+001
 11
1.0099847E+002
 21
-2.22E+001
  0
LINE
  8
MED-0
  6
CONTINUOUS
 62
1
 10
1.0849847E+002
 20
-2.22E+001
 11
1.0849847E+002
 21
-2.97E+001
  0
CIRCLE
  8
104
  6
CONTINUOUS
 62
40
 10
1.0849847E+002
 20
-6.2
 40
5.0
  0
CIRCLE
  8
104
  6
CONTINUOUS
 62
40
 10
1.0849847E+002
 20
-6.2
 40
2.5
  0
LINE
  8
MED-0
  6
CONTINUOUS
 62
1
 10
1.0849847E+002
 20
-6.2
 11
1.0849847E+002
 21
-6.2
  0
LINE
  8
MED-0
  6
CONTINUOUS
 62
1
 10
1.0849847E+002
 20
-6.2
 11
1.0849847E+002
 21
-6.2
  0
LINE
  8
MED-0
  6
CONTINUOUS
 62
1
 10
1.0849847E+002
 20
-6.2
 11
1.1599847E+002
 21
-6.2
  0
LINE
  8
MED-0
  6
CONTINUOUS
 62
1
 10
1.0849847E+002
 20
-6.2
 11
1.0849847E+002
 21
1.3
  0
LINE
  8
MED-0
  6
CONTINUOUS
 62
1
 10
1.0849847E+002
 20
-6.2
 11
1.0099847E+002
 21
-6.2
  0
LINE
  8
MED-0
  6
CONTINUOUS
 62
1
 10
1.0849847E+002
 20
-6.2
 11
1.0849847E+002
 21
-1.37E+001
  0
POINT
  8
Drafting_Hidden_Entities
  6
CONTINUOUS
 62
1
 10
0.0
 20
0.0
  0
ENDBLK
  0
ENDSEC
  0
SECTION
  2
ENTITIES
  0
LINE
  8
0
  6
CONTINUOUS
 62
3
 10
9.621467
 20
1.9661259E+001
 11
4.1079482E+002
 21
1.9661259E+001
  0
LINE
  8
0
  6
CONTINUOUS
 62
3
 10
4.1079482E+002
 20
1.9661259E+001
 11
4.1079482E+002
 21
1.4390369E+002
  0
LINE
  8
0
  6
CONTINUOUS
 62
3
 10
4.1079482E+002
 20
1.4390369E+002
 11
9.621467
 21
1.4390369E+002
  0
LINE
  8
0
  6
CONTINUOUS
 62
3
 10
9.621467
 20
1.4390369E+002
 11
9.621467
 21
1.9661259E+001
  0
TEXT
  8
MED-1
  6
CONTINUOUS
 62
7
 10
1.0821467E+001
 20
2.0861259E+001
 40
1.0
  1
2-FRONT
 41
3.0
 50
1.0
  0
TEXT
  8
103
  6
CONTINUOUS
 62
40
 10
4.0615375E+002
 20
1.6886389E+001
 40
7.0
  1
TS83
 41
6.5454545E-001
 72
1
 11
3.9699011E+002
 21
1.3386389E+001
 73
2
  0
TEXT
  8
103
  6
CONTINUOUS
 62
150
 10
2.0269636E+001
 20
2.8836266E+002
 40
3.5
  1
M 1:1
 41
6.3000002E-001
 72
1
 11
1.4757136E+001
 21
2.8661266E+002
 73
2
  0
TEXT
  8
103
  6
CONTINUOUS
 62
150
 10
2.3401566E+001
 20
1.5026139E+002
 40
3.5
  1
M 1:2.5
 41
6.4285716E-001
 72
1
 11
1.5526566E+001
 21
1.4851139E+002
 73
2
  0
LINE
  8
98
  6
CONTINUOUS
 62
1
 10
5.0
 20
5.0
 11
4.15E+002
 21
5.0
  0
LINE
  8
98
  6
CONTINUOUS
 62
1
 10
4.15E+002
 20
5.0
 11
4.15E+002
 21
2.92E+002
  0
LINE
  8
98
  6
CONTINUOUS
 62
1
 10
4.15E+002
 20
2.92E+002
 11
5.0
 21
2.92E+002
  0
LINE
  8
98
  6
CONTINUOUS
 62
1
 10
5.0
 20
2.92E+002
 11
5.0
 21
5.0
  0
LINE
  8
104
  6
CONTINUOUS
 62
40
 10
8.3031202E+001
 20
2.3303668E+002
 11
1.141783E+002
 21
2.3303668E+002
  0
LINE
  8
106
  6
CENTERLINE
 62
1
 10
9.8650802E+001
 20
2.4899868E+002
 11
9.8650802E+001
 21
2.3012568E+002
  0
CIRCLE
  8
104
  6
CONTINUOUS
 62
40
 10
9.8650802E+001
 20
2.0303668E+002
 40
6.0
  0
LINE
  8
99
  6
CONTINUOUS
 62
1
 10
1.221508E+002
 20
2.3303668E+002
 11
1.221508E+002
 21
2.4053668E+002
  0
LINE
  8
99
  6
CONTINUOUS
 62
1
 10
1.221508E+002
 20
2.4053668E+002
 11
1.295268E+002
 21
2.4053668E+002
  0
LINE
  8
104
  6
CONTINUOUS
 62
40
 10
1.000942E+002
 20
2.0553668E+002
 11
9.7207402E+001
 21
2.0553668E+002
  0
LINE
  8
104
  6
CONTINUOUS
 62
40
 10
9.7207402E+001
 20
2.0553668E+002
 11
9.5764002E+001
 21
2.0303668E+002
  0
LINE
  8
104
  6
CONTINUOUS
 62
40
 10
9.5764002E+001
 20
2.0303668E+002
 11
9.7207402E+001
 21
2.0053668E+002
  0
LINE
  8
104
  6
CONTINUOUS
 62
40
 10
9.7207402E+001
 20
2.0053668E+002
 11
1.000942E+002
 21
2.0053668E+002
  0
LINE
  8
104
  6
CONTINUOUS
 62
40
 10
1.000942E+002
 20
2.0053668E+002
 11
1.015376E+002
 21
2.0303668E+002
  0
LINE
  8
104
  6
CONTINUOUS
 62
40
 10
1.015376E+002
 20
2.0303668E+002
 11
1.000942E+002
 21
2.0553668E+002
  0
LINE
  8
104
  6
CONTINUOUS
 62
40
 10
7.5650802E+001
 20
2.3126868E+002
 11
7.5650802E+001
 21
1.7480468E+002
  0
LINE
  8
106
  6
CENTERLINE
 62
1
 10
7.8750102E+001
 20
2.2553668E+002
 11
1.328078E+002
 21
2.2553668E+002
  0
LINE
  8
106
  6
CENTERLINE
 62
1
 10
7.8639802E+001
 20
1.8053668E+002
 11
1.330018E+002
 21
1.8053668E+002
  0
LINE
  8
104
  6
CONTINUOUS
 62
40
 10
1.069008E+002
 20
1.6728668E+002
 11
1.146508E+002
 21
1.7231968E+002
  0
LINE
  8
104
  6
CONTINUOUS
 62
40
 10
1.146508E+002
 20
1.7231968E+002
 11
1.146508E+002
 21
1.7303668E+002
  0
LINE
  8
99
  6
CONTINUOUS
 62
1
 10
1.146508E+002
 20
1.7231968E+002
 11
8.2650802E+001
 21
1.7231968E+002
  0
LINE
  8
104
  6
CONTINUOUS
 62
40
 10
9.0400802E+001
 20
1.6728668E+002
 11
8.2650802E+001
 21
1.7231968E+002
  0
LINE
  8
104
  6
CONTINUOUS
 62
40
 10
8.2650802E+001
 20
1.7231968E+002
 11
8.2650802E+001
 21
1.7303668E+002
  0
LINE
  8
104
  6
CONTINUOUS
 62
40
 10
9.0400802E+001
 20
1.6728668E+002
 11
1.069008E+002
 21
1.6728668E+002
  0
LINE
  8
106
  6
CENTERLINE
 62
1
 10
8.9818902E+001
 20
2.0303668E+002
 11
1.072042E+002
 21
2.0303668E+002
  0
LINE
  8
104
  6
CONTINUOUS
 62
40
 10
7.4650802E+001
 20
2.3073668E+002
 11
7.4650802E+001
 21
2.3303668E+002
  0
LINE
  8
104
  6
CONTINUOUS
 62
40
 10
7.4650802E+001
 20
2.3303668E+002
 11
1.221508E+002
 21
2.3303668E+002
  0
LINE
  8
104
  6
CONTINUOUS
 62
40
 10
1.221508E+002
 20
2.3303668E+002
 11
1.221508E+002
 21
1.7303668E+002
  0
LINE
  8
104
  6
CONTINUOUS
 62
40
 10
1.221508E+002
 20
1.7303668E+002
 11
7.4650802E+001
 21
1.7303668E+002
  0
LINE
  8
104
  6
CONTINUOUS
 62
40
 10
7.4650802E+001
 20
1.7303668E+002
 11
7.4650802E+001
 21
1.7533668E+002
  0
LINE
  8
104
  6
CONTINUOUS
 62
40
 10
7.4650802E+001
 20
1.7533668E+002
 11
7.6150802E+001
 21
1.7453868E+002
  0
LINE
  8
104
  6
CONTINUOUS
 62
40
 10
7.6150802E+001
 20
1.7453868E+002
 11
7.6150802E+001
 21
2.3153468E+002
  0
LINE
  8
104
  6
CONTINUOUS
 62
40
 10
7.6150802E+001
 20
2.3153468E+002
 11
7.4650802E+001
 21
2.3073668E+002
  0
LINE
  8
106
  6
CENTERLINE
 62
1
 10
9.8650802E+001
 20
1.9478568E+002
 11
9.8650802E+001
 21
2.1160068E+002
  0
LINE
  8
MED-0
  6
CENTERLINE
 62
150
 10
1.301508E+002
 20
1.7803668E+002
 11
1.221508E+002
 21
1.7803668E+002
  0
LINE
  8
MED-0
  6
CENTERLINE
 62
150
 10
1.221508E+002
 20
1.7803668E+002
 11
1.221508E+002
 21
1.8303668E+002
  0
LINE
  8
MED-0
  6
CENTERLINE
 62
150
 10
1.221508E+002
 20
1.8303668E+002
 11
1.301508E+002
 21
1.8303668E+002
  0
LINE
  8
MED-0
  6
CENTERLINE
 62
150
 10
1.301508E+002
 20
1.8303668E+002
 11
1.301508E+002
 21
1.7803668E+002
  0
LINE
  8
99
  6
CONTINUOUS
 62
1
 10
1.221508E+002
 20
1.7878668E+002
 11
1.301508E+002
 21
1.7878668E+002
  0
LINE
  8
99
  6
CONTINUOUS
 62
1
 10
1.221508E+002
 20
1.8228668E+002
 11
1.301508E+002
 21
1.8228668E+002
  0
LINE
  8
106
  6
CENTERLINE
 62
1
 10
1.204668E+002
 20
1.8053668E+002
 11
1.330018E+002
 21
1.8053668E+002
  0
LINE
  8
104
  6
CONTINUOUS
 62
40
 10
1.301508E+002
 20
1.7803668E+002
 11
1.221508E+002
 21
1.7803668E+002
  0
LINE
  8
104
  6
CONTINUOUS
 62
40
 10
1.221508E+002
 20
1.7803668E+002
 11
1.221508E+002
 21
1.8303668E+002
  0
LINE
  8
104
  6
CONTINUOUS
 62
40
 10
1.221508E+002
 20
1.8303668E+002
 11
1.301508E+002
 21
1.8303668E+002
  0
LINE
  8
104
  6
CONTINUOUS
 62
40
 10
1.301508E+002
 20
1.8303668E+002
 11
1.301508E+002
 21
1.7803668E+002
  0
LINE
  8
MED-0
  6
CENTERLINE
 62
150
 10
1.301508E+002
 20
2.2303668E+002
 11
1.221508E+002
 21
2.2303668E+002
  0
LINE
  8
MED-0
  6
CENTERLINE
 62
150
 10
1.221508E+002
 20
2.2303668E+002
 11
1.221508E+002
 21
2.2803668E+002
  0
LINE
  8
MED-0
  6
CENTERLINE
 62
150
 10
1.221508E+002
 20
2.2803668E+002
 11
1.301508E+002
 21
2.2803668E+002
  0
LINE
  8
MED-0
  6
CENTERLINE
 62
150
 10
1.301508E+002
 20
2.2803668E+002
 11
1.301508E+002
 21
2.2303668E+002
  0
LINE
  8
99
  6
CONTINUOUS
 62
1
 10
1.221508E+002
 20
2.2378668E+002
 11
1.301508E+002
 21
2.2378668E+002
  0
LINE
  8
99
  6
CONTINUOUS
 62
1
 10
1.221508E+002
 20
2.2728668E+002
 11
1.301508E+002
 21
2.2728668E+002
  0
LINE
  8
106
  6
CENTERLINE
 62
1
 10
1.204668E+002
 20
2.2553668E+002
 11
1.330018E+002
 21
2.2553668E+002
  0
LINE
  8
104
  6
CONTINUOUS
 62
40
 10
1.301508E+002
 20
2.2303668E+002
 11
1.221508E+002
 21
2.2303668E+002
  0
LINE
  8
104
  6
CONTINUOUS
 62
40
 10
1.221508E+002
 20
2.2303668E+002
 11
1.221508E+002
 21
2.2803668E+002
  0
LINE
  8
104
  6
CONTINUOUS
 62
40
 10
1.221508E+002
 20
2.2803668E+002
 11
1.301508E+002
 21
2.2803668E+002
  0
LINE
  8
104
  6
CONTINUOUS
 62
40
 10
1.301508E+002
 20
2.2803668E+002
 11
1.301508E+002
 21
2.2303668E+002
  0
LINE
  8
MED-1
  6
CONTINUOUS
 62
40
 10
9.6758818E+001
 20
2.4928668E+002
 11
1.096508E+002
 21
2.4928668E+002
  0
LINE
  8
MED-1
  6
CONTINUOUS
 62
40
 10
9.5362908E+001
 20
2.4928666E+002
 11
9.6758818E+001
 21
2.4928668E+002
  0
LINE
  8
MED-1
  6
CONTINUOUS
 62
40
 10
6.1756841E+001
 20
2.4928667E+002
 11
9.5362908E+001
 21
2.4928666E+002
  0
LINE
  8
106
  6
CENTERLINE
 62
1
 10
9.8650802E+001
 20
2.3028668E+002
 11
9.8650782E+001
 21
2.5728668E+002
  0
LINE
  8
MED-1
  6
CONTINUOUS
 62
40
 10
9.5362928E+001
 20
2.5428668E+002
 11
9.5362908E+001
 21
2.4928666E+002
  0
LINE
  8
MED-1
  6
CONTINUOUS
 62
40
 10
9.5362928E+001
 20
2.5428668E+002
 11
6.1756843E+001
 21
2.5428668E+002
  0
LINE
  8
MED-1
  6
CONTINUOUS
 62
40
 10
8.76508E+001
 20
2.3303668E+002
 11
8.7650788E+001
 21
2.4928666E+002
  0
LINE
  8
MED-1
  6
CONTINUOUS
 62
40
 10
1.096508E+002
 20
2.4928668E+002
 11
1.096508E+002
 21
2.3303668E+002
  0
LINE
  8
MED-1
  6
CONTINUOUS
 62
40
 10
1.0964334E+002
 20
2.5428668E+002
 11
1.096508E+002
 21
2.4928668E+002
  0
LINE
  8
MED-1
  6
CONTINUOUS
 62
40
 10
1.0964334E+002
 20
2.5428668E+002
 11
9.5362928E+001
 21
2.5428668E+002
  0
POLYLINE
  8
106
  6
CENTERLINE
 62
1
 66
1
 40
0.0
 41
0.0
 70
2
  0
VERTEX
  8
106
 42
0.0
 10
6.1756843E+001
 20
2.5428668E+002
 70
0
  0
VERTEX
  8
106
 42
1.3804488E-002
 10
6.1588038E+001
 20
2.5411147E+002
 70
1
  0
VERTEX
  8
106
 42
1.3660769E-002
 10
6.1436156E+001
 20
2.5393568E+002
 70
0
  0
VERTEX
  8
106
 42
1.653911E-002
 10
6.1301277E+001
 20
2.5375932E+002
 70
1
  0
VERTEX
  8
106
 42
2.4141298E-002
 10
6.1186977E+001
 20
2.5358231E+002
 70
0
  0
VERTEX
  8
106
 42
3.1937598E-002
 10
6.1099318E+001
 20
2.5340454E+002
 70
1
  0
VERTEX
  8
106
 42
3.9947942E-002
 10
6.1040788E+001
 20
2.5322597E+002
 70
0
  0
VERTEX
  8
106
 42
4.8379337E-002
 10
6.1016243E+001
 20
2.5304649E+002
 70
1
  0
VERTEX
  8
106
 42
5.5946917E-002
 10
6.1029075E+001
 20
2.5286605E+002
 70
0
  0
VERTEX
  8
106
 42
4.6858675E-002
 10
6.108337E+001
 20
2.5268456E+002
 70
1
  0
VERTEX
  8
106
 42
2.7220441E-002
 10
6.1168098E+001
 20
2.5250224E+002
 70
0
  0
VERTEX
  8
106
 42
1.2195214E-002
 10
6.1271735E+001
 20
2.523193E+002
 70
1
  0
VERTEX
  8
106
 42
-3.203705E-003
 10
6.1379809E+001
 20
2.5213604E+002
 70
0
  0
VERTEX
  8
106
 42
-1.8268733E-002
 10
6.1477619E+001
 20
2.519527E+002
 70
1
  0
VERTEX
  8
106
 42
-4.0170759E-002
 10
6.1550091E+001
 20
2.5176965E+002
 70
0
  0
VERTEX
  8
106
 42
-5.9192136E-002
 10
6.1581326E+001
 20
2.5158718E+002
 70
1
  0
VERTEX
  8
106
 42
-6.9603195E-002
 10
6.1565512E+001
 20
2.5140526E+002
 70
0
  0
VERTEX
  8
106
 42
-5.3847289E-002
 10
6.149871E+001
 20
2.5122399E+002
 70
1
  0
VERTEX
  8
106
 42
-2.444824E-002
 10
6.1399567E+001
 20
2.5104429E+002
 70
0
  0
VERTEX
  8
106
 42
-1.033372E-004
 10
6.1289003E+001
 20
2.5086647E+002
 70
1
  0
VERTEX
  8
106
 42
3.212889E-002
 10
6.1192027E+001
 20
2.5068666E+002
 70
0
  0
VERTEX
  8
106
 42
4.2446281E-002
 10
6.1130121E+001
 20
2.5050358E+002
 70
1
  0
VERTEX
  8
106
 42
3.098173E-002
 10
6.1098374E+001
 20
2.5033213E+002
 70
0
  0
VERTEX
  8
106
 42
8.2788538E-002
 10
6.1100161E+001
 20
2.5017748E+002
 70
1
  0
VERTEX
  8
106
 42
9.0007326E-002
 10
6.1185138E+001
 20
2.4998058E+002
 70
0
  0
VERTEX
  8
106
 42
3.2482525E-002
 10
6.1408182E+001
 20
2.4967955E+002
 70
1
  0
VERTEX
  8
106
 42
1.6150768E-002
 10
6.1756841E+001
 20
2.4928667E+002
 70
0
  0
SEQEND
  0
LINE
  8
106
  6
CENTERLINE
 62
1
 10
8.9818902E+001
 20
2.0303668E+002
 11
1.072042E+002
 21
2.0303668E+002
  0
LINE
  8
MED-1
  6
CONTINUOUS
 62
40
 10
1.201508E+002
 20
2.7153668E+002
 11
1.1691459E+002
 21
2.7153668E+002
  0
LINE
  8
MED-1
  6
CONTINUOUS
 62
40
 10
1.1691459E+002
 20
2.7153668E+002
 11
1.1570153E+002
 21
2.7153668E+002
  0
LINE
  8
MED-1
  6
CONTINUOUS
 62
40
 10
1.1570153E+002
 20
2.7153668E+002
 11
1.0408545E+002
 21
2.7153668E+002
  0
LINE
  8
MED-1
  6
CONTINUOUS
 62
40
 10
1.0408545E+002
 20
2.7153668E+002
 11
1.026508E+002
 21
2.7153668E+002
  0
LINE
  8
MED-1
  6
CONTINUOUS
 62
40
 10
1.026508E+002
 20
2.5553668E+002
 11
1.0408545E+002
 21
2.5553668E+002
  0
LINE
  8
MED-1
  6
CONTINUOUS
 62
40
 10
1.0408545E+002
 20
2.5553668E+002
 11
1.1570153E+002
 21
2.5553668E+002
  0
LINE
  8
MED-1
  6
CONTINUOUS
 62
40
 10
1.1570153E+002
 20
2.5553668E+002
 11
1.1691459E+002
 21
2.5553668E+002
  0
LINE
  8
MED-1
  6
CONTINUOUS
 62
40
 10
1.201508E+002
 20
2.5553668E+002
 11
1.1691459E+002
 21
2.5553668E+002
  0
LINE
  8
MED-1
  6
CONTINUOUS
 62
40
 10
1.1691459E+002
 20
2.5753668E+002
 11
1.201508E+002
 21
2.5753668E+002
  0
LINE
  8
MED-1
  6
CONTINUOUS
 62
40
 10
1.1691459E+002
 20
2.5753668E+002
 11
1.1570153E+002
 21
2.5753668E+002
  0
LINE
  8
MED-1
  6
CONTINUOUS
 62
40
 10
1.1570153E+002
 20
2.5753668E+002
 11
1.0408545E+002
 21
2.5753668E+002
  0
LINE
  8
MED-1
  6
CONTINUOUS
 62
40
 10
1.0408545E+002
 20
2.5753668E+002
 11
1.026508E+002
 21
2.5753668E+002
  0
LINE
  8
MED-1
  6
CONTINUOUS
 62
40
 10
1.026508E+002
 20
2.6953668E+002
 11
1.0408545E+002
 21
2.6953668E+002
  0
LINE
  8
MED-1
  6
CONTINUOUS
 62
40
 10
1.0408545E+002
 20
2.6953668E+002
 11
1.1570153E+002
 21
2.6953668E+002
  0
LINE
  8
MED-1
  6
CONTINUOUS
 62
40
 10
1.1570153E+002
 20
2.6953668E+002
 11
1.1691459E+002
 21
2.6953668E+002
  0
LINE
  8
MED-1
  6
CONTINUOUS
 62
40
 10
1.201508E+002
 20
2.6953668E+002
 11
1.1691459E+002
 21
2.6953668E+002
  0
ARC
  8
MED-1
  6
CONTINUOUS
 62
40
 10
1.201508E+002
 20
2.6953668E+002
 40
2.0000001
 50
0.0
 51
9.0E+001
  0
ARC
  8
MED-1
  6
CONTINUOUS
 62
40
 10
1.201508E+002
 20
2.5753668E+002
 40
1.9999999
 50
2.7E+002
 51
3.6E+002
  0
LINE
  8
MED-1
  6
CONTINUOUS
 62
40
 10
1.201508E+002
 20
2.5753668E+002
 11
1.201508E+002
 21
2.6953668E+002
  0
LINE
  8
MED-1
  6
CONTINUOUS
 62
40
 10
1.221508E+002
 20
2.6953668E+002
 11
1.221508E+002
 21
2.5753668E+002
  0
LINE
  8
MED-1
  6
CONTINUOUS
 62
40
 10
1.026508E+002
 20
2.6953668E+002
 11
1.026508E+002
 21
2.7153668E+002
  0
LINE
  8
MED-1
  6
CONTINUOUS
 62
40
 10
1.026508E+002
 20
2.5553668E+002
 11
1.026508E+002
 21
2.5753668E+002
  0
CIRCLE
  8
MED-1
  6
CONTINUOUS
 62
40
 10
9.3150802E+001
 20
2.6353668E+002
 40
3.5
  0
ARC
  8
MED-1
  6
CONTINUOUS
 62
40
 10
1.101508E+002
 20
2.6695335E+002
 40
6.0833332
 50
4.888791E+001
 51
9.0E+001
  0
ARC
  8
MED-1
  6
CONTINUOUS
 62
40
 10
1.101508E+002
 20
2.6695335E+002
 40
6.0833333
 50
9.0E+001
 51
1.3111209E+002
  0
LINE
  8
MED-1
  6
CONTINUOUS
 62
40
 10
1.151508E+002
 20
2.5778668E+002
 11
1.051508E+002
 21
2.5778668E+002
  0
LINE
  8
MED-1
  6
CONTINUOUS
 62
40
 10
1.051508E+002
 20
2.6928668E+002
 11
1.151508E+002
 21
2.6928668E+002
  0
LINE
  8
MED-1
  6
CONTINUOUS
 62
40
 10
1.151508E+002
 20
2.6928668E+002
 11
1.1515081E+002
 21
2.6903669E+002
  0
LINE
  8
MED-1
  6
CONTINUOUS
 62
40
 10
1.1515081E+002
 20
2.5803666E+002
 11
1.151508E+002
 21
2.5778668E+002
  0
LINE
  8
MED-1
  6
CONTINUOUS
 62
40
 10
1.051508E+002
 20
2.5778668E+002
 11
1.0515081E+002
 21
2.5803666E+002
  0
LINE
  8
MED-1
  6
CONTINUOUS
 62
40
 10
1.0515081E+002
 20
2.6903669E+002
 11
1.051508E+002
 21
2.6928668E+002
  0
ARC
  8
MED-1
  6
CONTINUOUS
 62
40
 10
9.3150802E+001
 20
2.6353668E+002
 40
5.5
 50
9.0E+001
 51
1.8E+002
  0
ARC
  8
MED-1
  6
CONTINUOUS
 62
40
 10
9.3150802E+001
 20
2.6353668E+002
 40
5.5
 50
1.8E+002
 51
2.7E+002
  0
LINE
  8
MED-1
  6
CONTINUOUS
 62
40
 10
1.0494599E+002
 20
2.6903668E+002
 11
1.176508E+002
 21
2.6903668E+002
  0
LINE
  8
MED-1
  6
CONTINUOUS
 62
40
 10
1.0494599E+002
 20
2.6903668E+002
 11
1.0321105E+002
 21
2.6903668E+002
  0
LINE
  8
MED-1
  6
CONTINUOUS
 62
40
 10
1.0321105E+002
 20
2.6903668E+002
 11
9.3150802E+001
 21
2.6903668E+002
  0
LINE
  8
MED-1
  6
CONTINUOUS
 62
40
 10
9.3150802E+001
 20
2.5803668E+002
 11
1.0321105E+002
 21
2.5803668E+002
  0
LINE
  8
MED-1
  6
CONTINUOUS
 62
40
 10
1.0321105E+002
 20
2.5803668E+002
 11
1.0494599E+002
 21
2.5803668E+002
  0
LINE
  8
MED-1
  6
CONTINUOUS
 62
40
 10
1.176508E+002
 20
2.5803668E+002
 11
1.0494599E+002
 21
2.5803668E+002
  0
LINE
  8
MED-1
  6
CONTINUOUS
 62
40
 10
1.0494599E+002
 20
2.5803668E+002
 11
1.0494599E+002
 21
2.6903668E+002
  0
LINE
  8
MED-1
  6
CONTINUOUS
 62
40
 10
1.176508E+002
 20
2.6903668E+002
 11
1.1765081E+002
 21
2.6778669E+002
  0
LINE
  8
MED-1
  6
CONTINUOUS
 62
40
 10
1.176508E+002
 20
2.5928668E+002
 11
1.176508E+002
 21
2.5803668E+002
  0
LINE
  8
MED-1
  6
CONTINUOUS
 62
40
 10
8.2650802E+001
 20
2.6075904E+002
 11
8.2651052E+001
 21
2.6000372E+002
  0
LINE
  8
MED-1
  6
CONTINUOUS
 62
40
 10
8.2650802E+001
 20
2.6075904E+002
 11
8.2650802E+001
 21
2.6077489E+002
  0
LINE
  8
MED-1
  6
CONTINUOUS
 62
40
 10
8.2650802E+001
 20
2.6629848E+002
 11
8.2650802E+001
 21
2.6077489E+002
  0
LINE
  8
MED-1
  6
CONTINUOUS
 62
40
 10
8.2650802E+001
 20
2.6703694E+002
 11
8.2650802E+001
 21
2.6636317E+002
  0
LINE
  8
MED-1
  6
CONTINUOUS
 62
40
 10
8.2650802E+001
 20
2.6629848E+002
 11
8.2650802E+001
 21
2.6636317E+002
  0
LINE
  8
MED-1
  6
CONTINUOUS
 62
40
 10
8.2650802E+001
 20
2.6721198E+002
 11
8.2650802E+001
 21
2.6703694E+002
  0
LINE
  8
MED-1
  6
CONTINUOUS
 62
40
 10
8.5850792E+001
 20
2.5878665E+002
 11
8.5850792E+001
 21
2.595249E+002
  0
LINE
  8
MED-1
  6
CONTINUOUS
 62
40
 10
9.0378162E+001
 20
2.5878668E+002
 11
9.0095172E+001
 21
2.5878668E+002
  0
LINE
  8
MED-1
  6
CONTINUOUS
 62
40
 10
9.0095172E+001
 20
2.5878668E+002
 11
8.9812242E+001
 21
2.5878668E+002
  0
LINE
  8
MED-1
  6
CONTINUOUS
 62
40
 10
8.9812242E+001
 20
2.5878668E+002
 11
8.9529422E+001
 21
2.5878668E+002
  0
LINE
  8
MED-1
  6
CONTINUOUS
 62
40
 10
8.9529422E+001
 20
2.5878668E+002
 11
8.9246322E+001
 21
2.5878668E+002
  0
LINE
  8
MED-1
  6
CONTINUOUS
 62
40
 10
8.9246322E+001
 20
2.5878668E+002
 11
8.8962792E+001
 21
2.5878668E+002
  0
LINE
  8
MED-1
  6
CONTINUOUS
 62
40
 10
8.8962792E+001
 20
2.5878668E+002
 11
8.8680402E+001
 21
2.5878668E+002
  0
LINE
  8
MED-1
  6
CONTINUOUS
 62
40
 10
8.8680402E+001
 20
2.5878668E+002
 11
8.8399702E+001
 21
2.5878668E+002
  0
LINE
  8
MED-1
  6
CONTINUOUS
 62
40
 10
8.8399702E+001
 20
2.5878668E+002
 11
8.8114482E+001
 21
2.5878668E+002
  0
LINE
  8
MED-1
  6
CONTINUOUS
 62
40
 10
8.8114482E+001
 20
2.5878668E+002
 11
8.7822592E+001
 21
2.5878668E+002
  0
LINE
  8
MED-1
  6
CONTINUOUS
 62
40
 10
8.7822592E+001
 20
2.5878668E+002
 11
8.7548562E+001
 21
2.5878667E+002
  0
LINE
  8
MED-1
  6
CONTINUOUS
 62
40
 10
8.7548562E+001
 20
2.5878667E+002
 11
8.7300812E+001
 21
2.5878667E+002
  0
LINE
  8
MED-1
  6
CONTINUOUS
 62
40
 10
8.7300812E+001
 20
2.5878667E+002
 11
8.6982632E+001
 21
2.5878667E+002
  0
LINE
  8
MED-1
  6
CONTINUOUS
 62
40
 10
8.6982632E+001
 20
2.5878667E+002
 11
8.6492572E+001
 21
2.5878666E+002
  0
LINE
  8
MED-1
  6
CONTINUOUS
 62
40
 10
8.6492572E+001
 20
2.5878666E+002
 11
8.5850792E+001
 21
2.5878665E+002
  0
LINE
  8
MED-1
  6
CONTINUOUS
 62
40
 10
8.9388412E+001
 20
2.5952489E+002
 11
8.5850792E+001
 21
2.595249E+002
  0
LINE
  8
MED-1
  6
CONTINUOUS
 62
40
 10
8.2774272E+001
 20
2.599176E+002
 11
8.2778202E+001
 21
2.5992224E+002
  0
ARC
  8
MED-1
  6
CONTINUOUS
 62
40
 10
9.3765637E+001
 20
2.5058792E+002
 40
1.441712E+001
 50
1.3958391E+002
 51
1.3965059E+002
  0
LINE
  8
MED-1
  6
CONTINUOUS
 62
40
 10
8.2789072E+001
 20
2.5993502E+002
 11
8.2806972E+001
 21
2.5995608E+002
  0
LINE
  8
MED-1
  6
CONTINUOUS
 62
40
 10
8.2806972E+001
 20
2.5995608E+002
 11
8.2832892E+001
 21
2.5998658E+002
  0
LINE
  8
MED-1
  6
CONTINUOUS
 62
40
 10
8.2832892E+001
 20
2.5998658E+002
 11
8.2867402E+001
 21
2.6002717E+002
  0
LINE
  8
MED-1
  6
CONTINUOUS
 62
40
 10
8.2867402E+001
 20
2.6002717E+002
 11
8.2904082E+001
 21
2.6007032E+002
  0
LINE
  8
MED-1
  6
CONTINUOUS
 62
40
 10
8.2904082E+001
 20
2.6007032E+002
 11
8.2940852E+001
 21
2.6011358E+002
  0
LINE
  8
MED-1
  6
CONTINUOUS
 62
40
 10
8.2940852E+001
 20
2.6011358E+002
 11
8.3000012E+001
 21
2.6018318E+002
  0
LINE
  8
MED-1
  6
CONTINUOUS
 62
40
 10
8.3000012E+001
 20
2.6018318E+002
 11
8.3105522E+001
 21
2.603073E+002
  0
LINE
  8
MED-1
  6
CONTINUOUS
 62
40
 10
8.3105522E+001
 20
2.603073E+002
 11
8.3252432E+001
 21
2.6048011E+002
  0
LINE
  8
MED-1
  6
CONTINUOUS
 62
40
 10
8.5850792E+001
 20
2.5878665E+002
 11
8.5677852E+001
 21
2.5878974E+002
  0
ARC
  8
MED-1
  6
CONTINUOUS
 62
40
 10
8.5853311E+001
 20
2.6382957E+002
 40
5.0428806
 50
2.6606087E+002
 51
2.6800608E+002
  0
ARC
  8
MED-1
  6
CONTINUOUS
 62
40
 10
8.5849227E+001
 20
2.6365737E+002
 40
4.8708089
 50
2.6397496E+002
 51
2.6596964E+002
  0
ARC
  8
MED-1
  6
CONTINUOUS
 62
40
 10
8.5837015E+001
 20
2.6354993E+002
 40
4.7626796
 50
2.6196142E+002
 51
2.639854E+002
  0
ARC
  8
MED-1
  6
CONTINUOUS
 62
40
 10
8.5835899E+001
 20
2.6351193E+002
 40
4.7249057
 50
2.5988441E+002
 51
2.6191039E+002
  0
ARC
  8
MED-1
  6
CONTINUOUS
 62
40
 10
8.5828315E+001
 20
2.6348776E+002
 40
4.6997785
 50
2.5789897E+002
 51
2.5992367E+002
  0
ARC
  8
MED-1
  6
CONTINUOUS
 62
40
 10
8.5833565E+001
 20
2.6349163E+002
 40
4.7046604
 50
2.5583385E+002
 51
2.5784633E+002
  0
ARC
  8
MED-1
  6
CONTINUOUS
 62
40
 10
8.582162E+001
 20
2.634486E+002
 40
4.6600159
 50
2.5381979E+002
 51
2.5584678E+002
  0
ARC
  8
MED-1
  6
CONTINUOUS
 62
40
 10
8.5806027E+001
 20
2.6338029E+002
 40
4.5900692
 50
2.5171292E+002
 51
2.5376911E+002
  0
ARC
  8
MED-1
  6
CONTINUOUS
 62
40
 10
8.583931E+001
 20
2.6352016E+002
 40
4.7333367
 50
2.4987768E+002
 51
2.5186164E+002
  0
ARC
  8
MED-1
  6
CONTINUOUS
 62
40
 10
8.5969601E+001
 20
2.6387138E+002
 40
5.1079465
 50
2.480334E+002
 51
2.4986077E+002
  0
ARC
  8
MED-1
  6
CONTINUOUS
 62
40
 10
8.5834915E+001
 20
2.6347161E+002
 40
4.6868783
 50
2.4570623E+002
 51
2.4773225E+002
  0
ARC
  8
MED-1
  6
CONTINUOUS
 62
40
 10
8.5544453E+001
 20
2.6281067E+002
 40
3.9649732
 50
2.4314489E+002
 51
2.456025E+002
  0
ARC
  8
MED-1
  6
CONTINUOUS
 62
40
 10
8.5909652E+001
 20
2.6371577E+002
 40
4.9381325
 50
2.4225205E+002
 51
2.4410858E+002
  0
ARC
  8
MED-1
  6
CONTINUOUS
 62
40
 10
9.0085536E+001
 20
2.7171419E+002
 40
1.3961015E+001
 50
2.4177296E+002
 51
2.4236799E+002
  0
ARC
  8
MED-1
  6
CONTINUOUS
 62
40
 10
8.5546422E+001
 20
2.6288344E+002
 40
4.0374599
 50
2.3658323E+002
 51
2.392557E+002
  0
ARC
  8
MED-1
  6
CONTINUOUS
 62
40
 10
8.5327125E+001
 20
2.6257561E+002
 40
3.6597724
 50
2.3219282E+002
 51
2.3679483E+002
  0
ARC
  8
MED-1
  6
CONTINUOUS
 62
40
 10
8.9016899E+001
 20
2.6786743E+002
 40
1.0107922E+001
 50
2.3185911E+002
 51
2.3405639E+002
  0
LINE
  8
MED-1
  6
CONTINUOUS
 62
40
 10
8.5850792E+001
 20
2.595249E+002
 11
8.5704732E+001
 21
2.595275E+002
  0
ARC
  8
MED-1
  6
CONTINUOUS
 62
40
 10
8.5852464E+001
 20
2.6378267E+002
 40
4.2577323
 50
2.6606572E+002
 51
2.6801159E+002
  0
ARC
  8
MED-1
  6
CONTINUOUS
 62
40
 10
8.5849327E+001
 20
2.6363719E+002
 40
4.1123802
 50
2.6397486E+002
 51
2.6597025E+002
  0
ARC
  8
MED-1
  6
CONTINUOUS
 62
40
 10
8.5838662E+001
 20
2.635465E+002
 40
4.0210735
 50
2.6196568E+002
 51
2.6399035E+002
  0
ARC
  8
MED-1
  6
CONTINUOUS
 62
40
 10
8.5837971E+001
 20
2.6351458E+002
 40
3.9893757
 50
2.598849E+002
 51
2.6191145E+002
  0
ARC
  8
MED-1
  6
CONTINUOUS
 62
40
 10
8.5831739E+001
 20
2.6349466E+002
 40
3.9686668
 50
2.5789778E+002
 51
2.5992295E+002
  0
ARC
  8
MED-1
  6
CONTINUOUS
 62
40
 10
8.583597E+001
 20
2.6349776E+002
 40
3.9725872
 50
2.5583462E+002
 51
2.5784749E+002
  0
ARC
  8
MED-1
  6
CONTINUOUS
 62
40
 10
8.5826079E+001
 20
2.6346163E+002
 40
3.9351377
 50
2.5381821E+002
 51
2.5584552E+002
  0
ARC
  8
MED-1
  6
CONTINUOUS
 62
40
 10
8.5812717E+001
 20
2.6340436E+002
 40
3.8764107
 50
2.5171554E+002
 51
2.5377197E+002
  0
ARC
  8
MED-1
  6
CONTINUOUS
 62
40
 10
8.5841218E+001
 20
2.6352231E+002
 40
3.9973634
 50
2.49874E+002
 51
2.5185808E+002
  0
ARC
  8
MED-1
  6
CONTINUOUS
 62
40
 10
8.5950979E+001
 20
2.6381962E+002
 40
4.3142848
 50
2.4803655E+002
 51
2.4986391E+002
  0
ARC
  8
MED-1
  6
CONTINUOUS
 62
40
 10
8.5837296E+001
 20
2.6348151E+002
 40
3.958255
 50
2.4570611E+002
 51
2.4773223E+002
  0
ARC
  8
MED-1
  6
CONTINUOUS
 62
40
 10
8.5591815E+001
 20
2.6292295E+002
 40
3.3481617
 50
2.4314436E+002
 51
2.456024E+002
  0
ARC
  8
MED-1
  6
CONTINUOUS
 62
40
 10
8.590014E+001
 20
2.6368699E+002
 40
4.1696748
 50
2.4225052E+002
 51
2.4410739E+002
  0
ARC
  8
MED-1
  6
CONTINUOUS
 62
40
 10
8.9429211E+001
 20
2.7044677E+002
 40
1.1795207E+001
 50
2.4177318E+002
 51
2.4236806E+002
  0
ARC
  8
MED-1
  6
CONTINUOUS
 62
40
 10
8.5593118E+001
 20
2.6298381E+002
 40
3.4086908
 50
2.3658113E+002
 51
2.3925458E+002
  0
ARC
  8
MED-1
  6
CONTINUOUS
 62
40
 10
8.5407944E+001
 20
2.627236E+002
 40
3.0895375
 50
2.3218539E+002
 51
2.367897E+002
  0
ARC
  8
MED-1
  6
CONTINUOUS
 62
40
 10
8.8523056E+001
 20
2.6719058E+002
 40
8.532872
 50
2.3185275E+002
 51
2.3405113E+002
  0
LINE
  8
MED-1
  6
CONTINUOUS
 62
40
 10
8.2774272E+001
 20
2.599176E+002
 11
8.2762972E+001
 21
2.5992712E+002
  0
ARC
  8
MED-1
  6
CONTINUOUS
 62
40
 10
8.1779588E+001
 20
2.5874772E+002
 40
1.5355867
 50
5.0178631E+001
 51
5.0696498E+001
  0
ARC
  8
MED-1
  6
CONTINUOUS
 62
40
 10
8.1961921E+001
 20
2.589666E+002
 40
1.2507263
 50
5.0808572E+001
 51
5.140246E+001
  0
ARC
  8
MED-1
  6
CONTINUOUS
 62
40
 10
8.2098206E+001
 20
2.5913563E+002
 40
1.0336027
 50
5.1461535E+001
 51
5.2133791E+001
  0
ARC
  8
MED-1
  6
CONTINUOUS
 62
40
 10
8.2187359E+001
 20
2.5924942E+002
 40
8.8904782E-001
 50
5.2168206E+001
 51
5.2898169E+001
  0
ARC
  8
MED-1
  6
CONTINUOUS
 62
40
 10
8.2255554E+001
 20
2.5933826E+002
 40
7.7705764E-001
 50
5.2957234E+001
 51
5.3736617E+001
  0
ARC
  8
MED-1
  6
CONTINUOUS
 62
40
 10
8.2301595E+001
 20
2.5939894E+002
 40
7.008952E-001
 50
5.3837084E+001
 51
5.4639992E+001
  0
ARC
  8
MED-1
  6
CONTINUOUS
 62
40
 10
8.2381034E+001
 20
2.5950883E+002
 40
5.6530546E-001
 50
5.4760529E+001
 51
5.5700719E+001
  0
ARC
  8
MED-1
  6
CONTINUOUS
 62
40
 10
8.2456987E+001
 20
2.5961789E+002
 40
4.3241601E-001
 50
5.5871809E+001
 51
5.7037154E+001
  0
ARC
  8
MED-1
  6
CONTINUOUS
 62
40
 10
8.245043E+001
 20
2.5961248E+002
 40
4.405232E-001
 50
5.6703906E+001
 51
5.7729603E+001
  0
ARC
  8
MED-1
  6
CONTINUOUS
 62
40
 10
8.2286843E+001
 20
2.5935465E+002
 40
7.4587689E-001
 50
5.7679239E+001
 51
5.8203133E+001
  0
ARC
  8
MED-1
  6
CONTINUOUS
 62
40
 10
8.2522078E+001
 20
2.5972106E+002
 40
3.1058211E-001
 50
5.9469723E+001
 51
6.0913372E+001
  0
ARC
  8
MED-1
  6
CONTINUOUS
 62
40
 10
8.2555782E+001
 20
2.5978055E+002
 40
2.4220825E-001
 50
6.1039162E+001
 51
6.3638087E+001
  0
ARC
  8
MED-1
  6
CONTINUOUS
 62
40
 10
8.2422228E+001
 20
2.5953148E+002
 40
5.2475653E-001
 50
6.2647841E+001
 51
6.4147429E+001
  0
LINE
  8
MED-1
  6
CONTINUOUS
 62
40
 10
8.3252432E+001
 20
2.6048011E+002
 11
8.3225522E+001
 21
2.6050234E+002
  0
ARC
  8
MED-1
  6
CONTINUOUS
 62
40
 10
8.2400084E+001
 20
2.5947649E+002
 40
1.3167097
 50
5.1178618E+001
 51
5.2685371E+001
  0
ARC
  8
MED-1
  6
CONTINUOUS
 62
40
 10
8.2423086E+001
 20
2.5950408E+002
 40
1.2808214
 50
5.2755471E+001
 51
5.4292063E+001
  0
ARC
  8
MED-1
  6
CONTINUOUS
 62
40
 10
8.2436622E+001
 20
2.5952374E+002
 40
1.2569586
 50
5.4270085E+001
 51
5.5825653E+001
  0
ARC
  8
MED-1
  6
CONTINUOUS
 62
40
 10
8.2443693E+001
 20
2.5953217E+002
 40
1.2460141
 50
5.5876972E+001
 51
5.7436414E+001
  0
ARC
  8
MED-1
  6
CONTINUOUS
 62
40
 10
8.2447712E+001
 20
2.595395E+002
 40
1.2376739
 50
5.7410602E+001
 51
5.897135E+001
  0
ARC
  8
MED-1
  6
CONTINUOUS
 62
40
 10
8.2449261E+001
 20
2.5954039E+002
 40
1.236113
 50
5.9011565E+001
 51
6.0566537E+001
  0
ARC
  8
MED-1
  6
CONTINUOUS
 62
40
 10
8.2457241E+001
 20
2.5955426E+002
 40
1.2201121
 50
6.0572852E+001
 51
6.214333E+001
  0
ARC
  8
MED-1
  6
CONTINUOUS
 62
40
 10
8.2469224E+001
 20
2.5957518E+002
 40
1.1960163
 50
6.2182556E+001
 51
6.3781316E+001
  0
ARC
  8
MED-1
  6
CONTINUOUS
 62
40
 10
8.245482E+001
 20
2.5955124E+002
 40
1.2238562
 50
6.3671434E+001
 51
6.5223549E+001
  0
ARC
  8
MED-1
  6
CONTINUOUS
 62
40
 10
8.2421157E+001
 20
2.5947717E+002
 40
1.30522
 50
6.5244604E+001
 51
6.6688969E+001
  0
ARC
  8
MED-1
  6
CONTINUOUS
 62
40
 10
8.246418E+001
 20
2.5956616E+002
 40
1.2064724
 50
6.6892865E+001
 51
6.8477617E+001
  0
ARC
  8
MED-1
  6
CONTINUOUS
 62
40
 10
8.2525517E+001
 20
2.5971887E+002
 40
1.0419151
 50
6.8534757E+001
 51
7.0412085E+001
  0
ARC
  8
MED-1
  6
CONTINUOUS
 62
40
 10
8.2424157E+001
 20
2.5948376E+002
 40
1.297506
 50
6.9675794E+001
 51
7.1091114E+001
  0
ARC
  8
MED-1
  6
CONTINUOUS
 62
40
 10
8.1672522E+001
 20
2.5730414E+002
 40
3.6030852
 50
7.1015803E+001
 51
7.1476784E+001
  0
ARC
  8
MED-1
  6
CONTINUOUS
 62
40
 10
8.2513301E+001
 20
2.597034E+002
 40
1.0615833
 50
7.3366259E+001
 51
7.5380008E+001
  0
ARC
  8
MED-1
  6
CONTINUOUS
 62
40
 10
8.2541658E+001
 20
2.5982011E+002
 40
9.4149625E-001
 50
7.5257102E+001
 51
7.8770034E+001
  0
ARC
  8
MED-1
  6
CONTINUOUS
 62
40
 10
8.2168769E+001
 20
2.5826193E+002
 40
2.5432237
 50
7.7366389E+001
 51
7.9073593E+001
  0
LINE
  8
MED-1
  6
CONTINUOUS
 62
40
 10
8.2650832E+001
 20
2.6003665E+002
 11
6.3825721E+001
 21
2.6003665E+002
  0
LINE
  8
MED-1
  6
CONTINUOUS
 62
40
 10
6.2979608E+001
 20
2.6703664E+002
 11
8.2650802E+001
 21
2.6703694E+002
  0
LINE
  8
MED-1
  6
CONTINUOUS
 62
40
 10
8.2650832E+001
 20
2.6636315E+002
 11
8.2670582E+001
 21
2.6637001E+002
  0
ARC
  8
MED-1
  6
CONTINUOUS
 62
40
 10
8.2247414E+001
 20
2.6755635E+002
 40
1.2595459
 50
2.8963145E+002
 51
2.9058286E+002
  0
ARC
  8
MED-1
  6
CONTINUOUS
 62
40
 10
8.2241454E+001
 20
2.6757023E+002
 40
1.2746414
 50
2.9061423E+002
 51
2.9155512E+002
  0
ARC
  8
MED-1
  6
CONTINUOUS
 62
40
 10
8.2245608E+001
 20
2.6756092E+002
 40
1.2644526
 50
2.9153509E+002
 51
2.9248424E+002
  0
ARC
  8
MED-1
  6
CONTINUOUS
 62
40
 10
8.2258948E+001
 20
2.6752614E+002
 40
1.22722
 50
2.9252969E+002
 51
2.9350872E+002
  0
ARC
  8
MED-1
  6
CONTINUOUS
 62
40
 10
8.2262935E+001
 20
2.6751706E+002
 40
1.2173006
 50
2.9350717E+002
 51
2.9449539E+002
  0
ARC
  8
MED-1
  6
CONTINUOUS
 62
40
 10
8.2258266E+001
 20
2.6752637E+002
 40
1.2277111
 50
2.9451348E+002
 51
2.9549395E+002
  0
ARC
  8
MED-1
  6
CONTINUOUS
 62
40
 10
8.2261595E+001
 20
2.6751857E+002
 40
1.2192352
 50
2.9551056E+002
 51
2.965009E+002
  0
ARC
  8
MED-1
  6
CONTINUOUS
 62
40
 10
8.2273155E+001
 20
2.6749461E+002
 40
1.1926387
 50
2.9651741E+002
 51
2.9753347E+002
  0
ARC
  8
MED-1
  6
CONTINUOUS
 62
40
 10
8.2259964E+001
 20
2.6752301E+002
 40
1.223919
 50
2.9746652E+002
 51
2.9845499E+002
  0
ARC
  8
MED-1
  6
CONTINUOUS
 62
40
 10
8.2220208E+001
 20
2.675952E+002
 40
1.3063256
 50
2.984795E+002
 51
2.9940221E+002
  0
ARC
  8
MED-1
  6
CONTINUOUS
 62
40
 10
8.2268815E+001
 20
2.6750283E+002
 40
1.2019925
 50
2.9954533E+002
 51
3.005675E+002
  0
ARC
  8
MED-1
  6
CONTINUOUS
 62
40
 10
8.2354947E+001
 20
2.6735548E+002
 40
1.0313174
 50
3.0061046E+002
 51
3.0183443E+002
  0
ARC
  8
MED-1
  6
CONTINUOUS
 62
40
 10
8.2228951E+001
 20
2.6757839E+002
 40
1.2872044
 50
3.0136535E+002
 51
3.0228792E+002
  0
ARC
  8
MED-1
  6
CONTINUOUS
 62
40
 10
8.1035487E+001
 20
2.6947439E+002
 40
3.5275486
 50
3.0222512E+002
 51
3.0252995E+002
  0
ARC
  8
MED-1
  6
CONTINUOUS
 62
40
 10
8.2342356E+001
 20
2.6738386E+002
 40
1.0624782
 50
3.037341E+002
 51
3.0504502E+002
  0
ARC
  8
MED-1
  6
CONTINUOUS
 62
40
 10
8.2401444E+001
 20
2.6730212E+002
 40
9.6163213E-001
 50
3.0495919E+002
 51
3.0720721E+002
  0
ARC
  8
MED-1
  6
CONTINUOUS
 62
40
 10
8.1430783E+001
 20
2.6864904E+002
 40
2.6216747
 50
3.0630252E+002
 51
3.0738644E+002
  0
LINE
  8
MED-1
  6
CONTINUOUS
 62
40
 10
8.3022632E+001
 20
2.6656596E+002
 11
8.3139672E+001
 21
2.6665587E+002
  0
ARC
  8
MED-1
  6
CONTINUOUS
 62
40
 10
8.5836589E+001
 20
2.6302638E+002
 40
4.52179
 50
1.2476158E+002
 51
1.2661441E+002
  0
ARC
  8
MED-1
  6
CONTINUOUS
 62
40
 10
8.5751386E+001
 20
2.6313753E+002
 40
4.3818995
 50
1.2277968E+002
 51
1.2467501E+002
  0
ARC
  8
MED-1
  6
CONTINUOUS
 62
40
 10
8.5703314E+001
 20
2.6321432E+002
 40
4.2913134
 50
1.2087379E+002
 51
1.2279511E+002
  0
ARC
  8
MED-1
  6
CONTINUOUS
 62
40
 10
8.5681922E+001
 20
2.6324225E+002
 40
4.2563626
 50
1.1889484E+002
 51
1.2081958E+002
  0
ARC
  8
MED-1
  6
CONTINUOUS
 62
40
 10
8.5673564E+001
 20
2.6326293E+002
 40
4.2342209
 50
1.1700678E+002
 51
1.1893104E+002
  0
ARC
  8
MED-1
  6
CONTINUOUS
 62
40
 10
8.5672151E+001
 20
2.6325789E+002
 40
4.2380728
 50
1.1504523E+002
 51
1.169588E+002
  0
ARC
  8
MED-1
  6
CONTINUOUS
 62
40
 10
8.5654733E+001
 20
2.6329577E+002
 40
4.196385
 50
1.131201E+002
 51
1.1504871E+002
  0
ARC
  8
MED-1
  6
CONTINUOUS
 62
40
 10
8.5625858E+001
 20
2.6335603E+002
 40
4.1296255
 50
1.1112132E+002
 51
1.1307995E+002
  0
ARC
  8
MED-1
  6
CONTINUOUS
 62
40
 10
8.5680032E+001
 20
2.6324315E+002
 40
4.254451
 50
1.093624E+002
 51
1.1125412E+002
  0
ARC
  8
MED-1
  6
CONTINUOUS
 62
40
 10
8.5788177E+001
 20
2.6293155E+002
 40
4.5842867
 50
1.0760138E+002
 51
1.0934639E+002
  0
ARC
  8
MED-1
  6
CONTINUOUS
 62
40
 10
8.5653182E+001
 20
2.6328728E+002
 40
4.2044368
 50
1.0537832E+002
 51
1.0731379E+002
  0
ARC
  8
MED-1
  6
CONTINUOUS
 62
40
 10
8.5475512E+001
 20
2.6390916E+002
 40
3.5577185
 50
1.0292874E+002
 51
1.0527537E+002
  0
ARC
  8
MED-1
  6
CONTINUOUS
 62
40
 10
8.5739975E+001
 20
2.6307749E+002
 40
4.4280525
 50
1.0208281E+002
 51
1.0385629E+002
  0
ARC
  8
MED-1
  6
CONTINUOUS
 62
40
 10
8.7448369E+001
 20
2.55205E+002
 40
1.2483768E+001
 50
1.0161676E+002
 51
1.021867E+002
  0
ARC
  8
MED-1
  6
CONTINUOUS
 62
40
 10
8.5513782E+001
 20
2.6386253E+002
 40
3.6171989
 50
9.6661872E+001
 51
9.9214096E+001
  0
ARC
  8
MED-1
  6
CONTINUOUS
 62
40
 10
8.5484838E+001
 20
2.6420728E+002
 40
3.2714371
 50
9.2458936E+001
 51
9.6858818E+001
  0
ARC
  8
MED-1
  6
CONTINUOUS
 62
40
 10
8.6010438E+001
 20
2.5849015E+002
 40
9.0102017
 50
9.2133274E+001
 51
9.4238674E+001
  0
LINE
  8
MED-1
  6
CONTINUOUS
 62
40
 10
8.5675042E+001
 20
2.674941E+002
 11
8.5903952E+001
 21
2.6749413E+002
  0
LINE
  8
MED-1
  6
CONTINUOUS
 62
40
 10
8.5903952E+001
 20
2.6749413E+002
 11
8.6132822E+001
 21
2.6749421E+002
  0
LINE
  8
MED-1
  6
CONTINUOUS
 62
40
 10
8.6132822E+001
 20
2.6749421E+002
 11
8.6361592E+001
 21
2.6749434E+002
  0
LINE
  8
MED-1
  6
CONTINUOUS
 62
40
 10
8.6361592E+001
 20
2.6749434E+002
 11
8.6590602E+001
 21
2.6749451E+002
  0
LINE
  8
MED-1
  6
CONTINUOUS
 62
40
 10
8.6590602E+001
 20
2.6749451E+002
 11
8.6819952E+001
 21
2.6749473E+002
  0
LINE
  8
MED-1
  6
CONTINUOUS
 62
40
 10
8.6819952E+001
 20
2.6749473E+002
 11
8.7048372E+001
 21
2.67495E+002
  0
LINE
  8
MED-1
  6
CONTINUOUS
 62
40
 10
8.7048372E+001
 20
2.67495E+002
 11
8.7275432E+001
 21
2.674953E+002
  0
LINE
  8
MED-1
  6
CONTINUOUS
 62
40
 10
8.7275432E+001
 20
2.674953E+002
 11
8.7506142E+001
 21
2.6749565E+002
  0
LINE
  8
MED-1
  6
CONTINUOUS
 62
40
 10
8.7506142E+001
 20
2.6749565E+002
 11
8.7742242E+001
 21
2.6749606E+002
  0
LINE
  8
MED-1
  6
CONTINUOUS
 62
40
 10
8.7742242E+001
 20
2.6749606E+002
 11
8.7963912E+001
 21
2.6749647E+002
  0
LINE
  8
MED-1
  6
CONTINUOUS
 62
40
 10
8.7963912E+001
 20
2.6749647E+002
 11
8.8164312E+001
 21
2.6749687E+002
  0
LINE
  8
MED-1
  6
CONTINUOUS
 62
40
 10
8.8164312E+001
 20
2.6749687E+002
 11
8.8421682E+001
 21
2.6749745E+002
  0
LINE
  8
MED-1
  6
CONTINUOUS
 62
40
 10
8.8421682E+001
 20
2.6749745E+002
 11
8.8818082E+001
 21
2.6749846E+002
  0
LINE
  8
MED-1
  6
CONTINUOUS
 62
40
 10
8.8818082E+001
 20
2.6749846E+002
 11
8.9337212E+001
 21
2.6749984E+002
  0
LINE
  8
MED-1
  6
CONTINUOUS
 62
40
 10
8.2650832E+001
 20
2.6703692E+002
 11
8.2671202E+001
 21
2.6701111E+002
  0
LINE
  8
MED-1
  6
CONTINUOUS
 62
40
 10
8.2671202E+001
 20
2.6701111E+002
 11
8.2693492E+001
 21
2.6698287E+002
  0
LINE
  8
MED-1
  6
CONTINUOUS
 62
40
 10
8.2693492E+001
 20
2.6698287E+002
 11
8.2717652E+001
 21
2.6695227E+002
  0
LINE
  8
MED-1
  6
CONTINUOUS
 62
40
 10
8.2717652E+001
 20
2.6695227E+002
 11
8.2744432E+001
 21
2.6691835E+002
  0
LINE
  8
MED-1
  6
CONTINUOUS
 62
40
 10
8.2744432E+001
 20
2.6691835E+002
 11
8.2774172E+001
 21
2.6688068E+002
  0
LINE
  8
MED-1
  6
CONTINUOUS
 62
40
 10
8.2774172E+001
 20
2.6688068E+002
 11
8.2803292E+001
 21
2.6684379E+002
  0
LINE
  8
MED-1
  6
CONTINUOUS
 62
40
 10
8.2803292E+001
 20
2.6684379E+002
 11
8.2830632E+001
 21
2.6680916E+002
  0
LINE
  8
MED-1
  6
CONTINUOUS
 62
40
 10
8.2830632E+001
 20
2.6680916E+002
 11
8.2869642E+001
 21
2.6675975E+002
  0
LINE
  8
MED-1
  6
CONTINUOUS
 62
40
 10
8.2869642E+001
 20
2.6675975E+002
 11
8.2934602E+001
 21
2.6667746E+002
  0
LINE
  8
MED-1
  6
CONTINUOUS
 62
40
 10
8.2934602E+001
 20
2.6667746E+002
 11
8.3022632E+001
 21
2.6656596E+002
  0
LINE
  8
MED-1
  6
CONTINUOUS
 62
40
 10
8.5677762E+001
 20
2.6823235E+002
 11
8.5675042E+001
 21
2.674941E+002
  0
ARC
  8
MED-1
  6
CONTINUOUS
 62
40
 10
8.5677752E+001
 20
2.6323233E+002
 40
5.0
 50
8.999989E+001
 51
1.2725694E+002
  0
LINE
  8
MED-1
  6
CONTINUOUS
 62
40
 10
8.5677762E+001
 20
2.6823235E+002
 11
9.0314872E+001
 21
2.6824917E+002
  0
LINE
  8
MED-1
  6
CONTINUOUS
 62
40
 10
1.361508E+002
 20
2.6353668E+002
 11
1.361508E+002
 21
2.6573668E+002
  0
LINE
  8
MED-1
  6
CONTINUOUS
 62
40
 10
1.361508E+002
 20
2.6133668E+002
 11
1.361508E+002
 21
2.6353668E+002
  0
LINE
  8
MED-1
  6
CONTINUOUS
 62
40
 10
1.168508E+002
 20
2.6353668E+002
 11
1.168508E+002
 21
2.5958668E+002
  0
LINE
  8
MED-1
  6
CONTINUOUS
 62
40
 10
1.168508E+002
 20
2.6748668E+002
 11
1.168508E+002
 21
2.6353668E+002
  0
LINE
  8
MED-1
  6
CONTINUOUS
 62
40
 10
1.3615083E+002
 20
2.6133667E+002
 11
1.3585076E+002
 21
2.6103668E+002
  0
LINE
  8
MED-1
  6
CONTINUOUS
 62
40
 10
1.3585076E+002
 20
2.6353668E+002
 11
1.3585076E+002
 21
2.6103668E+002
  0
LINE
  8
MED-1
  6
CONTINUOUS
 62
40
 10
1.3585076E+002
 20
2.6603667E+002
 11
1.3585076E+002
 21
2.6353668E+002
  0
LINE
  8
MED-1
  6
CONTINUOUS
 62
40
 10
1.3585076E+002
 20
2.6603667E+002
 11
1.3615083E+002
 21
2.6573668E+002
  0
LINE
  8
MED-1
  6
CONTINUOUS
 62
40
 10
1.1715079E+002
 20
2.6353668E+002
 11
1.1715079E+002
 21
2.6778669E+002
  0
LINE
  8
MED-1
  6
CONTINUOUS
 62
40
 10
1.1715079E+002
 20
2.5928666E+002
 11
1.1715079E+002
 21
2.6353668E+002
  0
LINE
  8
MED-1
  6
CONTINUOUS
 62
40
 10
1.1715079E+002
 20
2.6778669E+002
 11
1.2015081E+002
 21
2.6778669E+002
  0
LINE
  8
MED-1
  6
CONTINUOUS
 62
40
 10
1.2015081E+002
 20
2.5928666E+002
 11
1.1715079E+002
 21
2.5928666E+002
  0
LINE
  8
MED-1
  6
CONTINUOUS
 62
40
 10
1.3585076E+002
 20
2.6103668E+002
 11
1.2215079E+002
 21
2.6103668E+002
  0
LINE
  8
MED-1
  6
CONTINUOUS
 62
40
 10
1.2215079E+002
 20
2.6603667E+002
 11
1.3585076E+002
 21
2.6603667E+002
  0
LINE
  8
MED-1
  6
CONTINUOUS
 62
40
 10
1.1715079E+002
 20
2.5928666E+002
 11
1.1713287E+002
 21
2.5928718E+002
  0
ARC
  8
MED-1
  6
CONTINUOUS
 62
40
 10
1.1714942E+002
 20
2.595671E+002
 40
2.8041036E-001
 50
2.6288609E+002
 51
2.6661708E+002
  0
ARC
  8
MED-1
  6
CONTINUOUS
 62
40
 10
1.1715192E+002
 20
2.5959161E+002
 40
3.0503748E-001
 50
2.5947651E+002
 51
2.6298923E+002
  0
ARC
  8
MED-1
  6
CONTINUOUS
 62
40
 10
1.1715406E+002
 20
2.5960345E+002
 40
3.1706532E-001
 50
2.5604193E+002
 51
2.5948726E+002
  0
ARC
  8
MED-1
  6
CONTINUOUS
 62
40
 10
1.1715298E+002
 20
2.595934E+002
 40
3.0705904E-001
 50
2.5216189E+002
 51
2.5578516E+002
  0
ARC
  8
MED-1
  6
CONTINUOUS
 62
40
 10
1.1715231E+002
 20
2.5959122E+002
 40
3.047772E-001
 50
2.4845281E+002
 51
2.5215739E+002
  0
ARC
  8
MED-1
  6
CONTINUOUS
 62
40
 10
1.1715319E+002
 20
2.5959157E+002
 40
3.0542888E-001
 50
2.4457189E+002
 51
2.4832358E+002
  0
ARC
  8
MED-1
  6
CONTINUOUS
 62
40
 10
1.1715342E+002
 20
2.595923E+002
 40
3.061851E-001
 50
2.4080823E+002
 51
2.44591E+002
  0
ARC
  8
MED-1
  6
CONTINUOUS
 62
40
 10
1.1715305E+002
 20
2.5958974E+002
 40
3.0377374E-001
 50
2.3678381E+002
 51
2.4063388E+002
  0
ARC
  8
MED-1
  6
CONTINUOUS
 62
40
 10
1.1715292E+002
 20
2.5959015E+002
 40
3.0404515E-001
 50
2.3297367E+002
 51
2.368458E+002
  0
ARC
  8
MED-1
  6
CONTINUOUS
 62
40
 10
1.1715366E+002
 20
2.5958996E+002
 40
3.0433578E-001
 50
2.2895445E+002
 51
2.3284168E+002
  0
ARC
  8
MED-1
  6
CONTINUOUS
 62
40
 10
1.1715227E+002
 20
2.5958856E+002
 40
3.0237185E-001
 50
2.2505287E+002
 51
2.289779E+002
  0
ARC
  8
MED-1
  6
CONTINUOUS
 62
40
 10
1.1714906E+002
 20
2.5958427E+002
 40
2.9706876E-001
 50
2.2090882E+002
 51
2.2490687E+002
  0
ARC
  8
MED-1
  6
CONTINUOUS
 62
40
 10
1.1715196E+002
 20
2.5958831E+002
 40
3.0190478E-001
 50
2.1721574E+002
 51
2.2112838E+002
  0
ARC
  8
MED-1
  6
CONTINUOUS
 62
40
 10
1.171637E+002
 20
2.5959688E+002
 40
3.1643519E-001
 50
2.1346611E+002
 51
2.1716585E+002
  0
ARC
  8
MED-1
  6
CONTINUOUS
 62
40
 10
1.1714777E+002
 20
2.5958385E+002
 40
2.9597588E-001
 50
2.090856E+002
 51
2.13062E+002
  0
ARC
  8
MED-1
  6
CONTINUOUS
 62
40
 10
1.1711703E+002
 20
2.5956614E+002
 40
2.604978E-001
 50
2.0440849E+002
 51
2.0896885E+002
  0
ARC
  8
MED-1
  6
CONTINUOUS
 62
40
 10
1.1715701E+002
 20
2.5959324E+002
 40
3.0821103E-001
 50
2.0230605E+002
 51
2.0592388E+002
  0
ARC
  8
MED-1
  6
CONTINUOUS
 62
40
 10
1.1743892E+002
 20
2.5971156E+002
 40
6.1393744E-001
 50
2.0089688E+002
 51
2.0253636E+002
  0
ARC
  8
MED-1
  6
CONTINUOUS
 62
40
 10
1.17118E+002
 20
2.5957016E+002
 40
2.6428833E-001
 50
1.9239051E+002
 51
1.970723E+002
  0
ARC
  8
MED-1
  6
CONTINUOUS
 62
40
 10
1.1709064E+002
 20
2.5956507E+002
 40
2.3647093E-001
 50
1.8481037E+002
 51
1.9260881E+002
  0
ARC
  8
MED-1
  6
CONTINUOUS
 62
40
 10
1.174406E+002
 20
2.5962555E+002
 40
5.9107578E-001
 50
1.8377179E+002
 51
1.8780825E+002
  0
LINE
  8
MED-1
  6
CONTINUOUS
 62
40
 10
1.168508E+002
 20
2.6748669E+002
 11
1.1685132E+002
 21
2.6750462E+002
  0
ARC
  8
MED-1
  6
CONTINUOUS
 62
40
 10
1.1713116E+002
 20
2.6748824E+002
 40
2.8031978E-001
 50
1.7291684E+002
 51
1.7664884E+002
  0
ARC
  8
MED-1
  6
CONTINUOUS
 62
40
 10
1.1715549E+002
 20
2.6748558E+002
 40
3.0479065E-001
 50
1.6947134E+002
 51
1.7298505E+002
  0
ARC
  8
MED-1
  6
CONTINUOUS
 62
40
 10
1.1716749E+002
 20
2.6748344E+002
 40
3.1697531E-001
 50
1.6604144E+002
 51
1.6948775E+002
  0
ARC
  8
MED-1
  6
CONTINUOUS
 62
40
 10
1.1715744E+002
 20
2.6748468E+002
 40
3.0692865E-001
 50
1.6218975E+002
 51
1.6581405E+002
  0
ARC
  8
MED-1
  6
CONTINUOUS
 62
40
 10
1.1715526E+002
 20
2.6748521E+002
 40
3.0469277E-001
 50
1.5845229E+002
 51
1.621579E+002
  0
ARC
  8
MED-1
  6
CONTINUOUS
 62
40
 10
1.1715546E+002
 20
2.6748448E+002
 40
3.0514626E-001
 50
1.5458622E+002
 51
1.5833891E+002
  0
ARC
  8
MED-1
  6
CONTINUOUS
 62
40
 10
1.171565E+002
 20
2.6748394E+002
 40
3.0631231E-001
 50
1.5079557E+002
 51
1.545793E+002
  0
ARC
  8
MED-1
  6
CONTINUOUS
 62
40
 10
1.171538E+002
 20
2.6748462E+002
 40
3.0362669E-001
 50
1.4680736E+002
 51
1.5065832E+002
  0
ARC
  8
MED-1
  6
CONTINUOUS
 62
40
 10
1.1715421E+002
 20
2.6748445E+002
 40
3.0406722E-001
 50
1.4295045E+002
 51
1.4682339E+002
  0
ARC
  8
MED-1
  6
CONTINUOUS
 62
40
 10
1.1715403E+002
 20
2.6748401E+002
 40
3.0418661E-001
 50
1.3897564E+002
 51
1.4286358E+002
  0
ARC
  8
MED-1
  6
CONTINUOUS
 62
40
 10
1.1715249E+002
 20
2.6748524E+002
 40
3.0222153E-001
 50
1.3503372E+002
 51
1.3895931E+002
  0
ARC
  8
MED-1
  6
CONTINUOUS
 62
40
 10
1.171485E+002
 20
2.6748844E+002
 40
2.9713827E-001
 50
1.3092888E+002
 51
1.349273E+002
  0
ARC
  8
MED-1
  6
CONTINUOUS
 62
40
 10
1.1715241E+002
 20
2.674854E+002
 40
3.0199921E-001
 50
1.2719806E+002
 51
1.3111096E+002
  0
ARC
  8
MED-1
  6
CONTINUOUS
 62
40
 10
1.1716099E+002
 20
2.674738E+002
 40
3.164215E-001
 50
1.2346603E+002
 51
1.2716593E+002
  0
ARC
  8
MED-1
  6
CONTINUOUS
 62
40
 10
1.1714796E+002
 20
2.6748986E+002
 40
2.9585019E-001
 50
1.1909999E+002
 51
1.2307642E+002
  0
ARC
  8
MED-1
  6
CONTINUOUS
 62
40
 10
1.1713026E+002
 20
2.6752032E+002
 40
2.6061959E-001
 50
1.1439616E+002
 51
1.1895635E+002
  0
ARC
  8
MED-1
  6
CONTINUOUS
 62
40
 10
1.1715736E+002
 20
2.6748045E+002
 40
3.0823548E-001
 50
1.1230619E+002
 51
1.1592374E+002
  0
ARC
  8
MED-1
  6
CONTINUOUS
 62
40
 10
1.172757E+002
 20
2.6719851E+002
 40
6.1400079E-001
 50
1.1089696E+002
 51
1.1253627E+002
  0
ARC
  8
MED-1
  6
CONTINUOUS
 62
40
 10
1.1713429E+002
 20
2.6751933E+002
 40
2.6443979E-001
 50
1.0238406E+002
 51
1.0706526E+002
  0
ARC
  8
MED-1
  6
CONTINUOUS
 62
40
 10
1.1712921E+002
 20
2.675468E+002
 40
2.3651374E-001
 50
9.4811077E+001
 51
1.0260811E+002
  0
ARC
  8
MED-1
  6
CONTINUOUS
 62
40
 10
1.1718983E+002
 20
2.6719676E+002
 40
5.9122232E-001
 50
9.3785931E+001
 51
9.7821489E+001
  0
LINE
  8
104
  6
CONTINUOUS
 62
1
 10
1.361508E+002
 20
2.6573671E+002
 11
1.221508E+002
 21
2.6573671E+002
  0
LINE
  8
104
  6
CONTINUOUS
 62
1
 10
1.361508E+002
 20
2.6133664E+002
 11
1.221508E+002
 21
2.6133664E+002
  0
ARC
  8
MED-1
  6
CONTINUOUS
 62
40
 10
1.101508E+002
 20
2.6012002E+002
 40
6.0833333
 50
2.7E+002
 51
3.1111209E+002
  0
ARC
  8
MED-1
  6
CONTINUOUS
 62
40
 10
1.101508E+002
 20
2.6012002E+002
 40
6.0833332
 50
2.2888791E+002
 51
2.7E+002
  0
LINE
  8
106
  6
CENTERLINE
 62
1
 10
1.4060521E+002
 20
2.6353668E+002
 11
6.319114E+001
 21
2.6353668E+002
  0
LINE
  8
104
  6
CONTINUOUS
 62
40
 10
3.2117884E+002
 20
2.3403668E+002
 11
3.5232594E+002
 21
2.3403668E+002
  0
LINE
  8
106
  6
CENTERLINE
 62
1
 10
3.3679844E+002
 20
2.4899868E+002
 11
3.3679844E+002
 21
2.3012568E+002
  0
CIRCLE
  8
104
  6
CONTINUOUS
 62
40
 10
3.3679844E+002
 20
2.0403668E+002
 40
6.0
  0
LINE
  8
104
  6
CONTINUOUS
 62
40
 10
3.3824184E+002
 20
2.0653668E+002
 11
3.3535504E+002
 21
2.0653668E+002
  0
LINE
  8
104
  6
CONTINUOUS
 62
40
 10
3.3535504E+002
 20
2.0653668E+002
 11
3.3391164E+002
 21
2.0403668E+002
  0
LINE
  8
104
  6
CONTINUOUS
 62
40
 10
3.3391164E+002
 20
2.0403668E+002
 11
3.3535504E+002
 21
2.0153668E+002
  0
LINE
  8
104
  6
CONTINUOUS
 62
40
 10
3.3535504E+002
 20
2.0153668E+002
 11
3.3824184E+002
 21
2.0153668E+002
  0
LINE
  8
104
  6
CONTINUOUS
 62
40
 10
3.3824184E+002
 20
2.0153668E+002
 11
3.3968524E+002
 21
2.0403668E+002
  0
LINE
  8
104
  6
CONTINUOUS
 62
40
 10
3.3968524E+002
 20
2.0403668E+002
 11
3.3824184E+002
 21
2.0653668E+002
  0
LINE
  8
104
  6
CONTINUOUS
 62
40
 10
3.1379844E+002
 20
2.3226868E+002
 11
3.1379844E+002
 21
1.7580468E+002
  0
LINE
  8
106
  6
CENTERLINE
 62
1
 10
3.1689774E+002
 20
2.2653668E+002
 11
3.6029844E+002
 21
2.2653668E+002
  0
LINE
  8
106
  6
CENTERLINE
 62
1
 10
3.1678744E+002
 20
1.8153668E+002
 11
3.6279844E+002
 21
1.8153668E+002
  0
LINE
  8
104
  6
CONTINUOUS
 62
40
 10
3.4504844E+002
 20
1.6828668E+002
 11
3.5279844E+002
 21
1.7331968E+002
  0
LINE
  8
104
  6
CONTINUOUS
 62
40
 10
3.5279844E+002
 20
1.7331968E+002
 11
3.5279844E+002
 21
1.7403668E+002
  0
LINE
  8
99
  6
CONTINUOUS
 62
1
 10
3.5279844E+002
 20
1.7331968E+002
 11
3.2079844E+002
 21
1.7331968E+002
  0
LINE
  8
104
  6
CONTINUOUS
 62
40
 10
3.2854844E+002
 20
1.6828668E+002
 11
3.2079844E+002
 21
1.7331968E+002
  0
LINE
  8
104
  6
CONTINUOUS
 62
40
 10
3.2079844E+002
 20
1.7331968E+002
 11
3.2079844E+002
 21
1.7403668E+002
  0
LINE
  8
104
  6
CONTINUOUS
 62
40
 10
3.2854844E+002
 20
1.6828668E+002
 11
3.4504844E+002
 21
1.6828668E+002
  0
LINE
  8
106
  6
CENTERLINE
 62
1
 10
3.2796654E+002
 20
2.0403668E+002
 11
3.4535184E+002
 21
2.0403668E+002
  0
LINE
  8
104
  6
CONTINUOUS
 62
40
 10
3.1279844E+002
 20
2.3173668E+002
 11
3.1279844E+002
 21
2.3403668E+002
  0
LINE
  8
104
  6
CONTINUOUS
 62
40
 10
3.1279844E+002
 20
2.3403668E+002
 11
3.6029844E+002
 21
2.3403668E+002
  0
LINE
  8
104
  6
CONTINUOUS
 62
40
 10
3.6029844E+002
 20
2.3403668E+002
 11
3.6029844E+002
 21
1.7403668E+002
  0
LINE
  8
104
  6
CONTINUOUS
 62
40
 10
3.6029844E+002
 20
1.7403668E+002
 11
3.1279844E+002
 21
1.7403668E+002
  0
LINE
  8
104
  6
CONTINUOUS
 62
40
 10
3.1279844E+002
 20
1.7403668E+002
 11
3.1279844E+002
 21
1.7633668E+002
  0
LINE
  8
104
  6
CONTINUOUS
 62
40
 10
3.1279844E+002
 20
1.7633668E+002
 11
3.1429844E+002
 21
1.7553868E+002
  0
LINE
  8
104
  6
CONTINUOUS
 62
40
 10
3.1429844E+002
 20
1.7553868E+002
 11
3.1429844E+002
 21
2.3253468E+002
  0
LINE
  8
104
  6
CONTINUOUS
 62
40
 10
3.1429844E+002
 20
2.3253468E+002
 11
3.1279844E+002
 21
2.3173668E+002
  0
LINE
  8
106
  6
CENTERLINE
 62
1
 10
3.3679844E+002
 20
1.9578568E+002
 11
3.3679844E+002
 21
2.1260068E+002
  0
LINE
  8
MED-1
  6
CONTINUOUS
 62
40
 10
3.3490645E+002
 20
2.5028668E+002
 11
3.4779843E+002
 21
2.5028668E+002
  0
LINE
  8
MED-1
  6
CONTINUOUS
 62
40
 10
3.3351054E+002
 20
2.5028666E+002
 11
3.3490645E+002
 21
2.5028668E+002
  0
LINE
  8
MED-1
  6
CONTINUOUS
 62
40
 10
2.9990448E+002
 20
2.5028667E+002
 11
3.3351054E+002
 21
2.5028666E+002
  0
LINE
  8
106
  6
CENTERLINE
 62
1
 10
3.3679844E+002
 20
2.3128668E+002
 11
3.3679842E+002
 21
2.5828668E+002
  0
LINE
  8
MED-1
  6
CONTINUOUS
 62
40
 10
3.3351056E+002
 20
2.5628668E+002
 11
3.3351054E+002
 21
2.5028666E+002
  0
LINE
  8
105
  6
HIDDEN
 62
1
 10
3.3351056E+002
 20
2.5628668E+002
 11
3.2879844E+002
 21
2.5628668E+002
  0
LINE
  8
MED-1
  6
CONTINUOUS
 62
40
 10
3.2579844E+002
 20
2.3403668E+002
 11
3.2579842E+002
 21
2.5028666E+002
  0
LINE
  8
MED-1
  6
CONTINUOUS
 62
40
 10
3.4779843E+002
 20
2.5028668E+002
 11
3.4779843E+002
 21
2.3403668E+002
  0
LINE
  8
MED-1
  6
CONTINUOUS
 62
40
 10
3.4779097E+002
 20
2.5628668E+002
 11
3.4779843E+002
 21
2.5028668E+002
  0
LINE
  8
105
  6
HIDDEN
 62
1
 10
3.4779097E+002
 20
2.5628668E+002
 11
3.3351056E+002
 21
2.5628668E+002
  0
POLYLINE
  8
106
  6
CENTERLINE
 62
1
 66
1
 40
0.0
 41
0.0
 70
2
  0
VERTEX
  8
106
 42
0.0
 10
2.9990448E+002
 20
2.5628668E+002
 70
0
  0
VERTEX
  8
106
 42
9.2324079E-003
 10
2.9974537E+002
 20
2.5605988E+002
 70
1
  0
VERTEX
  8
106
 42
8.8411803E-003
 10
2.9959862E+002
 20
2.5583398E+002
 70
0
  0
VERTEX
  8
106
 42
1.0296252E-002
 10
2.9946433E+002
 20
2.5560904E+002
 70
1
  0
VERTEX
  8
106
 42
1.4267972E-002
 10
2.9934484E+002
 20
2.5538502E+002
 70
0
  0
VERTEX
  8
106
 42
1.8048001E-002
 10
2.9924427E+002
 20
2.5516198E+002
 70
1
  0
VERTEX
  8
106
 42
2.2083838E-002
 10
2.9916454E+002
 20
2.5493989E+002
 70
0
  0
VERTEX
  8
106
 42
2.6064686E-002
 10
2.9910905E+002
 20
2.5471881E+002
 70
1
  0
VERTEX
  8
106
 42
3.0114061E-002
 10
2.9907912E+002
 20
2.5449871E+002
 70
0
  0
VERTEX
  8
106
 42
3.4583056E-002
 10
2.9907845E+002
 20
2.5427964E+002
 70
1
  0
VERTEX
  8
106
 42
3.9550655E-002
 10
2.9910997E+002
 20
2.5406159E+002
 70
0
  0
VERTEX
  8
106
 42
3.6229736E-002
 10
2.9917793E+002
 20
2.538446E+002
 70
1
  0
VERTEX
  8
106
 42
2.6791222E-002
 10
2.9927628E+002
 20
2.5362861E+002
 70
0
  0
VERTEX
  8
106
 42
1.3968395E-002
 10
2.993977E+002
 20
2.5341359E+002
 70
1
  0
VERTEX
  8
106
 42
-4.2625463E-003
 10
2.9952397E+002
 20
2.5319951E+002
 70
0
  0
VERTEX
  8
106
 42
-2.2308062E-002
 10
2.9963495E+002
 20
2.5298631E+002
 70
1
  0
VERTEX
  8
106
 42
-4.8714177E-002
 10
2.9971081E+002
 20
2.5277359E+002
 70
0
  0
VERTEX
  8
106
 42
-6.8097367E-002
 10
2.9973124E+002
 20
2.5256118E+002
 70
1
  0
VERTEX
  8
106
 42
-7.2067293E-002
 10
2.996921E+002
 20
2.5235015E+002
 70
0
  0
VERTEX
  8
106
 42
-4.4895101E-002
 10
2.9959377E+002
 20
2.5214093E+002
 70
1
  0
VERTEX
  8
106
 42
-5.698894E-004
 10
2.9947107E+002
 20
2.519292E+002
 70
0
  0
VERTEX
  8
106
 42
1.6372564E-002
 10
2.9935886E+002
 20
2.5171363E+002
 70
1
  0
VERTEX
  8
106
 42
1.8487067E-002
 10
2.9927037E+002
 20
2.5151183E+002
 70
0
  0
VERTEX
  8
106
 42
8.9583672E-002
 10
2.992261E+002
 20
2.5133E+002
 70
1
  0
VERTEX
  8
106
 42
1.243969E-001
 10
2.9928714E+002
 20
2.5109901E+002
 70
0
  0
VERTEX
  8
106
 42
4.4765343E-002
 10
2.9951824E+002
 20
2.5074645E+002
 70
1
  0
VERTEX
  8
106
 42
2.1079969E-002
 10
2.9990448E+002
 20
2.5028667E+002
 70
0
  0
SEQEND
  0
LINE
  8
106
  6
CENTERLINE
 62
1
 10
3.2796654E+002
 20
2.0403668E+002
 11
3.4535184E+002
 21
2.0403668E+002
  0
INSERT
  2
MONTAGEPLATTE
  8
109
 10
3.6529844E+002
 20
1.8253668E+002
  0
INSERT
  2
M5
  8
109
 10
3.6529844E+002
 20
1.9853668E+002
  0
INSERT
  2
M5NEW00
  8
109
 10
3.6529844E+002
 20
1.8253668E+002
  0
LINE
  8
MED-1
  6
CONTINUOUS
 62
40
 10
3.4579844E+002
 20
2.5628668E+002
 11
2.9990448E+002
 21
2.5628668E+002
  0
LINE
  8
104
  6
CONTINUOUS
 62
1
 10
3.6529844E+002
 20
2.3403668E+002
 11
3.6529844E+002
 21
2.4053668E+002
  0
LINE
  8
104
  6
CONTINUOUS
 62
1
 10
3.6529844E+002
 20
2.4053668E+002
 11
3.8248645E+002
 21
2.4053668E+002
  0
LINE
  8
MED-1
  6
CONTINUOUS
 62
40
 10
3.6329844E+002
 20
2.7153668E+002
 11
3.6006223E+002
 21
2.7153668E+002
  0
LINE
  8
MED-1
  6
CONTINUOUS
 62
40
 10
3.6006223E+002
 20
2.7153668E+002
 11
3.5884917E+002
 21
2.7153668E+002
  0
LINE
  8
MED-1
  6
CONTINUOUS
 62
40
 10
3.5884917E+002
 20
2.7153668E+002
 11
3.4723309E+002
 21
2.7153668E+002
  0
LINE
  8
MED-1
  6
CONTINUOUS
 62
40
 10
3.4723309E+002
 20
2.7153668E+002
 11
3.4579844E+002
 21
2.7153668E+002
  0
LINE
  8
MED-1
  6
CONTINUOUS
 62
40
 10
3.4579844E+002
 20
2.5553668E+002
 11
3.4723309E+002
 21
2.5553668E+002
  0
LINE
  8
MED-1
  6
CONTINUOUS
 62
40
 10
3.4723309E+002
 20
2.5553668E+002
 11
3.5884917E+002
 21
2.5553668E+002
  0
LINE
  8
MED-1
  6
CONTINUOUS
 62
40
 10
3.5884917E+002
 20
2.5553668E+002
 11
3.6006223E+002
 21
2.5553668E+002
  0
LINE
  8
MED-1
  6
CONTINUOUS
 62
40
 10
3.6329844E+002
 20
2.5553668E+002
 11
3.6006223E+002
 21
2.5553668E+002
  0
LINE
  8
MED-1
  6
CONTINUOUS
 62
40
 10
3.6006223E+002
 20
2.5753668E+002
 11
3.6329844E+002
 21
2.5753668E+002
  0
LINE
  8
MED-1
  6
CONTINUOUS
 62
40
 10
3.6006223E+002
 20
2.5753668E+002
 11
3.5884917E+002
 21
2.5753668E+002
  0
LINE
  8
MED-1
  6
CONTINUOUS
 62
40
 10
3.5884917E+002
 20
2.5753668E+002
 11
3.4723309E+002
 21
2.5753668E+002
  0
LINE
  8
MED-1
  6
CONTINUOUS
 62
40
 10
3.4723309E+002
 20
2.5753668E+002
 11
3.4579844E+002
 21
2.5753668E+002
  0
LINE
  8
MED-1
  6
CONTINUOUS
 62
40
 10
3.4579844E+002
 20
2.6953668E+002
 11
3.4723309E+002
 21
2.6953668E+002
  0
LINE
  8
MED-1
  6
CONTINUOUS
 62
40
 10
3.4723309E+002
 20
2.6953668E+002
 11
3.5884917E+002
 21
2.6953668E+002
  0
LINE
  8
MED-1
  6
CONTINUOUS
 62
40
 10
3.5884917E+002
 20
2.6953668E+002
 11
3.6006223E+002
 21
2.6953668E+002
  0
LINE
  8
MED-1
  6
CONTINUOUS
 62
40
 10
3.6329844E+002
 20
2.6953668E+002
 11
3.6006223E+002
 21
2.6953668E+002
  0
ARC
  8
MED-1
  6
CONTINUOUS
 62
40
 10
3.6329844E+002
 20
2.6953668E+002
 40
2.0000001
 50
0.0
 51
9.0E+001
  0
ARC
  8
MED-1
  6
CONTINUOUS
 62
40
 10
3.6329844E+002
 20
2.5753668E+002
 40
1.9999999
 50
2.7E+002
 51
3.6E+002
  0
LINE
  8
MED-1
  6
CONTINUOUS
 62
40
 10
3.6329844E+002
 20
2.5753668E+002
 11
3.6329844E+002
 21
2.6953668E+002
  0
LINE
  8
MED-1
  6
CONTINUOUS
 62
40
 10
3.6529844E+002
 20
2.6953668E+002
 11
3.6529844E+002
 21
2.5753668E+002
  0
LINE
  8
MED-1
  6
CONTINUOUS
 62
40
 10
3.4579844E+002
 20
2.6953668E+002
 11
3.4579844E+002
 21
2.7153668E+002
  0
LINE
  8
MED-1
  6
CONTINUOUS
 62
40
 10
3.4579844E+002
 20
2.5553668E+002
 11
3.4579844E+002
 21
2.5753668E+002
  0
CIRCLE
  8
MED-1
  6
CONTINUOUS
 62
40
 10
3.3629844E+002
 20
2.6353668E+002
 40
3.5
  0
ARC
  8
MED-1
  6
CONTINUOUS
 62
40
 10
3.5329844E+002
 20
2.6695335E+002
 40
6.0833332
 50
4.888791E+001
 51
9.0E+001
  0
ARC
  8
MED-1
  6
CONTINUOUS
 62
40
 10
3.5329844E+002
 20
2.6695335E+002
 40
6.0833333
 50
9.0E+001
 51
1.3111209E+002
  0
LINE
  8
MED-1
  6
CONTINUOUS
 62
40
 10
3.5829844E+002
 20
2.5778668E+002
 11
3.4829844E+002
 21
2.5778668E+002
  0
LINE
  8
MED-1
  6
CONTINUOUS
 62
40
 10
3.4829844E+002
 20
2.6928668E+002
 11
3.5829844E+002
 21
2.6928668E+002
  0
LINE
  8
MED-1
  6
CONTINUOUS
 62
40
 10
3.5829844E+002
 20
2.6928668E+002
 11
3.5829845E+002
 21
2.6903669E+002
  0
LINE
  8
MED-1
  6
CONTINUOUS
 62
40
 10
3.5829845E+002
 20
2.5803666E+002
 11
3.5829844E+002
 21
2.5778668E+002
  0
LINE
  8
MED-1
  6
CONTINUOUS
 62
40
 10
3.4829844E+002
 20
2.5778668E+002
 11
3.4829845E+002
 21
2.5803666E+002
  0
LINE
  8
MED-1
  6
CONTINUOUS
 62
40
 10
3.4829845E+002
 20
2.6903669E+002
 11
3.4829844E+002
 21
2.6928668E+002
  0
ARC
  8
MED-1
  6
CONTINUOUS
 62
40
 10
3.3629844E+002
 20
2.6353668E+002
 40
5.5
 50
9.0E+001
 51
1.8E+002
  0
ARC
  8
MED-1
  6
CONTINUOUS
 62
40
 10
3.3629844E+002
 20
2.6353668E+002
 40
5.5
 50
1.8E+002
 51
2.7E+002
  0
LINE
  8
MED-1
  6
CONTINUOUS
 62
40
 10
3.4809363E+002
 20
2.6903668E+002
 11
3.6079844E+002
 21
2.6903668E+002
  0
LINE
  8
MED-1
  6
CONTINUOUS
 62
40
 10
3.4809363E+002
 20
2.6903668E+002
 11
3.4635869E+002
 21
2.6903668E+002
  0
LINE
  8
MED-1
  6
CONTINUOUS
 62
40
 10
3.4635869E+002
 20
2.6903668E+002
 11
3.3629844E+002
 21
2.6903668E+002
  0
LINE
  8
MED-1
  6
CONTINUOUS
 62
40
 10
3.3629844E+002
 20
2.5803668E+002
 11
3.4635869E+002
 21
2.5803668E+002
  0
LINE
  8
MED-1
  6
CONTINUOUS
 62
40
 10
3.4635869E+002
 20
2.5803668E+002
 11
3.4809363E+002
 21
2.5803668E+002
  0
LINE
  8
MED-1
  6
CONTINUOUS
 62
40
 10
3.6079844E+002
 20
2.5803668E+002
 11
3.4809363E+002
 21
2.5803668E+002
  0
LINE
  8
MED-1
  6
CONTINUOUS
 62
40
 10
3.4809363E+002
 20
2.5803668E+002
 11
3.4809363E+002
 21
2.6903668E+002
  0
LINE
  8
MED-1
  6
CONTINUOUS
 62
40
 10
3.6079844E+002
 20
2.6903668E+002
 11
3.6079845E+002
 21
2.6778669E+002
  0
LINE
  8
MED-1
  6
CONTINUOUS
 62
40
 10
3.6079844E+002
 20
2.5928668E+002
 11
3.6079844E+002
 21
2.5803668E+002
  0
LINE
  8
MED-1
  6
CONTINUOUS
 62
40
 10
3.2579844E+002
 20
2.6075904E+002
 11
3.2579869E+002
 21
2.6000372E+002
  0
LINE
  8
MED-1
  6
CONTINUOUS
 62
40
 10
3.2579844E+002
 20
2.6075904E+002
 11
3.2579844E+002
 21
2.6077489E+002
  0
LINE
  8
MED-1
  6
CONTINUOUS
 62
40
 10
3.2579844E+002
 20
2.6629848E+002
 11
3.2579844E+002
 21
2.6077489E+002
  0
LINE
  8
MED-1
  6
CONTINUOUS
 62
40
 10
3.2579844E+002
 20
2.6703694E+002
 11
3.2579844E+002
 21
2.6636317E+002
  0
LINE
  8
MED-1
  6
CONTINUOUS
 62
40
 10
3.2579844E+002
 20
2.6629848E+002
 11
3.2579844E+002
 21
2.6636317E+002
  0
LINE
  8
MED-1
  6
CONTINUOUS
 62
40
 10
3.2579844E+002
 20
2.6721198E+002
 11
3.2579844E+002
 21
2.6703694E+002
  0
LINE
  8
MED-1
  6
CONTINUOUS
 62
40
 10
3.2899843E+002
 20
2.5878665E+002
 11
3.2899843E+002
 21
2.595249E+002
  0
LINE
  8
MED-1
  6
CONTINUOUS
 62
40
 10
3.335258E+002
 20
2.5878668E+002
 11
3.3324281E+002
 21
2.5878668E+002
  0
LINE
  8
MED-1
  6
CONTINUOUS
 62
40
 10
3.3324281E+002
 20
2.5878668E+002
 11
3.3295988E+002
 21
2.5878668E+002
  0
LINE
  8
MED-1
  6
CONTINUOUS
 62
40
 10
3.3295988E+002
 20
2.5878668E+002
 11
3.3267706E+002
 21
2.5878668E+002
  0
LINE
  8
MED-1
  6
CONTINUOUS
 62
40
 10
3.3267706E+002
 20
2.5878668E+002
 11
3.3239396E+002
 21
2.5878668E+002
  0
LINE
  8
MED-1
  6
CONTINUOUS
 62
40
 10
3.3239396E+002
 20
2.5878668E+002
 11
3.3211043E+002
 21
2.5878668E+002
  0
LINE
  8
MED-1
  6
CONTINUOUS
 62
40
 10
3.3211043E+002
 20
2.5878668E+002
 11
3.3182804E+002
 21
2.5878668E+002
  0
LINE
  8
MED-1
  6
CONTINUOUS
 62
40
 10
3.3182804E+002
 20
2.5878668E+002
 11
3.3154734E+002
 21
2.5878668E+002
  0
LINE
  8
MED-1
  6
CONTINUOUS
 62
40
 10
3.3154734E+002
 20
2.5878668E+002
 11
3.3126212E+002
 21
2.5878668E+002
  0
LINE
  8
MED-1
  6
CONTINUOUS
 62
40
 10
3.3126212E+002
 20
2.5878668E+002
 11
3.3097023E+002
 21
2.5878668E+002
  0
LINE
  8
MED-1
  6
CONTINUOUS
 62
40
 10
3.3097023E+002
 20
2.5878668E+002
 11
3.306962E+002
 21
2.5878667E+002
  0
LINE
  8
MED-1
  6
CONTINUOUS
 62
40
 10
3.306962E+002
 20
2.5878667E+002
 11
3.3044845E+002
 21
2.5878667E+002
  0
LINE
  8
MED-1
  6
CONTINUOUS
 62
40
 10
3.3044845E+002
 20
2.5878667E+002
 11
3.3013027E+002
 21
2.5878667E+002
  0
LINE
  8
MED-1
  6
CONTINUOUS
 62
40
 10
3.3013027E+002
 20
2.5878667E+002
 11
3.2964021E+002
 21
2.5878666E+002
  0
LINE
  8
MED-1
  6
CONTINUOUS
 62
40
 10
3.2964021E+002
 20
2.5878666E+002
 11
3.2899843E+002
 21
2.5878665E+002
  0
LINE
  8
MED-1
  6
CONTINUOUS
 62
40
 10
3.3253605E+002
 20
2.5952489E+002
 11
3.2899843E+002
 21
2.595249E+002
  0
LINE
  8
MED-1
  6
CONTINUOUS
 62
40
 10
3.2592191E+002
 20
2.599176E+002
 11
3.2592584E+002
 21
2.5992224E+002
  0
ARC
  8
MED-1
  6
CONTINUOUS
 62
40
 10
3.3691327E+002
 20
2.5058792E+002
 40
1.441712E+001
 50
1.3958391E+002
 51
1.3965059E+002
  0
LINE
  8
MED-1
  6
CONTINUOUS
 62
40
 10
3.2593671E+002
 20
2.5993502E+002
 11
3.2595461E+002
 21
2.5995608E+002
  0
LINE
  8
MED-1
  6
CONTINUOUS
 62
40
 10
3.2595461E+002
 20
2.5995608E+002
 11
3.2598053E+002
 21
2.5998658E+002
  0
LINE
  8
MED-1
  6
CONTINUOUS
 62
40
 10
3.2598053E+002
 20
2.5998658E+002
 11
3.2601504E+002
 21
2.6002717E+002
  0
LINE
  8
MED-1
  6
CONTINUOUS
 62
40
 10
3.2601504E+002
 20
2.6002717E+002
 11
3.2605172E+002
 21
2.6007032E+002
  0
LINE
  8
MED-1
  6
CONTINUOUS
 62
40
 10
3.2605172E+002
 20
2.6007032E+002
 11
3.2608849E+002
 21
2.6011358E+002
  0
LINE
  8
MED-1
  6
CONTINUOUS
 62
40
 10
3.2608849E+002
 20
2.6011358E+002
 11
3.2614765E+002
 21
2.6018318E+002
  0
LINE
  8
MED-1
  6
CONTINUOUS
 62
40
 10
3.2614765E+002
 20
2.6018318E+002
 11
3.2625316E+002
 21
2.603073E+002
  0
LINE
  8
MED-1
  6
CONTINUOUS
 62
40
 10
3.2625316E+002
 20
2.603073E+002
 11
3.2640007E+002
 21
2.6048011E+002
  0
LINE
  8
MED-1
  6
CONTINUOUS
 62
40
 10
3.2899843E+002
 20
2.5878665E+002
 11
3.2882549E+002
 21
2.5878974E+002
  0
ARC
  8
MED-1
  6
CONTINUOUS
 62
40
 10
3.2900095E+002
 20
2.6382957E+002
 40
5.0428806
 50
2.6606087E+002
 51
2.6800608E+002
  0
ARC
  8
MED-1
  6
CONTINUOUS
 62
40
 10
3.2899686E+002
 20
2.6365737E+002
 40
4.8708089
 50
2.6397496E+002
 51
2.6596964E+002
  0
ARC
  8
MED-1
  6
CONTINUOUS
 62
40
 10
3.2898465E+002
 20
2.6354993E+002
 40
4.7626796
 50
2.6196142E+002
 51
2.639854E+002
  0
ARC
  8
MED-1
  6
CONTINUOUS
 62
40
 10
3.2898354E+002
 20
2.6351193E+002
 40
4.7249057
 50
2.5988441E+002
 51
2.6191039E+002
  0
ARC
  8
MED-1
  6
CONTINUOUS
 62
40
 10
3.2897595E+002
 20
2.6348776E+002
 40
4.6997785
 50
2.5789897E+002
 51
2.5992367E+002
  0
ARC
  8
MED-1
  6
CONTINUOUS
 62
40
 10
3.289812E+002
 20
2.6349163E+002
 40
4.7046604
 50
2.5583385E+002
 51
2.5784633E+002
  0
ARC
  8
MED-1
  6
CONTINUOUS
 62
40
 10
3.2896926E+002
 20
2.634486E+002
 40
4.6600159
 50
2.5381979E+002
 51
2.5584678E+002
  0
ARC
  8
MED-1
  6
CONTINUOUS
 62
40
 10
3.2895366E+002
 20
2.6338029E+002
 40
4.5900692
 50
2.5171292E+002
 51
2.5376911E+002
  0
ARC
  8
MED-1
  6
CONTINUOUS
 62
40
 10
3.2898695E+002
 20
2.6352016E+002
 40
4.7333367
 50
2.4987768E+002
 51
2.5186164E+002
  0
ARC
  8
MED-1
  6
CONTINUOUS
 62
40
 10
3.2911724E+002
 20
2.6387138E+002
 40
5.1079465
 50
2.480334E+002
 51
2.4986077E+002
  0
ARC
  8
MED-1
  6
CONTINUOUS
 62
40
 10
3.2898255E+002
 20
2.6347161E+002
 40
4.6868783
 50
2.4570623E+002
 51
2.4773225E+002
  0
ARC
  8
MED-1
  6
CONTINUOUS
 62
40
 10
3.2869209E+002
 20
2.6281067E+002
 40
3.9649732
 50
2.4314489E+002
 51
2.456025E+002
  0
ARC
  8
MED-1
  6
CONTINUOUS
 62
40
 10
3.2905729E+002
 20
2.6371577E+002
 40
4.9381325
 50
2.4225205E+002
 51
2.4410858E+002
  0
ARC
  8
MED-1
  6
CONTINUOUS
 62
40
 10
3.3323317E+002
 20
2.7171419E+002
 40
1.3961015E+001
 50
2.4177296E+002
 51
2.4236799E+002
  0
ARC
  8
MED-1
  6
CONTINUOUS
 62
40
 10
3.2869406E+002
 20
2.6288344E+002
 40
4.0374599
 50
2.3658323E+002
 51
2.392557E+002
  0
ARC
  8
MED-1
  6
CONTINUOUS
 62
40
 10
3.2847476E+002
 20
2.6257561E+002
 40
3.6597724
 50
2.3219282E+002
 51
2.3679483E+002
  0
ARC
  8
MED-1
  6
CONTINUOUS
 62
40
 10
3.3216453E+002
 20
2.6786743E+002
 40
1.0107922E+001
 50
2.3185911E+002
 51
2.3405639E+002
  0
LINE
  8
MED-1
  6
CONTINUOUS
 62
40
 10
3.2899843E+002
 20
2.595249E+002
 11
3.2885237E+002
 21
2.595275E+002
  0
ARC
  8
MED-1
  6
CONTINUOUS
 62
40
 10
3.290001E+002
 20
2.6378267E+002
 40
4.2577323
 50
2.6606572E+002
 51
2.6801159E+002
  0
ARC
  8
MED-1
  6
CONTINUOUS
 62
40
 10
3.2899696E+002
 20
2.6363719E+002
 40
4.1123802
 50
2.6397486E+002
 51
2.6597025E+002
  0
ARC
  8
MED-1
  6
CONTINUOUS
 62
40
 10
3.289863E+002
 20
2.635465E+002
 40
4.0210735
 50
2.6196568E+002
 51
2.6399035E+002
  0
ARC
  8
MED-1
  6
CONTINUOUS
 62
40
 10
3.2898561E+002
 20
2.6351458E+002
 40
3.9893757
 50
2.598849E+002
 51
2.6191145E+002
  0
ARC
  8
MED-1
  6
CONTINUOUS
 62
40
 10
3.2897937E+002
 20
2.6349466E+002
 40
3.9686668
 50
2.5789778E+002
 51
2.5992295E+002
  0
ARC
  8
MED-1
  6
CONTINUOUS
 62
40
 10
3.2898361E+002
 20
2.6349776E+002
 40
3.9725872
 50
2.5583462E+002
 51
2.5784749E+002
  0
ARC
  8
MED-1
  6
CONTINUOUS
 62
40
 10
3.2897372E+002
 20
2.6346163E+002
 40
3.9351377
 50
2.5381821E+002
 51
2.5584552E+002
  0
ARC
  8
MED-1
  6
CONTINUOUS
 62
40
 10
3.2896035E+002
 20
2.6340436E+002
 40
3.8764107
 50
2.5171554E+002
 51
2.5377197E+002
  0
ARC
  8
MED-1
  6
CONTINUOUS
 62
40
 10
3.2898885E+002
 20
2.6352231E+002
 40
3.9973634
 50
2.49874E+002
 51
2.5185808E+002
  0
ARC
  8
MED-1
  6
CONTINUOUS
 62
40
 10
3.2909862E+002
 20
2.6381962E+002
 40
4.3142848
 50
2.4803655E+002
 51
2.4986391E+002
  0
ARC
  8
MED-1
  6
CONTINUOUS
 62
40
 10
3.2898493E+002
 20
2.6348151E+002
 40
3.958255
 50
2.4570611E+002
 51
2.4773223E+002
  0
ARC
  8
MED-1
  6
CONTINUOUS
 62
40
 10
3.2873945E+002
 20
2.6292295E+002
 40
3.3481617
 50
2.4314436E+002
 51
2.456024E+002
  0
ARC
  8
MED-1
  6
CONTINUOUS
 62
40
 10
3.2904778E+002
 20
2.6368699E+002
 40
4.1696748
 50
2.4225052E+002
 51
2.4410739E+002
  0
ARC
  8
MED-1
  6
CONTINUOUS
 62
40
 10
3.3257685E+002
 20
2.7044677E+002
 40
1.1795207E+001
 50
2.4177318E+002
 51
2.4236806E+002
  0
ARC
  8
MED-1
  6
CONTINUOUS
 62
40
 10
3.2874075E+002
 20
2.6298381E+002
 40
3.4086908
 50
2.3658113E+002
 51
2.3925458E+002
  0
ARC
  8
MED-1
  6
CONTINUOUS
 62
40
 10
3.2855558E+002
 20
2.627236E+002
 40
3.0895375
 50
2.3218539E+002
 51
2.367897E+002
  0
ARC
  8
MED-1
  6
CONTINUOUS
 62
40
 10
3.3167069E+002
 20
2.6719058E+002
 40
8.532872
 50
2.3185275E+002
 51
2.3405113E+002
  0
LINE
  8
MED-1
  6
CONTINUOUS
 62
40
 10
3.2592191E+002
 20
2.599176E+002
 11
3.2591061E+002
 21
2.5992712E+002
  0
ARC
  8
MED-1
  6
CONTINUOUS
 62
40
 10
3.2492722E+002
 20
2.5874772E+002
 40
1.5355867
 50
5.0178631E+001
 51
5.0696498E+001
  0
ARC
  8
MED-1
  6
CONTINUOUS
 62
40
 10
3.2510956E+002
 20
2.589666E+002
 40
1.2507263
 50
5.0808572E+001
 51
5.140246E+001
  0
ARC
  8
MED-1
  6
CONTINUOUS
 62
40
 10
3.2524584E+002
 20
2.5913563E+002
 40
1.0336027
 50
5.1461535E+001
 51
5.2133791E+001
  0
ARC
  8
MED-1
  6
CONTINUOUS
 62
40
 10
3.2533499E+002
 20
2.5924942E+002
 40
8.8904782E-001
 50
5.2168206E+001
 51
5.2898169E+001
  0
ARC
  8
MED-1
  6
CONTINUOUS
 62
40
 10
3.2540319E+002
 20
2.5933826E+002
 40
7.7705764E-001
 50
5.2957234E+001
 51
5.3736617E+001
  0
ARC
  8
MED-1
  6
CONTINUOUS
 62
40
 10
3.2544923E+002
 20
2.5939894E+002
 40
7.008952E-001
 50
5.3837084E+001
 51
5.4639992E+001
  0
ARC
  8
MED-1
  6
CONTINUOUS
 62
40
 10
3.2552867E+002
 20
2.5950883E+002
 40
5.6530546E-001
 50
5.4760529E+001
 51
5.5700719E+001
  0
ARC
  8
MED-1
  6
CONTINUOUS
 62
40
 10
3.2560462E+002
 20
2.5961789E+002
 40
4.3241601E-001
 50
5.5871809E+001
 51
5.7037154E+001
  0
ARC
  8
MED-1
  6
CONTINUOUS
 62
40
 10
3.2559807E+002
 20
2.5961248E+002
 40
4.405232E-001
 50
5.6703906E+001
 51
5.7729603E+001
  0
ARC
  8
MED-1
  6
CONTINUOUS
 62
40
 10
3.2543448E+002
 20
2.5935465E+002
 40
7.4587689E-001
 50
5.7679239E+001
 51
5.8203133E+001
  0
ARC
  8
MED-1
  6
CONTINUOUS
 62
40
 10
3.2566971E+002
 20
2.5972106E+002
 40
3.1058211E-001
 50
5.9469723E+001
 51
6.0913372E+001
  0
ARC
  8
MED-1
  6
CONTINUOUS
 62
40
 10
3.2570342E+002
 20
2.5978055E+002
 40
2.4220825E-001
 50
6.1039162E+001
 51
6.3638087E+001
  0
ARC
  8
MED-1
  6
CONTINUOUS
 62
40
 10
3.2556986E+002
 20
2.5953148E+002
 40
5.2475653E-001
 50
6.2647841E+001
 51
6.4147429E+001
  0
LINE
  8
MED-1
  6
CONTINUOUS
 62
40
 10
3.2640007E+002
 20
2.6048011E+002
 11
3.2637316E+002
 21
2.6050234E+002
  0
ARC
  8
MED-1
  6
CONTINUOUS
 62
40
 10
3.2554772E+002
 20
2.5947649E+002
 40
1.3167097
 50
5.1178618E+001
 51
5.2685371E+001
  0
ARC
  8
MED-1
  6
CONTINUOUS
 62
40
 10
3.2557072E+002
 20
2.5950408E+002
 40
1.2808214
 50
5.2755471E+001
 51
5.4292063E+001
  0
ARC
  8
MED-1
  6
CONTINUOUS
 62
40
 10
3.2558426E+002
 20
2.5952374E+002
 40
1.2569586
 50
5.4270085E+001
 51
5.5825653E+001
  0
ARC
  8
MED-1
  6
CONTINUOUS
 62
40
 10
3.2559133E+002
 20
2.5953217E+002
 40
1.2460141
 50
5.5876972E+001
 51
5.7436414E+001
  0
ARC
  8
MED-1
  6
CONTINUOUS
 62
40
 10
3.2559535E+002
 20
2.595395E+002
 40
1.2376739
 50
5.7410602E+001
 51
5.897135E+001
  0
ARC
  8
MED-1
  6
CONTINUOUS
 62
40
 10
3.255969E+002
 20
2.5954039E+002
 40
1.236113
 50
5.9011565E+001
 51
6.0566537E+001
  0
ARC
  8
MED-1
  6
CONTINUOUS
 62
40
 10
3.2560488E+002
 20
2.5955426E+002
 40
1.2201121
 50
6.0572852E+001
 51
6.214333E+001
  0
ARC
  8
MED-1
  6
CONTINUOUS
 62
40
 10
3.2561686E+002
 20
2.5957518E+002
 40
1.1960163
 50
6.2182556E+001
 51
6.3781316E+001
  0
ARC
  8
MED-1
  6
CONTINUOUS
 62
40
 10
3.2560246E+002
 20
2.5955124E+002
 40
1.2238562
 50
6.3671434E+001
 51
6.5223549E+001
  0
ARC
  8
MED-1
  6
CONTINUOUS
 62
40
 10
3.2556879E+002
 20
2.5947717E+002
 40
1.30522
 50
6.5244604E+001
 51
6.6688969E+001
  0
ARC
  8
MED-1
  6
CONTINUOUS
 62
40
 10
3.2561182E+002
 20
2.5956616E+002
 40
1.2064724
 50
6.6892865E+001
 51
6.8477617E+001
  0
ARC
  8
MED-1
  6
CONTINUOUS
 62
40
 10
3.2567315E+002
 20
2.5971887E+002
 40
1.0419151
 50
6.8534757E+001
 51
7.0412085E+001
  0
ARC
  8
MED-1
  6
CONTINUOUS
 62
40
 10
3.2557179E+002
 20
2.5948376E+002
 40
1.297506
 50
6.9675794E+001
 51
7.1091114E+001
  0
ARC
  8
MED-1
  6
CONTINUOUS
 62
40
 10
3.2482016E+002
 20
2.5730414E+002
 40
3.6030852
 50
7.1015803E+001
 51
7.1476784E+001
  0
ARC
  8
MED-1
  6
CONTINUOUS
 62
40
 10
3.2566094E+002
 20
2.597034E+002
 40
1.0615833
 50
7.3366259E+001
 51
7.5380008E+001
  0
ARC
  8
MED-1
  6
CONTINUOUS
 62
40
 10
3.2568929E+002
 20
2.5982011E+002
 40
9.4149625E-001
 50
7.5257102E+001
 51
7.8770034E+001
  0
ARC
  8
MED-1
  6
CONTINUOUS
 62
40
 10
3.2531641E+002
 20
2.5826193E+002
 40
2.5432237
 50
7.7366389E+001
 51
7.9073593E+001
  0
LINE
  8
MED-1
  6
CONTINUOUS
 62
40
 10
3.2579847E+002
 20
2.6003665E+002
 11
3.0697336E+002
 21
2.6003665E+002
  0
LINE
  8
MED-1
  6
CONTINUOUS
 62
40
 10
3.0612724E+002
 20
2.6703664E+002
 11
3.2579844E+002
 21
2.6703694E+002
  0
LINE
  8
MED-1
  6
CONTINUOUS
 62
40
 10
3.2579847E+002
 20
2.6636315E+002
 11
3.2581822E+002
 21
2.6637001E+002
  0
ARC
  8
MED-1
  6
CONTINUOUS
 62
40
 10
3.2539505E+002
 20
2.6755635E+002
 40
1.2595459
 50
2.8963145E+002
 51
2.9058286E+002
  0
ARC
  8
MED-1
  6
CONTINUOUS
 62
40
 10
3.2538909E+002
 20
2.6757023E+002
 40
1.2746414
 50
2.9061423E+002
 51
2.9155512E+002
  0
ARC
  8
MED-1
  6
CONTINUOUS
 62
40
 10
3.2539324E+002
 20
2.6756092E+002
 40
1.2644526
 50
2.9153509E+002
 51
2.9248424E+002
  0
ARC
  8
MED-1
  6
CONTINUOUS
 62
40
 10
3.2540658E+002
 20
2.6752614E+002
 40
1.22722
 50
2.9252969E+002
 51
2.9350872E+002
  0
ARC
  8
MED-1
  6
CONTINUOUS
 62
40
 10
3.2541057E+002
 20
2.6751706E+002
 40
1.2173006
 50
2.9350717E+002
 51
2.9449539E+002
  0
ARC
  8
MED-1
  6
CONTINUOUS
 62
40
 10
3.254059E+002
 20
2.6752637E+002
 40
1.2277111
 50
2.9451348E+002
 51
2.9549395E+002
  0
ARC
  8
MED-1
  6
CONTINUOUS
 62
40
 10
3.2540923E+002
 20
2.6751857E+002
 40
1.2192352
 50
2.9551056E+002
 51
2.965009E+002
  0
ARC
  8
MED-1
  6
CONTINUOUS
 62
40
 10
3.2542079E+002
 20
2.6749461E+002
 40
1.1926387
 50
2.9651741E+002
 51
2.9753347E+002
  0
ARC
  8
MED-1
  6
CONTINUOUS
 62
40
 10
3.254076E+002
 20
2.6752301E+002
 40
1.223919
 50
2.9746652E+002
 51
2.9845499E+002
  0
ARC
  8
MED-1
  6
CONTINUOUS
 62
40
 10
3.2536784E+002
 20
2.675952E+002
 40
1.3063256
 50
2.984795E+002
 51
2.9940221E+002
  0
ARC
  8
MED-1
  6
CONTINUOUS
 62
40
 10
3.2541645E+002
 20
2.6750283E+002
 40
1.2019925
 50
2.9954533E+002
 51
3.005675E+002
  0
ARC
  8
MED-1
  6
CONTINUOUS
 62
40
 10
3.2550258E+002
 20
2.6735548E+002
 40
1.0313174
 50
3.0061046E+002
 51
3.0183443E+002
  0
ARC
  8
MED-1
  6
CONTINUOUS
 62
40
 10
3.2537659E+002
 20
2.6757839E+002
 40
1.2872044
 50
3.0136535E+002
 51
3.0228792E+002
  0
ARC
  8
MED-1
  6
CONTINUOUS
 62
40
 10
3.2418312E+002
 20
2.6947439E+002
 40
3.5275486
 50
3.0222512E+002
 51
3.0252995E+002
  0
ARC
  8
MED-1
  6
CONTINUOUS
 62
40
 10
3.2548999E+002
 20
2.6738386E+002
 40
1.0624782
 50
3.037341E+002
 51
3.0504502E+002
  0
ARC
  8
MED-1
  6
CONTINUOUS
 62
40
 10
3.2554908E+002
 20
2.6730212E+002
 40
9.6163213E-001
 50
3.0495919E+002
 51
3.0720721E+002
  0
ARC
  8
MED-1
  6
CONTINUOUS
 62
40
 10
3.2457842E+002
 20
2.6864904E+002
 40
2.6216747
 50
3.0630252E+002
 51
3.0738644E+002
  0
LINE
  8
MED-1
  6
CONTINUOUS
 62
40
 10
3.2617027E+002
 20
2.6656596E+002
 11
3.2628731E+002
 21
2.6665587E+002
  0
ARC
  8
MED-1
  6
CONTINUOUS
 62
40
 10
3.2898422E+002
 20
2.6302638E+002
 40
4.52179
 50
1.2476158E+002
 51
1.2661441E+002
  0
ARC
  8
MED-1
  6
CONTINUOUS
 62
40
 10
3.2889902E+002
 20
2.6313753E+002
 40
4.3818995
 50
1.2277968E+002
 51
1.2467501E+002
  0
ARC
  8
MED-1
  6
CONTINUOUS
 62
40
 10
3.2885095E+002
 20
2.6321432E+002
 40
4.2913134
 50
1.2087379E+002
 51
1.2279511E+002
  0
ARC
  8
MED-1
  6
CONTINUOUS
 62
40
 10
3.2882956E+002
 20
2.6324225E+002
 40
4.2563626
 50
1.1889484E+002
 51
1.2081958E+002
  0
ARC
  8
MED-1
  6
CONTINUOUS
 62
40
 10
3.288212E+002
 20
2.6326293E+002
 40
4.2342209
 50
1.1700678E+002
 51
1.1893104E+002
  0
ARC
  8
MED-1
  6
CONTINUOUS
 62
40
 10
3.2881979E+002
 20
2.6325789E+002
 40
4.2380728
 50
1.1504523E+002
 51
1.169588E+002
  0
ARC
  8
MED-1
  6
CONTINUOUS
 62
40
 10
3.2880237E+002
 20
2.6329577E+002
 40
4.196385
 50
1.131201E+002
 51
1.1504871E+002
  0
ARC
  8
MED-1
  6
CONTINUOUS
 62
40
 10
3.2877349E+002
 20
2.6335603E+002
 40
4.1296255
 50
1.1112132E+002
 51
1.1307995E+002
  0
ARC
  8
MED-1
  6
CONTINUOUS
 62
40
 10
3.2882767E+002
 20
2.6324315E+002
 40
4.254451
 50
1.093624E+002
 51
1.1125412E+002
  0
ARC
  8
MED-1
  6
CONTINUOUS
 62
40
 10
3.2893581E+002
 20
2.6293155E+002
 40
4.5842867
 50
1.0760138E+002
 51
1.0934639E+002
  0
ARC
  8
MED-1
  6
CONTINUOUS
 62
40
 10
3.2880082E+002
 20
2.6328728E+002
 40
4.2044368
 50
1.0537832E+002
 51
1.0731379E+002
  0
ARC
  8
MED-1
  6
CONTINUOUS
 62
40
 10
3.2862315E+002
 20
2.6390916E+002
 40
3.5577185
 50
1.0292874E+002
 51
1.0527537E+002
  0
ARC
  8
MED-1
  6
CONTINUOUS
 62
40
 10
3.2888761E+002
 20
2.6307749E+002
 40
4.4280525
 50
1.0208281E+002
 51
1.0385629E+002
  0
ARC
  8
MED-1
  6
CONTINUOUS
 62
40
 10
3.30596E+002
 20
2.55205E+002
 40
1.2483768E+001
 50
1.0161676E+002
 51
1.021867E+002
  0
ARC
  8
MED-1
  6
CONTINUOUS
 62
40
 10
3.2866142E+002
 20
2.6386253E+002
 40
3.6171989
 50
9.6661872E+001
 51
9.9214096E+001
  0
ARC
  8
MED-1
  6
CONTINUOUS
 62
40
 10
3.2863247E+002
 20
2.6420728E+002
 40
3.2714371
 50
9.2458936E+001
 51
9.6858818E+001
  0
ARC
  8
MED-1
  6
CONTINUOUS
 62
40
 10
3.2915807E+002
 20
2.5849015E+002
 40
9.0102017
 50
9.2133274E+001
 51
9.4238674E+001
  0
LINE
  8
MED-1
  6
CONTINUOUS
 62
40
 10
3.2882268E+002
 20
2.674941E+002
 11
3.2905159E+002
 21
2.6749413E+002
  0
LINE
  8
MED-1
  6
CONTINUOUS
 62
40
 10
3.2905159E+002
 20
2.6749413E+002
 11
3.2928046E+002
 21
2.6749421E+002
  0
LINE
  8
MED-1
  6
CONTINUOUS
 62
40
 10
3.2928046E+002
 20
2.6749421E+002
 11
3.2950923E+002
 21
2.6749434E+002
  0
LINE
  8
MED-1
  6
CONTINUOUS
 62
40
 10
3.2950923E+002
 20
2.6749434E+002
 11
3.2973824E+002
 21
2.6749451E+002
  0
LINE
  8
MED-1
  6
CONTINUOUS
 62
40
 10
3.2973824E+002
 20
2.6749451E+002
 11
3.2996759E+002
 21
2.6749473E+002
  0
LINE
  8
MED-1
  6
CONTINUOUS
 62
40
 10
3.2996759E+002
 20
2.6749473E+002
 11
3.3019601E+002
 21
2.67495E+002
  0
LINE
  8
MED-1
  6
CONTINUOUS
 62
40
 10
3.3019601E+002
 20
2.67495E+002
 11
3.3042307E+002
 21
2.674953E+002
  0
LINE
  8
MED-1
  6
CONTINUOUS
 62
40
 10
3.3042307E+002
 20
2.674953E+002
 11
3.3065378E+002
 21
2.6749565E+002
  0
LINE
  8
MED-1
  6
CONTINUOUS
 62
40
 10
3.3065378E+002
 20
2.6749565E+002
 11
3.3088988E+002
 21
2.6749606E+002
  0
LINE
  8
MED-1
  6
CONTINUOUS
 62
40
 10
3.3088988E+002
 20
2.6749606E+002
 11
3.3111155E+002
 21
2.6749647E+002
  0
LINE
  8
MED-1
  6
CONTINUOUS
 62
40
 10
3.3111155E+002
 20
2.6749647E+002
 11
3.3131195E+002
 21
2.6749687E+002
  0
LINE
  8
MED-1
  6
CONTINUOUS
 62
40
 10
3.3131195E+002
 20
2.6749687E+002
 11
3.3156932E+002
 21
2.6749745E+002
  0
LINE
  8
MED-1
  6
CONTINUOUS
 62
40
 10
3.3156932E+002
 20
2.6749745E+002
 11
3.3196572E+002
 21
2.6749846E+002
  0
LINE
  8
MED-1
  6
CONTINUOUS
 62
40
 10
3.3196572E+002
 20
2.6749846E+002
 11
3.3248485E+002
 21
2.6749984E+002
  0
LINE
  8
MED-1
  6
CONTINUOUS
 62
40
 10
3.2579847E+002
 20
2.6703692E+002
 11
3.2581884E+002
 21
2.6701111E+002
  0
LINE
  8
MED-1
  6
CONTINUOUS
 62
40
 10
3.2581884E+002
 20
2.6701111E+002
 11
3.2584113E+002
 21
2.6698287E+002
  0
LINE
  8
MED-1
  6
CONTINUOUS
 62
40
 10
3.2584113E+002
 20
2.6698287E+002
 11
3.2586529E+002
 21
2.6695227E+002
  0
LINE
  8
MED-1
  6
CONTINUOUS
 62
40
 10
3.2586529E+002
 20
2.6695227E+002
 11
3.2589207E+002
 21
2.6691835E+002
  0
LINE
  8
MED-1
  6
CONTINUOUS
 62
40
 10
3.2589207E+002
 20
2.6691835E+002
 11
3.2592181E+002
 21
2.6688068E+002
  0
LINE
  8
MED-1
  6
CONTINUOUS
 62
40
 10
3.2592181E+002
 20
2.6688068E+002
 11
3.2595093E+002
 21
2.6684379E+002
  0
LINE
  8
MED-1
  6
CONTINUOUS
 62
40
 10
3.2595093E+002
 20
2.6684379E+002
 11
3.2597827E+002
 21
2.6680916E+002
  0
LINE
  8
MED-1
  6
CONTINUOUS
 62
40
 10
3.2597827E+002
 20
2.6680916E+002
 11
3.2601728E+002
 21
2.6675975E+002
  0
LINE
  8
MED-1
  6
CONTINUOUS
 62
40
 10
3.2601728E+002
 20
2.6675975E+002
 11
3.2608224E+002
 21
2.6667746E+002
  0
LINE
  8
MED-1
  6
CONTINUOUS
 62
40
 10
3.2608224E+002
 20
2.6667746E+002
 11
3.2617027E+002
 21
2.6656596E+002
  0
LINE
  8
MED-1
  6
CONTINUOUS
 62
40
 10
3.288254E+002
 20
2.6823235E+002
 11
3.2882268E+002
 21
2.674941E+002
  0
ARC
  8
MED-1
  6
CONTINUOUS
 62
40
 10
3.2882539E+002
 20
2.6323233E+002
 40
5.0
 50
8.999989E+001
 51
1.2725694E+002
  0
LINE
  8
MED-1
  6
CONTINUOUS
 62
40
 10
3.288254E+002
 20
2.6823235E+002
 11
3.3346251E+002
 21
2.6824917E+002
  0
LINE
  8
MED-1
  6
CONTINUOUS
 62
40
 10
3.7929844E+002
 20
2.6353668E+002
 11
3.7929844E+002
 21
2.6573668E+002
  0
LINE
  8
MED-1
  6
CONTINUOUS
 62
40
 10
3.7929844E+002
 20
2.6133668E+002
 11
3.7929844E+002
 21
2.6353668E+002
  0
LINE
  8
MED-1
  6
CONTINUOUS
 62
40
 10
3.5999844E+002
 20
2.6353668E+002
 11
3.5999844E+002
 21
2.5958668E+002
  0
LINE
  8
MED-1
  6
CONTINUOUS
 62
40
 10
3.5999844E+002
 20
2.6748668E+002
 11
3.5999844E+002
 21
2.6353668E+002
  0
LINE
  8
MED-1
  6
CONTINUOUS
 62
40
 10
3.7929847E+002
 20
2.6133667E+002
 11
3.789984E+002
 21
2.6103668E+002
  0
LINE
  8
MED-1
  6
CONTINUOUS
 62
40
 10
3.789984E+002
 20
2.6353668E+002
 11
3.789984E+002
 21
2.6103668E+002
  0
LINE
  8
MED-1
  6
CONTINUOUS
 62
40
 10
3.789984E+002
 20
2.6603667E+002
 11
3.789984E+002
 21
2.6353668E+002
  0
LINE
  8
MED-1
  6
CONTINUOUS
 62
40
 10
3.789984E+002
 20
2.6603667E+002
 11
3.7929847E+002
 21
2.6573668E+002
  0
LINE
  8
MED-1
  6
CONTINUOUS
 62
40
 10
3.6029843E+002
 20
2.6353668E+002
 11
3.6029843E+002
 21
2.6778669E+002
  0
LINE
  8
MED-1
  6
CONTINUOUS
 62
40
 10
3.6029843E+002
 20
2.5928666E+002
 11
3.6029843E+002
 21
2.6353668E+002
  0
LINE
  8
MED-1
  6
CONTINUOUS
 62
40
 10
3.6029843E+002
 20
2.6778669E+002
 11
3.6329845E+002
 21
2.6778669E+002
  0
LINE
  8
MED-1
  6
CONTINUOUS
 62
40
 10
3.6329845E+002
 20
2.5928666E+002
 11
3.6029843E+002
 21
2.5928666E+002
  0
LINE
  8
MED-1
  6
CONTINUOUS
 62
40
 10
3.789984E+002
 20
2.6103668E+002
 11
3.6529843E+002
 21
2.6103668E+002
  0
LINE
  8
MED-1
  6
CONTINUOUS
 62
40
 10
3.6529843E+002
 20
2.6603667E+002
 11
3.789984E+002
 21
2.6603667E+002
  0
LINE
  8
MED-1
  6
CONTINUOUS
 62
40
 10
3.6029843E+002
 20
2.5928666E+002
 11
3.6028051E+002
 21
2.5928718E+002
  0
ARC
  8
MED-1
  6
CONTINUOUS
 62
40
 10
3.6029705E+002
 20
2.595671E+002
 40
2.8041036E-001
 50
2.6288609E+002
 51
2.6661708E+002
  0
ARC
  8
MED-1
  6
CONTINUOUS
 62
40
 10
3.6029956E+002
 20
2.5959161E+002
 40
3.0503748E-001
 50
2.5947651E+002
 51
2.6298923E+002
  0
ARC
  8
MED-1
  6
CONTINUOUS
 62
40
 10
3.603017E+002
 20
2.5960345E+002
 40
3.1706532E-001
 50
2.5604193E+002
 51
2.5948726E+002
  0
ARC
  8
MED-1
  6
CONTINUOUS
 62
40
 10
3.6030062E+002
 20
2.595934E+002
 40
3.0705904E-001
 50
2.5216189E+002
 51
2.5578516E+002
  0
ARC
  8
MED-1
  6
CONTINUOUS
 62
40
 10
3.6029994E+002
 20
2.5959122E+002
 40
3.047772E-001
 50
2.4845281E+002
 51
2.5215739E+002
  0
ARC
  8
MED-1
  6
CONTINUOUS
 62
40
 10
3.6030082E+002
 20
2.5959157E+002
 40
3.0542888E-001
 50
2.4457189E+002
 51
2.4832358E+002
  0
ARC
  8
MED-1
  6
CONTINUOUS
 62
40
 10
3.6030105E+002
 20
2.595923E+002
 40
3.061851E-001
 50
2.4080823E+002
 51
2.44591E+002
  0
ARC
  8
MED-1
  6
CONTINUOUS
 62
40
 10
3.6030069E+002
 20
2.5958974E+002
 40
3.0377374E-001
 50
2.3678381E+002
 51
2.4063388E+002
  0
ARC
  8
MED-1
  6
CONTINUOUS
 62
40
 10
3.6030056E+002
 20
2.5959015E+002
 40
3.0404515E-001
 50
2.3297367E+002
 51
2.368458E+002
  0
ARC
  8
MED-1
  6
CONTINUOUS
 62
40
 10
3.6030129E+002
 20
2.5958996E+002
 40
3.0433578E-001
 50
2.2895445E+002
 51
2.3284168E+002
  0
ARC
  8
MED-1
  6
CONTINUOUS
 62
40
 10
3.6029991E+002
 20
2.5958856E+002
 40
3.0237185E-001
 50
2.2505287E+002
 51
2.289779E+002
  0
ARC
  8
MED-1
  6
CONTINUOUS
 62
40
 10
3.602967E+002
 20
2.5958427E+002
 40
2.9706876E-001
 50
2.2090882E+002
 51
2.2490687E+002
  0
ARC
  8
MED-1
  6
CONTINUOUS
 62
40
 10
3.6029959E+002
 20
2.5958831E+002
 40
3.0190478E-001
 50
2.1721574E+002
 51
2.2112838E+002
  0
ARC
  8
MED-1
  6
CONTINUOUS
 62
40
 10
3.6031133E+002
 20
2.5959688E+002
 40
3.1643519E-001
 50
2.1346611E+002
 51
2.1716585E+002
  0
ARC
  8
MED-1
  6
CONTINUOUS
 62
40
 10
3.6029541E+002
 20
2.5958385E+002
 40
2.9597588E-001
 50
2.090856E+002
 51
2.13062E+002
  0
ARC
  8
MED-1
  6
CONTINUOUS
 62
40
 10
3.6026466E+002
 20
2.5956614E+002
 40
2.604978E-001
 50
2.0440849E+002
 51
2.0896885E+002
  0
ARC
  8
MED-1
  6
CONTINUOUS
 62
40
 10
3.6030465E+002
 20
2.5959324E+002
 40
3.0821103E-001
 50
2.0230605E+002
 51
2.0592388E+002
  0
ARC
  8
MED-1
  6
CONTINUOUS
 62
40
 10
3.6058655E+002
 20
2.5971156E+002
 40
6.1393744E-001
 50
2.0089688E+002
 51
2.0253636E+002
  0
ARC
  8
MED-1
  6
CONTINUOUS
 62
40
 10
3.6026564E+002
 20
2.5957016E+002
 40
2.6428833E-001
 50
1.9239051E+002
 51
1.970723E+002
  0
ARC
  8
MED-1
  6
CONTINUOUS
 62
40
 10
3.6023828E+002
 20
2.5956507E+002
 40
2.3647093E-001
 50
1.8481037E+002
 51
1.9260881E+002
  0
ARC
  8
MED-1
  6
CONTINUOUS
 62
40
 10
3.6058823E+002
 20
2.5962555E+002
 40
5.9107578E-001
 50
1.8377179E+002
 51
1.8780825E+002
  0
LINE
  8
MED-1
  6
CONTINUOUS
 62
40
 10
3.5999844E+002
 20
2.6748669E+002
 11
3.5999896E+002
 21
2.6750462E+002
  0
ARC
  8
MED-1
  6
CONTINUOUS
 62
40
 10
3.602788E+002
 20
2.6748824E+002
 40
2.8031978E-001
 50
1.7291684E+002
 51
1.7664884E+002
  0
ARC
  8
MED-1
  6
CONTINUOUS
 62
40
 10
3.6030313E+002
 20
2.6748558E+002
 40
3.0479065E-001
 50
1.6947134E+002
 51
1.7298505E+002
  0
ARC
  8
MED-1
  6
CONTINUOUS
 62
40
 10
3.6031512E+002
 20
2.6748344E+002
 40
3.1697531E-001
 50
1.6604144E+002
 51
1.6948775E+002
  0
ARC
  8
MED-1
  6
CONTINUOUS
 62
40
 10
3.6030508E+002
 20
2.6748468E+002
 40
3.0692865E-001
 50
1.6218975E+002
 51
1.6581405E+002
  0
ARC
  8
MED-1
  6
CONTINUOUS
 62
40
 10
3.603029E+002
 20
2.6748521E+002
 40
3.0469277E-001
 50
1.5845229E+002
 51
1.621579E+002
  0
ARC
  8
MED-1
  6
CONTINUOUS
 62
40
 10
3.603031E+002
 20
2.6748448E+002
 40
3.0514626E-001
 50
1.5458622E+002
 51
1.5833891E+002
  0
ARC
  8
MED-1
  6
CONTINUOUS
 62
40
 10
3.6030413E+002
 20
2.6748394E+002
 40
3.0631231E-001
 50
1.5079557E+002
 51
1.545793E+002
  0
ARC
  8
MED-1
  6
CONTINUOUS
 62
40
 10
3.6030143E+002
 20
2.6748462E+002
 40
3.0362669E-001
 50
1.4680736E+002
 51
1.5065832E+002
  0
ARC
  8
MED-1
  6
CONTINUOUS
 62
40
 10
3.6030185E+002
 20
2.6748445E+002
 40
3.0406722E-001
 50
1.4295045E+002
 51
1.4682339E+002
  0
ARC
  8
MED-1
  6
CONTINUOUS
 62
40
 10
3.6030167E+002
 20
2.6748401E+002
 40
3.0418661E-001
 50
1.3897564E+002
 51
1.4286358E+002
  0
ARC
  8
MED-1
  6
CONTINUOUS
 62
40
 10
3.6030013E+002
 20
2.6748524E+002
 40
3.0222153E-001
 50
1.3503372E+002
 51
1.3895931E+002
  0
ARC
  8
MED-1
  6
CONTINUOUS
 62
40
 10
3.6029614E+002
 20
2.6748844E+002
 40
2.9713827E-001
 50
1.3092888E+002
 51
1.349273E+002
  0
ARC
  8
MED-1
  6
CONTINUOUS
 62
40
 10
3.6030005E+002
 20
2.674854E+002
 40
3.0199921E-001
 50
1.2719806E+002
 51
1.3111096E+002
  0
ARC
  8
MED-1
  6
CONTINUOUS
 62
40
 10
3.6030863E+002
 20
2.674738E+002
 40
3.164215E-001
 50
1.2346603E+002
 51
1.2716593E+002
  0
ARC
  8
MED-1
  6
CONTINUOUS
 62
40
 10
3.602956E+002
 20
2.6748986E+002
 40
2.9585019E-001
 50
1.1909999E+002
 51
1.2307642E+002
  0
ARC
  8
MED-1
  6
CONTINUOUS
 62
40
 10
3.602779E+002
 20
2.6752032E+002
 40
2.6061959E-001
 50
1.1439616E+002
 51
1.1895635E+002
  0
ARC
  8
MED-1
  6
CONTINUOUS
 62
40
 10
3.60305E+002
 20
2.6748045E+002
 40
3.0823548E-001
 50
1.1230619E+002
 51
1.1592374E+002
  0
ARC
  8
MED-1
  6
CONTINUOUS
 62
40
 10
3.6042333E+002
 20
2.6719851E+002
 40
6.1400079E-001
 50
1.1089696E+002
 51
1.1253627E+002
  0
ARC
  8
MED-1
  6
CONTINUOUS
 62
40
 10
3.6028193E+002
 20
2.6751933E+002
 40
2.6443979E-001
 50
1.0238406E+002
 51
1.0706526E+002
  0
ARC
  8
MED-1
  6
CONTINUOUS
 62
40
 10
3.6027684E+002
 20
2.675468E+002
 40
2.3651374E-001
 50
9.4811077E+001
 51
1.0260811E+002
  0
ARC
  8
MED-1
  6
CONTINUOUS
 62
40
 10
3.6033747E+002
 20
2.6719676E+002
 40
5.9122232E-001
 50
9.3785931E+001
 51
9.7821489E+001
  0
LINE
  8
104
  6
CONTINUOUS
 62
1
 10
3.7929844E+002
 20
2.6573671E+002
 11
3.6529844E+002
 21
2.6573671E+002
  0
LINE
  8
104
  6
CONTINUOUS
 62
1
 10
3.7929844E+002
 20
2.6133664E+002
 11
3.6529844E+002
 21
2.6133664E+002
  0
ARC
  8
MED-1
  6
CONTINUOUS
 62
40
 10
3.5329844E+002
 20
2.6012002E+002
 40
6.0833333
 50
2.7E+002
 51
3.1111209E+002
  0
ARC
  8
MED-1
  6
CONTINUOUS
 62
40
 10
3.5329844E+002
 20
2.6012002E+002
 40
6.0833332
 50
2.2888791E+002
 51
2.7E+002
  0
LINE
  8
106
  6
CENTERLINE
 62
1
 10
3.8375285E+002
 20
2.6353668E+002
 11
3.0633878E+002
 21
2.6353668E+002
  0
INSERT
  2
2
  8
109
 10
8.0736661E+001
 20
1.1389553E+002
 41
4.0E-001
 43
4.0E-001
 42
4.0E-001
  0
INSERT
  2
2NEW00
  8
109
 10
3.1896976E+002
 20
1.1389553E+002
 41
4.0E-001
 43
4.0E-001
 42
4.0E-001
  0
INSERT
  2
2
  8
109
 10
1.2473584E+002
 20
4.8636881E+001
 41
4.0E-001
 43
4.0E-001
 42
-4.0E-001
 50
1.8E+002
  0
INSERT
  2
2NEW00
  8
109
 10
3.6296894E+002
 20
4.8636881E+001
 41
4.0E-001
 43
4.0E-001
 42
-4.0E-001
 50
1.8E+002
  0
TEXT
  8
103
  6
CONTINUOUS
 62
150
 10
3.1499847E+002
 20
1.526885E+002
 40
3.5
  1
TS83 mit Montageplatte
 41
8.0E-001
  0
TEXT
  8
103
  6
CONTINUOUS
 62
150
 10
9.4541375E+001
 20
1.5478013E+002
 40
3.5
  1
TS83
 41
8.0E-001
  0
TEXT
  8
103
  6
CONTINUOUS
 62
150
 10
2.5183145E+002
 20
1.0123457E+002
 40
3.5
  1
TS83 M DL
 41
8.0E-001
  0
TEXT
  8
103
  6
CONTINUOUS
 62
150
 10
2.5183145E+002
 20
3.6394246E+001
 40
3.5
  1
TS83 M DR
 41
8.0E-001
  0
TEXT
  8
103
  6
CONTINUOUS
 62
150
 10
1.5896337E+001
 20
3.6394246E+001
 40
3.5
  1
TS83 DR
 41
8.0E-001
  0
TEXT
  8
103
  6
CONTINUOUS
 62
150
 10
1.5896337E+001
 20
1.0123457E+002
 40
3.5
  1
TS83 DL
 41
8.0E-001
  0
ENDSEC
  0
EOF
