  0
SECTION
  2
HEADER
  9
$ACADVER
  1
AC1009
999
I-DEAS 8 Not Encoded
  9
$EXTMIN
 10
0.0
 20
0.0
  9
$EXTMAX
 10
4.2E+002
 20
2.97E+002
  9
$TEXTSIZE
 40
1.25E-001
  9
$LTSCALE
 40
1.0
  9
$CLAYER
  8
104
  9
$CECOLOR
 62
40
  9
$DIMASZ
 40
1.25E-001
  9
$DIMEXO
 40
6.25E-002
  9
$DIMDLI
 40
2.5E-001
  9
$DIMEXE
 40
1.25E-001
  9
$DIMTP
 40
5.0E-003
  9
$DIMTM
 40
-5.0E-003
  9
$DIMTXT
 40
3.0
  9
$DIMLIM
 70
0
  9
$DIMTIH
 70
1
  9
$DIMTOH
 70
1
  9
$DIMSE1
 70
0
  9
$DIMSE2
 70
0
  9
$DIMTAD
 70
0
  9
$DIMASO
 70
1
  9
$DIMALT
 70
0
  9
$DIMALTD
 70
0
  9
$DIMTOFL
 70
1
  9
$DIMTIX
 70
0
  9
$DIMSAH
 70
0
  9
$DIMTFAC
 40
1.0
  9
$DIMGAP
 40
6.25E-002
  9
$LUNITS
 70
2
  9
$LUPREC
 70
3
  9
$FILLETRAD
 40
2.0
  9
$AUNITS
 70
0
  9
$AUPREC
 70
1
  9
$CHAMFERA
 40
1.0E+001
  9
$CHAMFERB
 40
1.0E+001
  9
$ANGBASE
 50
0.0
  9
$ANGDIR
 70
0
  9
$PDMODE
 70
2
  9
$PDSIZE
 40
-1.0E-002
  9
$SPLINETYPE
 70
6
  0
ENDSEC
  0
SECTION
  2
TABLES
  0
TABLE
  2
LTYPE
 70
7
  0
LTYPE
  2
HIDDENNEW00
  3
_ 
 70
64
 72
65
 73
3
 40
4.5
 49
1.5
 49
-1.5
 49
1.5
  0
LTYPE
  2
HIDDENNEW01
  3
_ 
 70
64
 72
65
 73
3
 40
4.5
 49
1.5
 49
-1.5
 49
1.5
  0
LTYPE
  2
HIDDEN
  3
_ 
 70
64
 72
65
 73
3
 40
4.5
 49
1.5
 49
-1.5
 49
1.5
  0
LTYPE
  2
CENTERLINE
  3
_ 
 70
64
 72
65
 73
5
 40
3.0E+001
 49
1.2E+001
 49
-1.5
 49
3.0
 49
-1.5
 49
1.2E+001
  0
LTYPE
  2
PHANTOM
  3
_ 
 70
64
 72
65
 73
7
 40
2.95E+001
 49
9.5
 49
-1.5
 49
3.0
 49
-1.5
 49
3.0
 49
-1.5
 49
9.5
  0
LTYPE
  2
SHORT_DASH
  3
_ 
 70
64
 72
65
 73
3
 40
3.0
 49
7.5E-001
 49
-1.5
 49
7.5E-001
  0
LTYPE
  2
LONG_DASH
  3
_ 
 70
64
 72
65
 73
3
 40
9.0
 49
2.25
 49
-4.5
 49
2.25
  0
ENDTAB
  0
TABLE
  2
LAYER
 70
258
  0
LAYER
  2
MED-1
 70
0
 62
3
  6
HIDDENNEW00
  0
LAYER
  2
2
 70
0
 62
7
  6
CONTINUOUS
  0
LAYER
  2
3
 70
0
 62
7
  6
CONTINUOUS
  0
LAYER
  2
4
 70
0
 62
7
  6
CONTINUOUS
  0
LAYER
  2
MED-5
 70
0
 62
5
  6
HIDDENNEW00
  0
LAYER
  2
MED-6
 70
0
 62
6
  6
HIDDENNEW00
  0
LAYER
  2
7
 70
0
 62
7
  6
CONTINUOUS
  0
LAYER
  2
8
 70
0
 62
7
  6
CONTINUOUS
  0
LAYER
  2
9
 70
0
 62
7
  6
CONTINUOUS
  0
LAYER
  2
10
 70
0
 62
7
  6
CONTINUOUS
  0
LAYER
  2
MED-11
 70
0
 62
70
  6
HIDDENNEW00
  0
LAYER
  2
12
 70
0
 62
7
  6
CONTINUOUS
  0
LAYER
  2
13
 70
0
 62
7
  6
CONTINUOUS
  0
LAYER
  2
14
 70
0
 62
7
  6
CONTINUOUS
  0
LAYER
  2
15
 70
0
 62
7
  6
CONTINUOUS
  0
LAYER
  2
16
 70
0
 62
7
  6
CONTINUOUS
  0
LAYER
  2
17
 70
0
 62
7
  6
CONTINUOUS
  0
LAYER
  2
18
 70
0
 62
7
  6
CONTINUOUS
  0
LAYER
  2
19
 70
0
 62
7
  6
CONTINUOUS
  0
LAYER
  2
20
 70
0
 62
7
  6
CONTINUOUS
  0
LAYER
  2
21
 70
0
 62
7
  6
CONTINUOUS
  0
LAYER
  2
22
 70
0
 62
7
  6
CONTINUOUS
  0
LAYER
  2
23
 70
0
 62
7
  6
CONTINUOUS
  0
LAYER
  2
24
 70
0
 62
7
  6
CONTINUOUS
  0
LAYER
  2
25
 70
0
 62
7
  6
CONTINUOUS
  0
LAYER
  2
26
 70
0
 62
7
  6
CONTINUOUS
  0
LAYER
  2
27
 70
0
 62
7
  6
CONTINUOUS
  0
LAYER
  2
28
 70
0
 62
7
  6
CONTINUOUS
  0
LAYER
  2
29
 70
0
 62
7
  6
CONTINUOUS
  0
LAYER
  2
30
 70
0
 62
7
  6
CONTINUOUS
  0
LAYER
  2
31
 70
0
 62
7
  6
CONTINUOUS
  0
LAYER
  2
32
 70
0
 62
7
  6
CONTINUOUS
  0
LAYER
  2
33
 70
0
 62
7
  6
CONTINUOUS
  0
LAYER
  2
34
 70
0
 62
7
  6
CONTINUOUS
  0
LAYER
  2
35
 70
0
 62
7
  6
CONTINUOUS
  0
LAYER
  2
36
 70
0
 62
7
  6
CONTINUOUS
  0
LAYER
  2
37
 70
0
 62
7
  6
CONTINUOUS
  0
LAYER
  2
38
 70
0
 62
7
  6
CONTINUOUS
  0
LAYER
  2
39
 70
0
 62
7
  6
CONTINUOUS
  0
LAYER
  2
40
 70
0
 62
7
  6
CONTINUOUS
  0
LAYER
  2
41
 70
0
 62
7
  6
CONTINUOUS
  0
LAYER
  2
42
 70
0
 62
7
  6
CONTINUOUS
  0
LAYER
  2
43
 70
0
 62
7
  6
CONTINUOUS
  0
LAYER
  2
44
 70
0
 62
7
  6
CONTINUOUS
  0
LAYER
  2
45
 70
0
 62
7
  6
CONTINUOUS
  0
LAYER
  2
46
 70
0
 62
7
  6
CONTINUOUS
  0
LAYER
  2
47
 70
0
 62
7
  6
CONTINUOUS
  0
LAYER
  2
48
 70
0
 62
7
  6
CONTINUOUS
  0
LAYER
  2
49
 70
0
 62
7
  6
CONTINUOUS
  0
LAYER
  2
50
 70
0
 62
7
  6
CONTINUOUS
  0
LAYER
  2
51
 70
0
 62
7
  6
CONTINUOUS
  0
LAYER
  2
52
 70
0
 62
7
  6
CONTINUOUS
  0
LAYER
  2
53
 70
0
 62
7
  6
CONTINUOUS
  0
LAYER
  2
54
 70
0
 62
7
  6
CONTINUOUS
  0
LAYER
  2
55
 70
0
 62
7
  6
CONTINUOUS
  0
LAYER
  2
56
 70
0
 62
7
  6
CONTINUOUS
  0
LAYER
  2
57
 70
0
 62
7
  6
CONTINUOUS
  0
LAYER
  2
58
 70
0
 62
7
  6
CONTINUOUS
  0
LAYER
  2
59
 70
0
 62
7
  6
CONTINUOUS
  0
LAYER
  2
60
 70
0
 62
7
  6
CONTINUOUS
  0
LAYER
  2
61
 70
0
 62
7
  6
CONTINUOUS
  0
LAYER
  2
62
 70
0
 62
7
  6
CONTINUOUS
  0
LAYER
  2
63
 70
0
 62
7
  6
CONTINUOUS
  0
LAYER
  2
64
 70
0
 62
7
  6
CONTINUOUS
  0
LAYER
  2
65
 70
0
 62
7
  6
CONTINUOUS
  0
LAYER
  2
66
 70
0
 62
7
  6
CONTINUOUS
  0
LAYER
  2
67
 70
0
 62
7
  6
CONTINUOUS
  0
LAYER
  2
68
 70
0
 62
7
  6
CONTINUOUS
  0
LAYER
  2
69
 70
0
 62
7
  6
CONTINUOUS
  0
LAYER
  2
70
 70
0
 62
7
  6
CONTINUOUS
  0
LAYER
  2
71
 70
0
 62
7
  6
CONTINUOUS
  0
LAYER
  2
72
 70
0
 62
7
  6
CONTINUOUS
  0
LAYER
  2
73
 70
0
 62
7
  6
CONTINUOUS
  0
LAYER
  2
74
 70
0
 62
7
  6
CONTINUOUS
  0
LAYER
  2
75
 70
0
 62
7
  6
CONTINUOUS
  0
LAYER
  2
76
 70
0
 62
7
  6
CONTINUOUS
  0
LAYER
  2
77
 70
0
 62
7
  6
CONTINUOUS
  0
LAYER
  2
78
 70
0
 62
7
  6
CONTINUOUS
  0
LAYER
  2
79
 70
0
 62
7
  6
CONTINUOUS
  0
LAYER
  2
80
 70
0
 62
7
  6
CONTINUOUS
  0
LAYER
  2
81
 70
0
 62
7
  6
CONTINUOUS
  0
LAYER
  2
82
 70
0
 62
7
  6
CONTINUOUS
  0
LAYER
  2
83
 70
0
 62
7
  6
CONTINUOUS
  0
LAYER
  2
84
 70
0
 62
7
  6
CONTINUOUS
  0
LAYER
  2
85
 70
0
 62
7
  6
CONTINUOUS
  0
LAYER
  2
86
 70
0
 62
7
  6
CONTINUOUS
  0
LAYER
  2
87
 70
0
 62
7
  6
CONTINUOUS
  0
LAYER
  2
88
 70
0
 62
7
  6
CONTINUOUS
  0
LAYER
  2
89
 70
0
 62
7
  6
CONTINUOUS
  0
LAYER
  2
90
 70
0
 62
7
  6
CONTINUOUS
  0
LAYER
  2
91
 70
0
 62
7
  6
CONTINUOUS
  0
LAYER
  2
92
 70
0
 62
7
  6
CONTINUOUS
  0
LAYER
  2
93
 70
0
 62
7
  6
CONTINUOUS
  0
LAYER
  2
94
 70
0
 62
7
  6
CONTINUOUS
  0
LAYER
  2
95
 70
0
 62
7
  6
CONTINUOUS
  0
LAYER
  2
96
 70
0
 62
7
  6
CONTINUOUS
  0
LAYER
  2
97
 70
0
 62
7
  6
CONTINUOUS
  0
LAYER
  2
98
 70
0
 62
7
  6
CONTINUOUS
  0
LAYER
  2
99
 70
0
 62
7
  6
CONTINUOUS
  0
LAYER
  2
MED-0
 70
0
 62
230
  6
HIDDENNEW00
  0
LAYER
  2
101
 70
0
 62
7
  6
CONTINUOUS
  0
LAYER
  2
102
 70
0
 62
7
  6
CONTINUOUS
  0
LAYER
  2
103
 70
0
 62
7
  6
CONTINUOUS
  0
LAYER
  2
104
 70
0
 62
7
  6
CONTINUOUS
  0
LAYER
  2
105
 70
0
 62
7
  6
CONTINUOUS
  0
LAYER
  2
106
 70
0
 62
7
  6
CONTINUOUS
  0
LAYER
  2
107
 70
0
 62
7
  6
CONTINUOUS
  0
LAYER
  2
108
 70
0
 62
7
  6
CONTINUOUS
  0
LAYER
  2
Drafting_Hidden_Entities
 70
1
 62
7
  6
CONTINUOUS
  0
ENDTAB
  0
TABLE
  2
STYLE
 70
1
  0
STYLE
  2
STANDARD
 70
64
 40
0.0
 41
1.0
 50
0.0
 71
0
 42
1.0
  3
monotxt.shx
  4

  0
ENDTAB
  0
TABLE
  2
VIEW
 70
0
  0
ENDTAB
  0
TABLE
  2
DIMSTYLE
 70
0
  0
ENDTAB
  0
ENDSEC
  0
SECTION
  2
BLOCKS
  0
BLOCK
  2
*XH26
  3
*XH
 10
0.0
 20
0.0
 70
65
  0
LINE
  8
108
  6
CONTINUOUS
 62
1
 10
-1.0
 20
-4.9500126
 11
1.0
 21
-4.9500126
  0
LINE
  8
108
  6
CONTINUOUS
 62
1
 10
1.0
 20
-4.7999876
 11
-1.0
 21
-4.7999876
  0
LINE
  8
108
  6
CONTINUOUS
 62
1
 10
-1.0
 20
-4.6500246
 11
1.0
 21
-4.6500246
  0
LINE
  8
108
  6
CONTINUOUS
 62
1
 10
1.0
 20
-4.4999996
 11
-1.0
 21
-4.4999996
  0
LINE
  8
108
  6
CONTINUOUS
 62
1
 10
-1.0
 20
-4.3499756
 11
1.0
 21
-4.3499756
  0
LINE
  8
108
  6
CONTINUOUS
 62
1
 10
1.0
 20
-4.2000126
 11
-1.0
 21
-4.2000126
  0
LINE
  8
108
  6
CONTINUOUS
 62
1
 10
-1.0
 20
-4.0499876
 11
1.0
 21
-4.0499876
  0
LINE
  8
108
  6
CONTINUOUS
 62
1
 10
1.0
 20
-3.9000246
 11
-1.0
 21
-3.9000246
  0
LINE
  8
108
  6
CONTINUOUS
 62
1
 10
-1.0
 20
-3.7499996
 11
1.0
 21
-3.7499996
  0
LINE
  8
108
  6
CONTINUOUS
 62
1
 10
1.0
 20
-3.5999756
 11
-1.0
 21
-3.5999756
  0
LINE
  8
108
  6
CONTINUOUS
 62
1
 10
-1.0
 20
-3.4500126
 11
1.0
 21
-3.4500126
  0
LINE
  8
108
  6
CONTINUOUS
 62
1
 10
1.0
 20
-3.2999876
 11
-1.0
 21
-3.2999876
  0
LINE
  8
108
  6
CONTINUOUS
 62
1
 10
-1.0
 20
-3.1500246
 11
1.0
 21
-3.1500246
  0
LINE
  8
108
  6
CONTINUOUS
 62
1
 10
1.0
 20
-2.9999996
 11
-1.0
 21
-2.9999996
  0
LINE
  8
108
  6
CONTINUOUS
 62
1
 10
-1.0
 20
-2.8499756
 11
1.0
 21
-2.8499756
  0
LINE
  8
108
  6
CONTINUOUS
 62
1
 10
1.0
 20
-2.7000126
 11
-1.0
 21
-2.7000126
  0
LINE
  8
108
  6
CONTINUOUS
 62
1
 10
-1.0
 20
-2.5499876
 11
1.0
 21
-2.5499876
  0
LINE
  8
108
  6
CONTINUOUS
 62
1
 10
1.0
 20
-2.4000246
 11
-1.0
 21
-2.4000246
  0
LINE
  8
108
  6
CONTINUOUS
 62
1
 10
-1.0
 20
-2.2499996
 11
1.0
 21
-2.2499996
  0
LINE
  8
108
  6
CONTINUOUS
 62
1
 10
1.0
 20
-2.0999756
 11
-1.0
 21
-2.0999756
  0
LINE
  8
108
  6
CONTINUOUS
 62
1
 10
-1.0
 20
-1.9500126
 11
1.0
 21
-1.9500126
  0
LINE
  8
108
  6
CONTINUOUS
 62
1
 10
1.0
 20
-1.7999876
 11
-1.0
 21
-1.7999876
  0
LINE
  8
108
  6
CONTINUOUS
 62
1
 10
-1.0
 20
-1.6500246
 11
1.0
 21
-1.6500246
  0
LINE
  8
108
  6
CONTINUOUS
 62
1
 10
1.0
 20
-1.4999996
 11
-1.0
 21
-1.4999996
  0
LINE
  8
108
  6
CONTINUOUS
 62
1
 10
-1.0
 20
-1.3499756
 11
1.0
 21
-1.3499756
  0
LINE
  8
108
  6
CONTINUOUS
 62
1
 10
1.0
 20
-1.2000126
 11
-1.0
 21
-1.2000126
  0
LINE
  8
108
  6
CONTINUOUS
 62
1
 10
-1.0
 20
-1.0499876
 11
1.0
 21
-1.0499876
  0
LINE
  8
108
  6
CONTINUOUS
 62
1
 10
1.0
 20
-9.000246E-001
 11
-1.0
 21
-9.000246E-001
  0
LINE
  8
108
  6
CONTINUOUS
 62
1
 10
-1.0
 20
-7.499996E-001
 11
1.0
 21
-7.499996E-001
  0
LINE
  8
108
  6
CONTINUOUS
 62
1
 10
1.0
 20
-5.999756E-001
 11
-1.0
 21
-5.999756E-001
  0
LINE
  8
108
  6
CONTINUOUS
 62
1
 10
-1.0
 20
-4.500126E-001
 11
1.0
 21
-4.500126E-001
  0
LINE
  8
108
  6
CONTINUOUS
 62
1
 10
1.0
 20
-2.999876E-001
 11
-1.0
 21
-2.999876E-001
  0
LINE
  8
108
  6
CONTINUOUS
 62
1
 10
-1.0
 20
-1.500246E-001
 11
1.0
 21
-1.500246E-001
  0
LINE
  8
108
  6
CONTINUOUS
 62
1
 10
1.0
 20
4.03E-007
 11
-1.0
 21
4.03E-007
  0
LINE
  8
108
  6
CONTINUOUS
 62
1
 10
-1.0
 20
1.500244E-001
 11
1.0
 21
1.500244E-001
  0
LINE
  8
108
  6
CONTINUOUS
 62
1
 10
1.0
 20
2.999874E-001
 11
-1.0
 21
2.999874E-001
  0
LINE
  8
108
  6
CONTINUOUS
 62
1
 10
-1.0
 20
4.500124E-001
 11
1.0
 21
4.500124E-001
  0
LINE
  8
108
  6
CONTINUOUS
 62
1
 10
1.0
 20
5.999754E-001
 11
-1.0
 21
5.999754E-001
  0
LINE
  8
108
  6
CONTINUOUS
 62
1
 10
-1.0
 20
7.500004E-001
 11
1.0
 21
7.500004E-001
  0
LINE
  8
108
  6
CONTINUOUS
 62
1
 10
1.0
 20
9.000244E-001
 11
-1.0
 21
9.000244E-001
  0
LINE
  8
108
  6
CONTINUOUS
 62
1
 10
-1.0
 20
1.0499874
 11
1.0
 21
1.0499874
  0
LINE
  8
108
  6
CONTINUOUS
 62
1
 10
1.0
 20
1.2000124
 11
-1.0
 21
1.2000124
  0
LINE
  8
108
  6
CONTINUOUS
 62
1
 10
-1.0
 20
1.3499754
 11
1.0
 21
1.3499754
  0
LINE
  8
108
  6
CONTINUOUS
 62
1
 10
1.0
 20
1.5000004
 11
-1.0
 21
1.5000004
  0
LINE
  8
108
  6
CONTINUOUS
 62
1
 10
-1.0
 20
1.6500244
 11
1.0
 21
1.6500244
  0
LINE
  8
108
  6
CONTINUOUS
 62
1
 10
1.0
 20
1.7999874
 11
-1.0
 21
1.7999874
  0
LINE
  8
108
  6
CONTINUOUS
 62
1
 10
-1.0
 20
1.9500124
 11
1.0
 21
1.9500124
  0
LINE
  8
108
  6
CONTINUOUS
 62
1
 10
1.0
 20
2.0999754
 11
-1.0
 21
2.0999754
  0
LINE
  8
108
  6
CONTINUOUS
 62
1
 10
-1.0
 20
2.2500004
 11
1.0
 21
2.2500004
  0
LINE
  8
108
  6
CONTINUOUS
 62
1
 10
1.0
 20
2.4000244
 11
-1.0
 21
2.4000244
  0
LINE
  8
108
  6
CONTINUOUS
 62
1
 10
-1.0
 20
2.5499874
 11
1.0
 21
2.5499874
  0
LINE
  8
108
  6
CONTINUOUS
 62
1
 10
1.0
 20
2.7000124
 11
-1.0
 21
2.7000124
  0
LINE
  8
108
  6
CONTINUOUS
 62
1
 10
-1.0
 20
2.8499754
 11
1.0
 21
2.8499754
  0
LINE
  8
108
  6
CONTINUOUS
 62
1
 10
1.0
 20
3.0000004
 11
-1.0
 21
3.0000004
  0
LINE
  8
108
  6
CONTINUOUS
 62
1
 10
-1.0
 20
3.1500244
 11
1.0
 21
3.1500244
  0
LINE
  8
108
  6
CONTINUOUS
 62
1
 10
1.0
 20
3.2999874
 11
-1.0
 21
3.2999874
  0
LINE
  8
108
  6
CONTINUOUS
 62
1
 10
-1.0
 20
3.4500124
 11
1.0
 21
3.4500124
  0
LINE
  8
108
  6
CONTINUOUS
 62
1
 10
1.0
 20
3.5999754
 11
-1.0
 21
3.5999754
  0
LINE
  8
108
  6
CONTINUOUS
 62
1
 10
-1.0
 20
3.7500004
 11
1.0
 21
3.7500004
  0
LINE
  8
108
  6
CONTINUOUS
 62
1
 10
1.0
 20
3.9000244
 11
-1.0
 21
3.9000244
  0
LINE
  8
108
  6
CONTINUOUS
 62
1
 10
-1.0
 20
4.0499874
 11
1.0
 21
4.0499874
  0
LINE
  8
108
  6
CONTINUOUS
 62
1
 10
1.0
 20
4.2000124
 11
-1.0
 21
4.2000124
  0
LINE
  8
108
  6
CONTINUOUS
 62
1
 10
-1.0
 20
4.3499754
 11
1.0
 21
4.3499754
  0
LINE
  8
108
  6
CONTINUOUS
 62
1
 10
1.0
 20
4.5000004
 11
-1.0
 21
4.5000004
  0
LINE
  8
108
  6
CONTINUOUS
 62
1
 10
-1.0
 20
4.6500244
 11
1.0
 21
4.6500244
  0
LINE
  8
108
  6
CONTINUOUS
 62
1
 10
1.0
 20
4.7999874
 11
-1.0
 21
4.7999874
  0
LINE
  8
108
  6
CONTINUOUS
 62
1
 10
-1.0
 20
4.9500124
 11
1.0
 21
4.9500124
  0
ENDBLK
  0
BLOCK
  2
*XH27
  3
*XH
 10
0.0
 20
0.0
 70
65
  0
LINE
  8
108
  6
CONTINUOUS
 62
1
 10
-1.0
 20
-4.9500126
 11
1.0
 21
-4.9500126
  0
LINE
  8
108
  6
CONTINUOUS
 62
1
 10
1.0
 20
-4.7999876
 11
-1.0
 21
-4.7999876
  0
LINE
  8
108
  6
CONTINUOUS
 62
1
 10
-1.0
 20
-4.6500246
 11
1.0
 21
-4.6500246
  0
LINE
  8
108
  6
CONTINUOUS
 62
1
 10
1.0
 20
-4.4999996
 11
-1.0
 21
-4.4999996
  0
LINE
  8
108
  6
CONTINUOUS
 62
1
 10
-1.0
 20
-4.3499756
 11
1.0
 21
-4.3499756
  0
LINE
  8
108
  6
CONTINUOUS
 62
1
 10
1.0
 20
-4.2000126
 11
-1.0
 21
-4.2000126
  0
LINE
  8
108
  6
CONTINUOUS
 62
1
 10
-1.0
 20
-4.0499876
 11
1.0
 21
-4.0499876
  0
LINE
  8
108
  6
CONTINUOUS
 62
1
 10
1.0
 20
-3.9000246
 11
-1.0
 21
-3.9000246
  0
LINE
  8
108
  6
CONTINUOUS
 62
1
 10
-1.0
 20
-3.7499996
 11
1.0
 21
-3.7499996
  0
LINE
  8
108
  6
CONTINUOUS
 62
1
 10
1.0
 20
-3.5999756
 11
-1.0
 21
-3.5999756
  0
LINE
  8
108
  6
CONTINUOUS
 62
1
 10
-1.0
 20
-3.4500126
 11
1.0
 21
-3.4500126
  0
LINE
  8
108
  6
CONTINUOUS
 62
1
 10
1.0
 20
-3.2999876
 11
-1.0
 21
-3.2999876
  0
LINE
  8
108
  6
CONTINUOUS
 62
1
 10
-1.0
 20
-3.1500246
 11
1.0
 21
-3.1500246
  0
LINE
  8
108
  6
CONTINUOUS
 62
1
 10
1.0
 20
-2.9999996
 11
-1.0
 21
-2.9999996
  0
LINE
  8
108
  6
CONTINUOUS
 62
1
 10
-1.0
 20
-2.8499756
 11
1.0
 21
-2.8499756
  0
LINE
  8
108
  6
CONTINUOUS
 62
1
 10
1.0
 20
-2.7000126
 11
-1.0
 21
-2.7000126
  0
LINE
  8
108
  6
CONTINUOUS
 62
1
 10
-1.0
 20
-2.5499876
 11
1.0
 21
-2.5499876
  0
LINE
  8
108
  6
CONTINUOUS
 62
1
 10
1.0
 20
-2.4000246
 11
-1.0
 21
-2.4000246
  0
LINE
  8
108
  6
CONTINUOUS
 62
1
 10
-1.0
 20
-2.2499996
 11
1.0
 21
-2.2499996
  0
LINE
  8
108
  6
CONTINUOUS
 62
1
 10
1.0
 20
-2.0999756
 11
-1.0
 21
-2.0999756
  0
LINE
  8
108
  6
CONTINUOUS
 62
1
 10
-1.0
 20
-1.9500126
 11
1.0
 21
-1.9500126
  0
LINE
  8
108
  6
CONTINUOUS
 62
1
 10
1.0
 20
-1.7999876
 11
-1.0
 21
-1.7999876
  0
LINE
  8
108
  6
CONTINUOUS
 62
1
 10
-1.0
 20
-1.6500246
 11
1.0
 21
-1.6500246
  0
LINE
  8
108
  6
CONTINUOUS
 62
1
 10
1.0
 20
-1.4999996
 11
-1.0
 21
-1.4999996
  0
LINE
  8
108
  6
CONTINUOUS
 62
1
 10
-1.0
 20
-1.3499756
 11
1.0
 21
-1.3499756
  0
LINE
  8
108
  6
CONTINUOUS
 62
1
 10
1.0
 20
-1.2000126
 11
-1.0
 21
-1.2000126
  0
LINE
  8
108
  6
CONTINUOUS
 62
1
 10
-1.0
 20
-1.0499876
 11
1.0
 21
-1.0499876
  0
LINE
  8
108
  6
CONTINUOUS
 62
1
 10
1.0
 20
-9.000246E-001
 11
-1.0
 21
-9.000246E-001
  0
LINE
  8
108
  6
CONTINUOUS
 62
1
 10
-1.0
 20
-7.499996E-001
 11
1.0
 21
-7.499996E-001
  0
LINE
  8
108
  6
CONTINUOUS
 62
1
 10
1.0
 20
-5.999756E-001
 11
-1.0
 21
-5.999756E-001
  0
LINE
  8
108
  6
CONTINUOUS
 62
1
 10
-1.0
 20
-4.500126E-001
 11
1.0
 21
-4.500126E-001
  0
LINE
  8
108
  6
CONTINUOUS
 62
1
 10
1.0
 20
-2.999876E-001
 11
-1.0
 21
-2.999876E-001
  0
LINE
  8
108
  6
CONTINUOUS
 62
1
 10
-1.0
 20
-1.500246E-001
 11
1.0
 21
-1.500246E-001
  0
LINE
  8
108
  6
CONTINUOUS
 62
1
 10
1.0
 20
4.03E-007
 11
-1.0
 21
4.03E-007
  0
LINE
  8
108
  6
CONTINUOUS
 62
1
 10
-1.0
 20
1.500244E-001
 11
1.0
 21
1.500244E-001
  0
LINE
  8
108
  6
CONTINUOUS
 62
1
 10
1.0
 20
2.999874E-001
 11
-1.0
 21
2.999874E-001
  0
LINE
  8
108
  6
CONTINUOUS
 62
1
 10
-1.0
 20
4.500124E-001
 11
1.0
 21
4.500124E-001
  0
LINE
  8
108
  6
CONTINUOUS
 62
1
 10
1.0
 20
5.999754E-001
 11
-1.0
 21
5.999754E-001
  0
LINE
  8
108
  6
CONTINUOUS
 62
1
 10
-1.0
 20
7.500004E-001
 11
1.0
 21
7.500004E-001
  0
LINE
  8
108
  6
CONTINUOUS
 62
1
 10
1.0
 20
9.000244E-001
 11
-1.0
 21
9.000244E-001
  0
LINE
  8
108
  6
CONTINUOUS
 62
1
 10
-1.0
 20
1.0499874
 11
1.0
 21
1.0499874
  0
LINE
  8
108
  6
CONTINUOUS
 62
1
 10
1.0
 20
1.2000124
 11
-1.0
 21
1.2000124
  0
LINE
  8
108
  6
CONTINUOUS
 62
1
 10
-1.0
 20
1.3499754
 11
1.0
 21
1.3499754
  0
LINE
  8
108
  6
CONTINUOUS
 62
1
 10
1.0
 20
1.5000004
 11
-1.0
 21
1.5000004
  0
LINE
  8
108
  6
CONTINUOUS
 62
1
 10
-1.0
 20
1.6500244
 11
1.0
 21
1.6500244
  0
LINE
  8
108
  6
CONTINUOUS
 62
1
 10
1.0
 20
1.7999874
 11
-1.0
 21
1.7999874
  0
LINE
  8
108
  6
CONTINUOUS
 62
1
 10
-1.0
 20
1.9500124
 11
1.0
 21
1.9500124
  0
LINE
  8
108
  6
CONTINUOUS
 62
1
 10
1.0
 20
2.0999754
 11
-1.0
 21
2.0999754
  0
LINE
  8
108
  6
CONTINUOUS
 62
1
 10
-1.0
 20
2.2500004
 11
1.0
 21
2.2500004
  0
LINE
  8
108
  6
CONTINUOUS
 62
1
 10
1.0
 20
2.4000244
 11
-1.0
 21
2.4000244
  0
LINE
  8
108
  6
CONTINUOUS
 62
1
 10
-1.0
 20
2.5499874
 11
1.0
 21
2.5499874
  0
LINE
  8
108
  6
CONTINUOUS
 62
1
 10
1.0
 20
2.7000124
 11
-1.0
 21
2.7000124
  0
LINE
  8
108
  6
CONTINUOUS
 62
1
 10
-1.0
 20
2.8499754
 11
1.0
 21
2.8499754
  0
LINE
  8
108
  6
CONTINUOUS
 62
1
 10
1.0
 20
3.0000004
 11
-1.0
 21
3.0000004
  0
LINE
  8
108
  6
CONTINUOUS
 62
1
 10
-1.0
 20
3.1500244
 11
1.0
 21
3.1500244
  0
LINE
  8
108
  6
CONTINUOUS
 62
1
 10
1.0
 20
3.2999874
 11
-1.0
 21
3.2999874
  0
LINE
  8
108
  6
CONTINUOUS
 62
1
 10
-1.0
 20
3.4500124
 11
1.0
 21
3.4500124
  0
LINE
  8
108
  6
CONTINUOUS
 62
1
 10
1.0
 20
3.5999754
 11
-1.0
 21
3.5999754
  0
LINE
  8
108
  6
CONTINUOUS
 62
1
 10
-1.0
 20
3.7500004
 11
1.0
 21
3.7500004
  0
LINE
  8
108
  6
CONTINUOUS
 62
1
 10
1.0
 20
3.9000244
 11
-1.0
 21
3.9000244
  0
LINE
  8
108
  6
CONTINUOUS
 62
1
 10
-1.0
 20
4.0499874
 11
1.0
 21
4.0499874
  0
LINE
  8
108
  6
CONTINUOUS
 62
1
 10
1.0
 20
4.2000124
 11
-1.0
 21
4.2000124
  0
LINE
  8
108
  6
CONTINUOUS
 62
1
 10
-1.0
 20
4.3499754
 11
1.0
 21
4.3499754
  0
LINE
  8
108
  6
CONTINUOUS
 62
1
 10
1.0
 20
4.5000004
 11
-1.0
 21
4.5000004
  0
LINE
  8
108
  6
CONTINUOUS
 62
1
 10
-1.0
 20
4.6500244
 11
1.0
 21
4.6500244
  0
LINE
  8
108
  6
CONTINUOUS
 62
1
 10
1.0
 20
4.7999874
 11
-1.0
 21
4.7999874
  0
LINE
  8
108
  6
CONTINUOUS
 62
1
 10
-1.0
 20
4.9500124
 11
1.0
 21
4.9500124
  0
ENDBLK
  0
BLOCK
  2
*XH28
  3
*XH
 10
0.0
 20
0.0
 70
65
  0
LINE
  8
108
  6
CONTINUOUS
 62
1
 10
4.9223845
 20
1.5828895E+001
 11
4.9223845
 21
1.0828895E+001
  0
LINE
  8
108
  6
CONTINUOUS
 62
1
 10
4.9223845
 20
1.0828895E+001
 11
3.477236E+001
 21
1.0828895E+001
  0
LINE
  8
108
  6
CONTINUOUS
 62
1
 10
3.477236E+001
 20
1.0828895E+001
 11
3.477236E+001
 21
1.347892E+001
  0
LINE
  8
108
  6
CONTINUOUS
 62
1
 10
3.477236E+001
 20
1.347892E+001
 11
3.2422385E+001
 21
1.5828895E+001
  0
LINE
  8
108
  6
CONTINUOUS
 62
1
 10
3.2422385E+001
 20
1.5828895E+001
 11
4.9223845
 21
1.5828895E+001
  0
LINE
  8
108
  6
CONTINUOUS
 62
1
 10
4.0072348E+001
 20
1.0828895E+001
 11
4.0072348E+001
 21
1.347892E+001
  0
LINE
  8
108
  6
CONTINUOUS
 62
1
 10
4.0072348E+001
 20
1.347892E+001
 11
4.2422385E+001
 21
1.5828895E+001
  0
LINE
  8
108
  6
CONTINUOUS
 62
1
 10
4.2422385E+001
 20
1.5828895E+001
 11
5.7422385E+001
 21
1.5828895E+001
  0
LINE
  8
108
  6
CONTINUOUS
 62
1
 10
5.7422385E+001
 20
1.5828895E+001
 11
5.977236E+001
 21
1.347892E+001
  0
LINE
  8
108
  6
CONTINUOUS
 62
1
 10
5.977236E+001
 20
1.347892E+001
 11
5.977236E+001
 21
1.0828895E+001
  0
LINE
  8
108
  6
CONTINUOUS
 62
1
 10
5.977236E+001
 20
1.0828895E+001
 11
4.0072348E+001
 21
1.0828895E+001
  0
LINE
  8
108
  6
CONTINUOUS
 62
1
 10
7.0422385E+001
 20
1.0828895E+001
 11
7.0422385E+001
 21
1.5828895E+001
  0
LINE
  8
108
  6
CONTINUOUS
 62
1
 10
7.0422385E+001
 20
1.5828895E+001
 11
6.7422385E+001
 21
1.5828895E+001
  0
LINE
  8
108
  6
CONTINUOUS
 62
1
 10
6.7422385E+001
 20
1.5828895E+001
 11
6.5072349E+001
 21
1.347892E+001
  0
LINE
  8
108
  6
CONTINUOUS
 62
1
 10
6.5072349E+001
 20
1.347892E+001
 11
6.5072349E+001
 21
1.0828895E+001
  0
LINE
  8
108
  6
CONTINUOUS
 62
1
 10
6.5072349E+001
 20
1.0828895E+001
 11
7.0422385E+001
 21
1.0828895E+001
  0
POLYLINE
  8
108
  6
CONTINUOUS
 62
1
 66
1
 40
5.0E-001
 41
5.0E-001
 70
0
  0
VERTEX
  8
108
 42
0.0
 10
-4.4577616E+001
 20
7.4513931
 70
0
  0
VERTEX
  8
108
 42
0.0
 10
-4.4577616E+001
 20
1.0828895E+001
 70
0
  0
SEQEND
  0
LINE
  8
108
  6
CONTINUOUS
 62
1
 10
-4.7237527E+001
 20
-4.5584949
 11
-4.5965005E+001
 21
-5.8310169
  0
LINE
  8
108
  6
CONTINUOUS
 62
1
 10
-4.2796487E+001
 20
-6.1711049
 11
-4.6921427E+001
 21
-2.0462269
  0
LINE
  8
108
  6
CONTINUOUS
 62
1
 10
-4.2968058E+001
 20
-3.1711049
 11
-3.9968058E+001
 21
-6.1711049
  0
LINE
  8
108
  6
CONTINUOUS
 62
1
 10
-3.7139626E+001
 20
-6.1711049
 11
-4.0139626E+001
 21
-3.1711049
  0
LINE
  8
108
  6
CONTINUOUS
 62
1
 10
-3.7311197E+001
 20
-3.1711049
 11
-3.4311197E+001
 21
-6.1711049
  0
LINE
  8
108
  6
CONTINUOUS
 62
1
 10
-3.1482767E+001
 20
-6.1711049
 11
-3.4482766E+001
 21
-3.1711049
  0
LINE
  8
108
  6
CONTINUOUS
 62
1
 10
-3.1654398E+001
 20
-3.1711049
 11
-2.8654398E+001
 21
-6.1711049
  0
LINE
  8
108
  6
CONTINUOUS
 62
1
 10
-2.5825968E+001
 20
-6.1711049
 11
-2.8825968E+001
 21
-3.1711049
  0
LINE
  8
108
  6
CONTINUOUS
 62
1
 10
-2.5997536E+001
 20
-3.1711049
 11
-2.2997536E+001
 21
-6.1711049
  0
LINE
  8
108
  6
CONTINUOUS
 62
1
 10
-2.0169107E+001
 20
-6.1711049
 11
-2.3169107E+001
 21
-3.1711049
  0
LINE
  8
108
  6
CONTINUOUS
 62
1
 10
-2.0340677E+001
 20
-3.1711049
 11
-1.7340677E+001
 21
-6.1711049
  0
LINE
  8
108
  6
CONTINUOUS
 62
1
 10
-1.4512247E+001
 20
-6.1711049
 11
-1.7512247E+001
 21
-3.1711049
  0
LINE
  8
108
  6
CONTINUOUS
 62
1
 10
-1.4683817E+001
 20
-3.1711049
 11
-1.1683817E+001
 21
-6.1711049
  0
LINE
  8
108
  6
CONTINUOUS
 62
1
 10
-8.8553865
 20
-6.1711049
 11
-1.1855387E+001
 21
-3.1711049
  0
LINE
  8
108
  6
CONTINUOUS
 62
1
 10
-9.0269555
 20
-3.1711049
 11
-6.0269555
 21
-6.1711049
  0
LINE
  8
108
  6
CONTINUOUS
 62
1
 10
-3.1985255
 20
-6.1711049
 11
-6.1985255
 21
-3.1711049
  0
LINE
  8
108
  6
CONTINUOUS
 62
1
 10
-3.3700955
 20
-3.1711049
 11
-3.700955E-001
 21
-6.1711049
  0
LINE
  8
108
  6
CONTINUOUS
 62
1
 10
2.4583345
 20
-6.1711049
 11
-5.416655E-001
 21
-3.1711049
  0
LINE
  8
108
  6
CONTINUOUS
 62
1
 10
2.2867645
 20
-3.1711049
 11
5.2867645
 21
-6.1711049
  0
LINE
  8
108
  6
CONTINUOUS
 62
1
 10
8.1151945
 20
-6.1711049
 11
5.1151945
 21
-3.1711049
  0
LINE
  8
108
  6
CONTINUOUS
 62
1
 10
7.9436255
 20
-3.1711049
 11
1.0943626E+001
 21
-6.1711049
  0
LINE
  8
108
  6
CONTINUOUS
 62
1
 10
1.3772056E+001
 20
-6.1711049
 11
1.0772056E+001
 21
-3.1711049
  0
LINE
  8
108
  6
CONTINUOUS
 62
1
 10
1.3600486E+001
 20
-3.1711049
 11
1.6600486E+001
 21
-6.1711049
  0
LINE
  8
108
  6
CONTINUOUS
 62
1
 10
1.9428915E+001
 20
-6.1711049
 11
1.6428915E+001
 21
-3.1711049
  0
LINE
  8
108
  6
CONTINUOUS
 62
1
 10
1.9257346E+001
 20
-3.1711049
 11
2.0922385E+001
 21
-4.8361439
  0
ENDBLK
  0
BLOCK
  2
*XH29
  3
*XH
 10
0.0
 20
0.0
 70
65
  0
LINE
  8
108
  6
CONTINUOUS
 62
1
 10
9.8346607
 20
-4.3074902
 11
7.6643117
 21
-6.4778392
  0
LINE
  8
108
  6
CONTINUOUS
 62
1
 10
2.0074517
 20
-6.4778392
 11
9.8346607
 21
1.3493708
  0
LINE
  8
108
  6
CONTINUOUS
 62
1
 10
9.8346607
 20
7.0062308
 11
-3.6494083
 21
-6.4778392
  0
LINE
  8
108
  6
CONTINUOUS
 62
1
 10
-9.3062693
 20
-6.4778392
 11
4.6937307
 21
7.5221608
  0
LINE
  8
108
  6
CONTINUOUS
 62
1
 10
-9.6312933E-001
 20
7.5221608
 11
-1.2665339E+001
 21
-4.1800482
  0
LINE
  8
108
  6
CONTINUOUS
 62
1
 10
-1.0665339E+001
 20
3.4768118
 11
-6.6199903
 21
7.5221608
  0
ENDBLK
  0
BLOCK
  2
*XH30
  3
*XH
 10
0.0
 20
0.0
 70
65
  0
LINE
  8
108
  6
CONTINUOUS
 62
1
 10
1.0820861E+001
 20
-2.3784787
 11
6.5525515
 21
-6.6467897
  0
LINE
  8
108
  6
CONTINUOUS
 62
1
 10
8.956905E-001
 20
-6.6467897
 11
3.5957035
 21
-3.9467777
  0
LINE
  8
108
  6
CONTINUOUS
 62
1
 10
7.9097295
 20
3.6724833E-001
 11
8.8208615
 21
1.2783813
  0
LINE
  8
108
  6
CONTINUOUS
 62
1
 10
8.8208615
 20
6.9352413
 11
4.1388555
 21
2.2532353
  0
LINE
  8
108
  6
CONTINUOUS
 62
1
 10
-2.0611575
 20
-3.9467777
 11
-4.7611695
 21
-6.6467897
  0
LINE
  8
108
  6
CONTINUOUS
 62
1
 10
-1.0418029E+001
 20
-6.6467897
 11
-8.6180415
 21
-4.8468017
  0
LINE
  8
108
  6
CONTINUOUS
 62
1
 10
-1.5180055
 20
2.2532353
 11
3.5819705
 21
7.3532103
  0
LINE
  8
108
  6
CONTINUOUS
 62
1
 10
-2.0748905
 20
7.3532103
 11
-6.2749025
 21
3.1531983
  0
LINE
  8
108
  6
CONTINUOUS
 62
1
 10
-1.1679139E+001
 20
3.4058233
 11
-7.7317505
 21
7.3532103
  0
ENDBLK
  0
BLOCK
  2
*XH31
  3
*XH
 10
0.0
 20
0.0
 70
65
  0
LINE
  8
108
  6
CONTINUOUS
 62
1
 10
-1.2365815E+001
 20
-1.7762858
 11
-1.2030854E+001
 21
-2.1112467
  0
LINE
  8
108
  6
CONTINUOUS
 62
1
 10
-6.3740536
 20
-2.1112467
 11
-1.1374054E+001
 21
2.8887533
  0
LINE
  8
108
  6
CONTINUOUS
 62
1
 10
-5.7171936
 20
2.8887533
 11
-7.1719358E-001
 21
-2.1112467
  0
LINE
  8
108
  6
CONTINUOUS
 62
1
 10
4.9396664
 20
-2.1112467
 11
-6.0333583E-002
 21
2.8887533
  0
LINE
  8
108
  6
CONTINUOUS
 62
1
 10
5.5965274
 20
2.8887533
 11
1.0596527E+001
 21
-2.1112467
  0
LINE
  8
108
  6
CONTINUOUS
 62
1
 10
1.6253387E+001
 20
-2.1112467
 11
1.1253387E+001
 21
2.8887533
  0
ENDBLK
  0
BLOCK
  2
*XH32
  3
*XH
 10
0.0
 20
0.0
 70
65
  0
LINE
  8
108
  6
CONTINUOUS
 62
1
 10
-9.6055298
 20
1.1202471
 11
-5.8890378
 21
-2.5962449
  0
LINE
  8
108
  6
CONTINUOUS
 62
1
 10
-2.3217775E-001
 20
-2.5962449
 11
-5.2321778
 21
2.4037551
  0
LINE
  8
108
  6
CONTINUOUS
 62
1
 10
4.2468225E-001
 20
2.4037551
 11
5.4246823
 21
-2.5962449
  0
LINE
  8
108
  6
CONTINUOUS
 62
1
 10
9.0280152
 20
-5.4277787E-001
 11
6.0815433
 21
2.4037551
  0
ENDBLK
  0
BLOCK
  2
*XH33
  3
*XH
 10
0.0
 20
0.0
 70
65
  0
LINE
  8
108
  6
CONTINUOUS
 62
1
 10
-2.7068935
 20
-1.21551E-001
 11
-2.965545E-001
 21
-2.531891
  0
LINE
  8
108
  6
CONTINUOUS
 62
1
 10
2.6431425
 20
1.85333E-001
 11
3.603055E-001
 21
2.468109
  0
ENDBLK
  0
BLOCK
  2
*XH34
  3
*XH
 10
0.0
 20
0.0
 70
65
  0
LINE
  8
108
  6
CONTINUOUS
 62
1
 10
-1.2990438E+001
 20
-1.1517183
 11
-1.1097067E+001
 21
-3.0450893
  0
LINE
  8
108
  6
CONTINUOUS
 62
1
 10
-6.3905235
 20
-2.0947723
 11
-1.0484334E+001
 21
1.9990997
  0
LINE
  8
108
  6
CONTINUOUS
 62
1
 10
-5.7336625
 20
2.9052277
 11
-7.336625E-001
 21
-2.0947723
  0
LINE
  8
108
  6
CONTINUOUS
 62
1
 10
4.9231975
 20
-2.0947723
 11
-7.68025E-002
 21
2.9052277
  0
LINE
  8
108
  6
CONTINUOUS
 62
1
 10
5.5800575
 20
2.9052277
 11
1.0580058E+001
 21
-2.0947723
  0
LINE
  8
108
  6
CONTINUOUS
 62
1
 10
1.5186258E+001
 20
-1.0441133
 11
1.1236919E+001
 21
2.9052277
  0
ENDBLK
  0
BLOCK
  2
*XH35
  3
*XH
 10
0.0
 20
0.0
 70
65
  0
LINE
  8
108
  6
CONTINUOUS
 62
1
 10
-2.5
 20
2.5
 11
2.5
 21
-2.5
  0
ENDBLK
  0
BLOCK
  2
*XH36
  3
*XH
 10
0.0
 20
0.0
 70
65
  0
LINE
  8
108
  6
CONTINUOUS
 62
1
 10
-2.1878205
 20
-6.2974552
 11
-1.1762845
 21
-7.3090212
  0
LINE
  8
108
  6
CONTINUOUS
 62
1
 10
2.8121795
 20
-5.6405943
 11
-2.1878205
 21
-6.4056425E-001
  0
LINE
  8
108
  6
CONTINUOUS
 62
1
 10
-2.1878205
 20
5.0162357
 11
2.8121795
 21
1.623575E-002
  0
LINE
  8
108
  6
CONTINUOUS
 62
1
 10
2.8121795
 20
5.6730957
 11
-6.967925E-001
 21
9.1820677
  0
ENDBLK
  0
BLOCK
  2
*XH37
  3
*XH
 10
0.0
 20
0.0
 70
65
  0
LINE
  8
108
  6
CONTINUOUS
 62
1
 10
1.3610111E+001
 20
-2.4176432
 11
1.7488803E+001
 21
1.4610495
  0
LINE
  8
108
  6
CONTINUOUS
 62
1
 10
1.4367465E+001
 20
2.5823568
 11
9.3674653
 21
-2.4176432
  0
LINE
  8
108
  6
CONTINUOUS
 62
1
 10
5.1248203
 20
-2.4176432
 11
1.012482E+001
 21
2.5823568
  0
LINE
  8
108
  6
CONTINUOUS
 62
1
 10
5.8821753
 20
2.5823568
 11
8.8217533E-001
 21
-2.4176432
  0
LINE
  8
108
  6
CONTINUOUS
 62
1
 10
-3.3604397
 20
-2.4176432
 11
1.6395603
 21
2.5823568
  0
LINE
  8
108
  6
CONTINUOUS
 62
1
 10
-2.6030847
 20
2.5823568
 11
-1.0103085E+001
 21
-4.9176432
  0
LINE
  8
108
  6
CONTINUOUS
 62
1
 10
-1.1845731E+001
 20
-2.4176432
 11
-9.3457307
 21
8.2356761E-002
  0
LINE
  8
108
  6
CONTINUOUS
 62
1
 10
-7.5111967
 20
1.9168905
 11
-6.8457307
 21
2.5823568
  0
LINE
  8
108
  6
CONTINUOUS
 62
1
 10
-1.1511197E+001
 20
2.1595358
 11
-1.5361203E+001
 21
-1.6904703
  0
ENDBLK
  0
BLOCK
  2
*XH38
  3
*XH
 10
0.0
 20
0.0
 70
65
  0
LINE
  8
108
  6
CONTINUOUS
 62
1
 10
-6.190105E-001
 20
-2.7403336
 11
2.5372085
 21
4.1588592E-001
  0
LINE
  8
108
  6
CONTINUOUS
 62
1
 10
1.383435E-001
 20
2.2596664
 11
-2.0565415
 21
6.4781225E-002
  0
ENDBLK
  0
BLOCK
  2
*XH39
  3
*XH
 10
0.0
 20
0.0
 70
65
  0
LINE
  8
108
  6
CONTINUOUS
 62
1
 10
1.8659485E+001
 20
-2.5537317
 11
2.1661377E+001
 21
4.4816035E-001
  0
LINE
  8
108
  6
CONTINUOUS
 62
1
 10
1.9416809E+001
 20
2.4462683
 11
1.4416809E+001
 21
-2.5537317
  0
LINE
  8
108
  6
CONTINUOUS
 62
1
 10
1.0174194E+001
 20
-2.5537317
 11
1.5174194E+001
 21
2.4462683
  0
LINE
  8
108
  6
CONTINUOUS
 62
1
 10
1.0931549E+001
 20
2.4462683
 11
5.931549
 21
-2.5537317
  0
LINE
  8
108
  6
CONTINUOUS
 62
1
 10
1.688904
 20
-2.5537317
 11
6.688904
 21
2.4462683
  0
LINE
  8
108
  6
CONTINUOUS
 62
1
 10
2.446289
 20
2.4462683
 11
-2.553711
 21
-2.5537317
  0
LINE
  8
108
  6
CONTINUOUS
 62
1
 10
-6.796387
 20
-2.5537317
 11
-1.796387
 21
2.4462683
  0
LINE
  8
108
  6
CONTINUOUS
 62
1
 10
-6.039001
 20
2.4462683
 11
-1.1039001E+001
 21
-2.5537317
  0
LINE
  8
108
  6
CONTINUOUS
 62
1
 10
-1.5281647E+001
 20
-2.5537317
 11
-1.0281677E+001
 21
2.4462683
  0
LINE
  8
108
  6
CONTINUOUS
 62
1
 10
-1.4524292E+001
 20
2.4462683
 11
-1.9524292E+001
 21
-2.5537317
  0
LINE
  8
108
  6
CONTINUOUS
 62
1
 10
-2.0586731E+001
 20
6.2647455E-001
 11
-1.8766937E+001
 21
2.4462683
  0
ENDBLK
  0
BLOCK
  2
*XH40
  3
*XH
 10
0.0
 20
0.0
 70
65
  0
LINE
  8
108
  6
CONTINUOUS
 62
1
 10
6.9309225E-001
 20
-1.4282303
 11
1.2189713
 21
-9.023514E-001
  0
LINE
  8
108
  6
CONTINUOUS
 62
1
 10
1.2189713
 20
3.3402939
 11
-3.1310348
 21
-1.0097122
  0
ENDBLK
  0
BLOCK
  2
*XH41
  3
*XH
 10
0.0
 20
0.0
 70
65
  0
LINE
  8
108
  6
CONTINUOUS
 62
1
 10
3.1026228E+001
 20
-1.5006771
 11
3.251576E+001
 21
-1.115989E-002
  0
LINE
  8
108
  6
CONTINUOUS
 62
1
 10
3.1197798E+001
 20
1.4993076
 11
2.8197798E+001
 21
-1.5006771
  0
LINE
  8
108
  6
CONTINUOUS
 62
1
 10
2.5369398E+001
 20
-1.5006771
 11
2.8369367E+001
 21
1.4993076
  0
LINE
  8
108
  6
CONTINUOUS
 62
1
 10
2.5540937E+001
 20
1.4993076
 11
2.2540968E+001
 21
-1.5006771
  0
LINE
  8
108
  6
CONTINUOUS
 62
1
 10
1.9712538E+001
 20
-1.5006771
 11
2.2712507E+001
 21
1.4993076
  0
LINE
  8
108
  6
CONTINUOUS
 62
1
 10
1.9884077E+001
 20
1.4993076
 11
1.6884107E+001
 21
-1.5006771
  0
LINE
  8
108
  6
CONTINUOUS
 62
1
 10
1.4055677E+001
 20
-1.5006771
 11
1.7055647E+001
 21
1.4993076
  0
LINE
  8
108
  6
CONTINUOUS
 62
1
 10
1.4227247E+001
 20
1.4993076
 11
1.1227247E+001
 21
-1.5006771
  0
LINE
  8
108
  6
CONTINUOUS
 62
1
 10
8.3988173
 20
-1.5006771
 11
1.1398786E+001
 21
1.4993076
  0
LINE
  8
108
  6
CONTINUOUS
 62
1
 10
8.5703872
 20
1.4993076
 11
5.5703872
 21
-1.5006771
  0
LINE
  8
108
  6
CONTINUOUS
 62
1
 10
2.7419562
 20
-1.5006771
 11
5.7419563
 21
1.4993076
  0
LINE
  8
108
  6
CONTINUOUS
 62
1
 10
2.9135262
 20
1.4993076
 11
-8.647375E-002
 21
-1.5006771
  0
LINE
  8
108
  6
CONTINUOUS
 62
1
 10
-2.9149038
 20
-1.5006771
 11
8.509625E-002
 21
1.4993076
  0
LINE
  8
108
  6
CONTINUOUS
 62
1
 10
-2.7433338
 20
1.4993076
 11
-5.7433337
 21
-1.5006771
  0
LINE
  8
108
  6
CONTINUOUS
 62
1
 10
-8.5717337
 20
-1.5006771
 11
-5.5717637
 21
1.4993076
  0
LINE
  8
108
  6
CONTINUOUS
 62
1
 10
-8.4001937
 20
1.4993076
 11
-1.1400164E+001
 21
-1.5006771
  0
LINE
  8
108
  6
CONTINUOUS
 62
1
 10
-1.4228594E+001
 20
-1.5006771
 11
-1.1228625E+001
 21
1.4993076
  0
LINE
  8
108
  6
CONTINUOUS
 62
1
 10
-1.4057055E+001
 20
1.4993076
 11
-1.7057024E+001
 21
-1.5006771
  0
LINE
  8
108
  6
CONTINUOUS
 62
1
 10
-1.9885454E+001
 20
-1.5006771
 11
-1.6885485E+001
 21
1.4993076
  0
LINE
  8
108
  6
CONTINUOUS
 62
1
 10
-1.9713885E+001
 20
1.4993076
 11
-2.2713885E+001
 21
-1.5006771
  0
LINE
  8
108
  6
CONTINUOUS
 62
1
 10
-2.5542315E+001
 20
-1.5006771
 11
-2.2542315E+001
 21
1.4993076
  0
LINE
  8
108
  6
CONTINUOUS
 62
1
 10
-2.5370745E+001
 20
1.4993076
 11
-2.8370745E+001
 21
-1.5006771
  0
LINE
  8
108
  6
CONTINUOUS
 62
1
 10
-3.1199175E+001
 20
-1.5006771
 11
-2.8199175E+001
 21
1.4993076
  0
LINE
  8
108
  6
CONTINUOUS
 62
1
 10
-3.1027605E+001
 20
1.4993076
 11
-3.248424E+001
 21
4.265791E-002
  0
ENDBLK
  0
BLOCK
  2
*XH42
  3
*XH
 10
0.0
 20
0.0
 70
65
  0
LINE
  8
108
  6
CONTINUOUS
 62
1
 10
-1.2124047E+001
 20
-4.8465107
 11
-9.8452687
 21
-7.125304
  0
LINE
  8
108
  6
CONTINUOUS
 62
1
 10
-7.0168387
 20
-7.125304
 11
-1.2124047E+001
 21
-2.0180805
  0
LINE
  8
108
  6
CONTINUOUS
 62
1
 10
-1.0988397E+001
 20
-3.2530098E-001
 11
-4.1884087
 21
-7.125304
  0
LINE
  8
108
  6
CONTINUOUS
 62
1
 10
-1.3599787
 20
-7.125304
 11
-1.0124047E+001
 21
1.6387646
  0
LINE
  8
108
  6
CONTINUOUS
 62
1
 10
-1.0124047E+001
 20
4.4671948
 11
1.4684513
 21
-7.125304
  0
LINE
  8
108
  6
CONTINUOUS
 62
1
 10
4.2968823
 20
-7.125304
 11
-9.5031367
 21
6.674699
  0
LINE
  8
108
  6
CONTINUOUS
 62
1
 10
-6.6747067
 20
6.674699
 11
7.1253123
 21
-7.125304
  0
LINE
  8
108
  6
CONTINUOUS
 62
1
 10
9.9537113
 20
-7.125304
 11
-3.8462757
 21
6.674699
  0
LINE
  8
108
  6
CONTINUOUS
 62
1
 10
-1.0178457
 20
6.674699
 11
1.0375953E+001
 21
-4.7190998
  0
LINE
  8
108
  6
CONTINUOUS
 62
1
 10
1.0375953E+001
 20
-1.8906696
 11
1.8105843
 21
6.674699
  0
LINE
  8
108
  6
CONTINUOUS
 62
1
 10
4.6390143
 20
6.674699
 11
1.0375953E+001
 21
9.3776062E-001
  0
LINE
  8
108
  6
CONTINUOUS
 62
1
 10
1.0375953E+001
 20
3.7661755
 11
7.4674443
 21
6.674699
  0
LINE
  8
108
  6
CONTINUOUS
 62
1
 10
1.0295875E+001
 20
6.674699
 11
1.0375953E+001
 21
6.5946057
  0
ENDBLK
  0
BLOCK
  2
*XH43
  3
*XH
 10
0.0
 20
0.0
 70
65
  0
LINE
  8
108
  6
CONTINUOUS
 62
1
 10
-1.1145889E+001
 20
-6.3634316
 11
-1.0965073E+001
 21
-6.544233
  0
LINE
  8
108
  6
CONTINUOUS
 62
1
 10
-8.136643
 20
-6.544233
 11
-9.836655
 21
-4.8442208
  0
LINE
  8
108
  6
CONTINUOUS
 62
1
 10
-7.008225
 20
-4.8442208
 11
-5.308212
 21
-6.544233
  0
LINE
  8
108
  6
CONTINUOUS
 62
1
 10
-2.479782
 20
-6.544233
 11
-4.179794
 21
-4.8442208
  0
LINE
  8
108
  6
CONTINUOUS
 62
1
 10
-1.1079788E+001
 20
2.0557731
 11
-1.1145889E+001
 21
2.1218589
  0
LINE
  8
108
  6
CONTINUOUS
 62
1
 10
-1.1145889E+001
 20
4.9502891
 11
-9.251389
 21
3.0557731
  0
LINE
  8
108
  6
CONTINUOUS
 62
1
 10
-1.82518
 20
-4.3704201
 11
3.48617E-001
 21
-6.544233
  0
LINE
  8
108
  6
CONTINUOUS
 62
1
 10
3.177048
 20
-6.544233
 11
5.77042E-001
 21
-3.9442269
  0
LINE
  8
108
  6
CONTINUOUS
 62
1
 10
-6.422958
 20
3.0557731
 11
-1.062294E+001
 21
7.25577
  0
LINE
  8
108
  6
CONTINUOUS
 62
1
 10
-7.79451
 20
7.25577
 11
-3.494522
 21
2.955767
  0
LINE
  8
108
  6
CONTINUOUS
 62
1
 10
3.405472
 20
-3.9442269
 11
6.005478
 21
-6.544233
  0
LINE
  8
108
  6
CONTINUOUS
 62
1
 10
8.833908
 20
-6.544233
 11
6.233902
 21
-3.9442269
  0
LINE
  8
108
  6
CONTINUOUS
 62
1
 10
2.33902E-001
 20
2.0557731
 11
-4.96608
 21
7.25577
  0
LINE
  8
108
  6
CONTINUOUS
 62
1
 10
-2.13765
 20
7.25577
 11
3.062332
 21
2.0557731
  0
LINE
  8
108
  6
CONTINUOUS
 62
1
 10
8.273544
 20
-3.1554238
 11
1.1354111E+001
 21
-6.2360055
  0
LINE
  8
108
  6
CONTINUOUS
 62
1
 10
1.1354111E+001
 20
-3.4075906
 11
9.255386
 21
-1.3088357
  0
LINE
  8
108
  6
CONTINUOUS
 62
1
 10
5.890762
 20
2.0557731
 11
6.9075E-001
 21
7.25577
  0
LINE
  8
108
  6
CONTINUOUS
 62
1
 10
3.51918
 20
7.25577
 11
9.354111
 21
1.4208396
  0
LINE
  8
108
  6
CONTINUOUS
 62
1
 10
9.354111
 20
4.2492698
 11
6.34761
 21
7.25577
  0
LINE
  8
108
  6
CONTINUOUS
 62
1
 10
9.176041
 20
7.25577
 11
9.354111
 21
7.0777
  0
LINE
  8
108
  6
CONTINUOUS
 62
1
 10
4.578751
 20
6.196215
 11
8.566788
 21
2.2081779
  0
ENDBLK
  0
BLOCK
  2
*XH44
  3
*XH
 10
0.0
 20
0.0
 70
65
  0
LINE
  8
108
  6
CONTINUOUS
 62
1
 10
-8.0253939E-001
 20
-4.6318738E-001
 11
-8.0253939E-001
 21
-4.6820747E-001
  0
LINE
  8
108
  6
CONTINUOUS
 62
1
 10
-7.8337439E-001
 20
-4.6820747E-001
 11
-8.0253939E-001
 21
-4.4904248E-001
  0
LINE
  8
108
  6
CONTINUOUS
 62
1
 10
-8.0253939E-001
 20
-4.3491287E-001
 11
-7.6921439E-001
 21
-4.6820747E-001
  0
LINE
  8
108
  6
CONTINUOUS
 62
1
 10
-7.5508439E-001
 20
-4.6820747E-001
 11
-8.0253939E-001
 21
-4.2075268E-001
  0
LINE
  8
108
  6
CONTINUOUS
 62
1
 10
-8.0253939E-001
 20
-4.0662308E-001
 11
-7.4095439E-001
 21
-4.6820747E-001
  0
LINE
  8
108
  6
CONTINUOUS
 62
1
 10
-7.2679439E-001
 20
-4.6820747E-001
 11
-8.0253939E-001
 21
-3.9247817E-001
  0
LINE
  8
108
  6
CONTINUOUS
 62
1
 10
-8.0253939E-001
 20
-3.7833328E-001
 11
-7.1266439E-001
 21
-4.6820747E-001
  0
LINE
  8
108
  6
CONTINUOUS
 62
1
 10
-6.9850439E-001
 20
-4.6820747E-001
 11
-8.0253939E-001
 21
-3.6418838E-001
  0
LINE
  8
108
  6
CONTINUOUS
 62
1
 10
-8.0253939E-001
 20
-3.5004347E-001
 11
-6.8437539E-001
 21
-4.6820747E-001
  0
LINE
  8
108
  6
CONTINUOUS
 62
1
 10
-6.7024539E-001
 20
-4.6820747E-001
 11
-8.0253939E-001
 21
-3.3591378E-001
  0
LINE
  8
108
  6
CONTINUOUS
 62
1
 10
-8.0253939E-001
 20
-3.2175368E-001
 11
-6.5608539E-001
 21
-4.6820747E-001
  0
LINE
  8
108
  6
CONTINUOUS
 62
1
 10
-6.4195539E-001
 20
-4.6820747E-001
 11
-8.0253939E-001
 21
-3.0762397E-001
  0
LINE
  8
108
  6
CONTINUOUS
 62
1
 10
-8.0253939E-001
 20
-2.9347907E-001
 11
-6.2779539E-001
 21
-4.6820747E-001
  0
LINE
  8
108
  6
CONTINUOUS
 62
1
 10
-6.1366539E-001
 20
-4.6820747E-001
 11
-8.0253939E-001
 21
-2.7933418E-001
  0
LINE
  8
108
  6
CONTINUOUS
 62
1
 10
-8.0253939E-001
 20
-2.6520458E-001
 11
-5.9950539E-001
 21
-4.6820747E-001
  0
LINE
  8
108
  6
CONTINUOUS
 62
1
 10
-5.8537639E-001
 20
-4.6820747E-001
 11
-8.0253939E-001
 21
-2.5104437E-001
  0
LINE
  8
108
  6
CONTINUOUS
 62
1
 10
-8.0253939E-001
 20
-2.3691477E-001
 11
-5.7124639E-001
 21
-4.6820747E-001
  0
LINE
  8
108
  6
CONTINUOUS
 62
1
 10
-5.5708639E-001
 20
-4.6820747E-001
 11
-8.0253939E-001
 21
-2.2276988E-001
  0
LINE
  8
108
  6
CONTINUOUS
 62
1
 10
-8.0253939E-001
 20
-2.0862497E-001
 11
-5.4295639E-001
 21
-4.6820747E-001
  0
LINE
  8
108
  6
CONTINUOUS
 62
1
 10
-5.2879639E-001
 20
-4.6820747E-001
 11
-8.0253939E-001
 21
-1.9449538E-001
  0
LINE
  8
108
  6
CONTINUOUS
 62
1
 10
-8.0253939E-001
 20
-1.8033517E-001
 11
-5.1466639E-001
 21
-4.6820747E-001
  0
LINE
  8
108
  6
CONTINUOUS
 62
1
 10
-5.0053739E-001
 20
-4.6820747E-001
 11
-8.0253939E-001
 21
-1.6620557E-001
  0
LINE
  8
108
  6
CONTINUOUS
 62
1
 10
-8.0253939E-001
 20
-1.5206068E-001
 11
-4.8637739E-001
 21
-4.6820747E-001
  0
LINE
  8
108
  6
CONTINUOUS
 62
1
 10
-4.7224739E-001
 20
-4.6820747E-001
 11
-8.0253939E-001
 21
-1.3791577E-001
  0
LINE
  8
108
  6
CONTINUOUS
 62
1
 10
-8.0253939E-001
 20
-1.2378608E-001
 11
-4.5808739E-001
 21
-4.6820747E-001
  0
LINE
  8
108
  6
CONTINUOUS
 62
1
 10
-4.4395739E-001
 20
-4.6820747E-001
 11
-8.0253939E-001
 21
-1.0962598E-001
  0
LINE
  8
108
  6
CONTINUOUS
 62
1
 10
-8.0253939E-001
 20
-9.5496375E-002
 11
-4.2982839E-001
 21
-4.6820747E-001
  0
LINE
  8
108
  6
CONTINUOUS
 62
1
 10
-4.1566739E-001
 20
-4.6820747E-001
 11
-8.0253939E-001
 21
-8.1351475E-002
  0
LINE
  8
108
  6
CONTINUOUS
 62
1
 10
-8.0253939E-001
 20
-6.7206575E-002
 11
-4.0153839E-001
 21
-4.6820747E-001
  0
LINE
  8
108
  6
CONTINUOUS
 62
1
 10
-3.8737839E-001
 20
-4.6820747E-001
 11
-8.0253939E-001
 21
-5.3061675E-002
  0
LINE
  8
108
  6
CONTINUOUS
 62
1
 10
-8.0253939E-001
 20
-3.8916775E-002
 11
-3.7324839E-001
 21
-4.6820747E-001
  0
LINE
  8
108
  6
CONTINUOUS
 62
1
 10
-3.5911839E-001
 20
-4.6820747E-001
 11
-8.0253939E-001
 21
-2.4787075E-002
  0
LINE
  8
108
  6
CONTINUOUS
 62
1
 10
-8.0253939E-001
 20
-1.0626975E-002
 11
-3.4495839E-001
 21
-4.6820747E-001
  0
LINE
  8
108
  6
CONTINUOUS
 62
1
 10
-3.3082939E-001
 20
-4.6820747E-001
 11
-8.0253939E-001
 21
3.502725E-003
  0
LINE
  8
108
  6
CONTINUOUS
 62
1
 10
-7.9924339E-001
 20
1.4366925E-002
 11
-3.1666839E-001
 21
-4.6820747E-001
  0
LINE
  8
108
  6
CONTINUOUS
 62
1
 10
-3.0253939E-001
 20
-4.6820747E-001
 11
-7.8511339E-001
 21
1.4366925E-002
  0
LINE
  8
108
  6
CONTINUOUS
 62
1
 10
-7.7095339E-001
 20
1.4366925E-002
 11
-2.8837939E-001
 21
-4.6820747E-001
  0
LINE
  8
108
  6
CONTINUOUS
 62
1
 10
-2.7424939E-001
 20
-4.6820747E-001
 11
-7.5682339E-001
 21
1.4366925E-002
  0
LINE
  8
108
  6
CONTINUOUS
 62
1
 10
-7.4269439E-001
 20
1.4366925E-002
 11
-2.6011939E-001
 21
-4.6820747E-001
  0
LINE
  8
108
  6
CONTINUOUS
 62
1
 10
-2.4595939E-001
 20
-4.6820747E-001
 11
-7.2853439E-001
 21
1.4366925E-002
  0
LINE
  8
108
  6
CONTINUOUS
 62
1
 10
-7.1440439E-001
 20
1.4366925E-002
 11
-2.3182939E-001
 21
-4.6820747E-001
  0
LINE
  8
108
  6
CONTINUOUS
 62
1
 10
-2.1766939E-001
 20
-4.6820747E-001
 11
-7.0024439E-001
 21
1.4366925E-002
  0
LINE
  8
108
  6
CONTINUOUS
 62
1
 10
-6.8611439E-001
 20
1.4366925E-002
 11
-2.0354039E-001
 21
-4.6820747E-001
  0
LINE
  8
108
  6
CONTINUOUS
 62
1
 10
-1.8941039E-001
 20
-4.6820747E-001
 11
-6.7198539E-001
 21
1.4366925E-002
  0
LINE
  8
108
  6
CONTINUOUS
 62
1
 10
-6.5782439E-001
 20
1.4366925E-002
 11
-1.7525039E-001
 21
-4.6820747E-001
  0
LINE
  8
108
  6
CONTINUOUS
 62
1
 10
-1.6112039E-001
 20
-4.6820747E-001
 11
-6.4369539E-001
 21
1.4366925E-002
  0
LINE
  8
108
  6
CONTINUOUS
 62
1
 10
-6.2953539E-001
 20
1.4366925E-002
 11
-1.4696039E-001
 21
-4.6820747E-001
  0
LINE
  8
108
  6
CONTINUOUS
 62
1
 10
-1.3283039E-001
 20
-4.6820747E-001
 11
-6.1540539E-001
 21
1.4366925E-002
  0
LINE
  8
108
  6
CONTINUOUS
 62
1
 10
-6.0127539E-001
 20
1.4366925E-002
 11
-1.1870139E-001
 21
-4.6820747E-001
  0
LINE
  8
108
  6
CONTINUOUS
 62
1
 10
-1.0454139E-001
 20
-4.6820747E-001
 11
-5.8711539E-001
 21
1.4366925E-002
  0
LINE
  8
108
  6
CONTINUOUS
 62
1
 10
-5.7298539E-001
 20
1.4366925E-002
 11
-9.0411392E-002
 21
-4.6820747E-001
  0
LINE
  8
108
  6
CONTINUOUS
 62
1
 10
-7.6251392E-002
 20
-4.6820747E-001
 11
-5.5882539E-001
 21
1.4366925E-002
  0
LINE
  8
108
  6
CONTINUOUS
 62
1
 10
-5.4469639E-001
 20
1.4366925E-002
 11
-6.2121392E-002
 21
-4.6820747E-001
  0
LINE
  8
108
  6
CONTINUOUS
 62
1
 10
-4.7992392E-002
 20
-4.6820747E-001
 11
-5.3056639E-001
 21
1.4366925E-002
  0
LINE
  8
108
  6
CONTINUOUS
 62
1
 10
-5.1640639E-001
 20
1.4366925E-002
 11
-3.3831392E-002
 21
-4.6820747E-001
  0
LINE
  8
108
  6
CONTINUOUS
 62
1
 10
-1.9702392E-002
 20
-4.6820747E-001
 11
-5.0227639E-001
 21
1.4366925E-002
  0
LINE
  8
108
  6
CONTINUOUS
 62
1
 10
-4.8811639E-001
 20
1.4366925E-002
 11
-5.5423917E-003
 21
-4.6820747E-001
  0
LINE
  8
108
  6
CONTINUOUS
 62
1
 10
8.5876083E-003
 20
-4.6820747E-001
 11
-4.7398639E-001
 21
1.4366925E-002
  0
LINE
  8
108
  6
CONTINUOUS
 62
1
 10
-4.5982639E-001
 20
1.4366925E-002
 11
2.2747608E-002
 21
-4.6820747E-001
  0
LINE
  8
108
  6
CONTINUOUS
 62
1
 10
3.6877608E-002
 20
-4.6820747E-001
 11
-4.4569739E-001
 21
1.4366925E-002
  0
LINE
  8
108
  6
CONTINUOUS
 62
1
 10
-4.3156739E-001
 20
1.4366925E-002
 11
5.1006608E-002
 21
-4.6820747E-001
  0
LINE
  8
108
  6
CONTINUOUS
 62
1
 10
6.5167608E-002
 20
-4.6820747E-001
 11
-4.1740739E-001
 21
1.4366925E-002
  0
LINE
  8
108
  6
CONTINUOUS
 62
1
 10
-4.0327739E-001
 20
1.4366925E-002
 11
7.9296608E-002
 21
-4.6820747E-001
  0
LINE
  8
108
  6
CONTINUOUS
 62
1
 10
9.3456608E-002
 20
-4.6820747E-001
 11
-3.8911739E-001
 21
1.4366925E-002
  0
LINE
  8
108
  6
CONTINUOUS
 62
1
 10
-3.7498739E-001
 20
1.4366925E-002
 11
1.0758661E-001
 21
-4.6820747E-001
  0
LINE
  8
108
  6
CONTINUOUS
 62
1
 10
1.2171661E-001
 20
-4.6820747E-001
 11
-3.6085839E-001
 21
1.4366925E-002
  0
LINE
  8
108
  6
CONTINUOUS
 62
1
 10
-3.4669839E-001
 20
1.4366925E-002
 11
1.3587661E-001
 21
-4.6820747E-001
  0
LINE
  8
108
  6
CONTINUOUS
 62
1
 10
1.5000561E-001
 20
-4.6820747E-001
 11
-3.3256839E-001
 21
1.4366925E-002
  0
LINE
  8
108
  6
CONTINUOUS
 62
1
 10
-3.1840839E-001
 20
1.4366925E-002
 11
1.6416661E-001
 21
-4.6820747E-001
  0
LINE
  8
108
  6
CONTINUOUS
 62
1
 10
1.7829561E-001
 20
-4.6820747E-001
 11
-3.0427839E-001
 21
1.4366925E-002
  0
LINE
  8
108
  6
CONTINUOUS
 62
1
 10
-2.9014939E-001
 20
1.4366925E-002
 11
1.9242561E-001
 21
-4.6820747E-001
  0
LINE
  8
108
  6
CONTINUOUS
 62
1
 10
2.0658561E-001
 20
-4.6820747E-001
 11
-2.7598839E-001
 21
1.4366925E-002
  0
LINE
  8
108
  6
CONTINUOUS
 62
1
 10
-2.6185939E-001
 20
1.4366925E-002
 11
2.2071561E-001
 21
-4.6820747E-001
  0
LINE
  8
108
  6
CONTINUOUS
 62
1
 10
2.3487561E-001
 20
-4.6820747E-001
 11
-2.4769939E-001
 21
1.4366925E-002
  0
LINE
  8
108
  6
CONTINUOUS
 62
1
 10
-2.3356939E-001
 20
1.4366925E-002
 11
2.4900461E-001
 21
-4.6820747E-001
  0
LINE
  8
108
  6
CONTINUOUS
 62
1
 10
2.6316561E-001
 20
-4.6820747E-001
 11
-2.1940939E-001
 21
1.4366925E-002
  0
LINE
  8
108
  6
CONTINUOUS
 62
1
 10
-2.0527939E-001
 20
1.4366925E-002
 11
2.7729461E-001
 21
-4.6820747E-001
  0
LINE
  8
108
  6
CONTINUOUS
 62
1
 10
2.9142461E-001
 20
-4.6820747E-001
 11
-1.9115039E-001
 21
1.4366925E-002
  0
LINE
  8
108
  6
CONTINUOUS
 62
1
 10
-1.7698939E-001
 20
1.4366925E-002
 11
3.0558461E-001
 21
-4.6820747E-001
  0
LINE
  8
108
  6
CONTINUOUS
 62
1
 10
3.1971461E-001
 20
-4.6820747E-001
 11
-1.6286039E-001
 21
1.4366925E-002
  0
LINE
  8
108
  6
CONTINUOUS
 62
1
 10
-1.4870039E-001
 20
1.4366925E-002
 11
3.3387461E-001
 21
-4.6820747E-001
  0
LINE
  8
108
  6
CONTINUOUS
 62
1
 10
3.4800461E-001
 20
-4.6820747E-001
 11
-1.3457039E-001
 21
1.4366925E-002
  0
LINE
  8
108
  6
CONTINUOUS
 62
1
 10
-1.2044039E-001
 20
1.4366925E-002
 11
3.6213361E-001
 21
-4.6820747E-001
  0
LINE
  8
108
  6
CONTINUOUS
 62
1
 10
3.7629361E-001
 20
-4.6820747E-001
 11
-1.0628039E-001
 21
1.4366925E-002
  0
LINE
  8
108
  6
CONTINUOUS
 62
1
 10
-9.2151392E-002
 20
1.4366925E-002
 11
3.9042361E-001
 21
-4.6820747E-001
  0
LINE
  8
108
  6
CONTINUOUS
 62
1
 10
4.0458361E-001
 20
-4.6820747E-001
 11
-7.7990392E-002
 21
1.4366925E-002
  0
LINE
  8
108
  6
CONTINUOUS
 62
1
 10
-6.3861392E-002
 20
1.4366925E-002
 11
4.1871361E-001
 21
-4.6820747E-001
  0
LINE
  8
108
  6
CONTINUOUS
 62
1
 10
4.3284261E-001
 20
-4.6820747E-001
 11
-4.9731392E-002
 21
1.4366925E-002
  0
LINE
  8
108
  6
CONTINUOUS
 62
1
 10
-3.5571392E-002
 20
1.4366925E-002
 11
4.4700361E-001
 21
-4.6820747E-001
  0
LINE
  8
108
  6
CONTINUOUS
 62
1
 10
4.6113261E-001
 20
-4.6820747E-001
 11
-2.1441392E-002
 21
1.4366925E-002
  0
LINE
  8
108
  6
CONTINUOUS
 62
1
 10
-7.2813917E-003
 20
1.4366925E-002
 11
4.7529261E-001
 21
-4.6820747E-001
  0
LINE
  8
108
  6
CONTINUOUS
 62
1
 10
4.8942261E-001
 20
-4.6820747E-001
 11
6.8476083E-003
 21
1.4366925E-002
  0
LINE
  8
108
  6
CONTINUOUS
 62
1
 10
2.0977608E-002
 20
1.4366925E-002
 11
5.0355261E-001
 21
-4.6820747E-001
  0
LINE
  8
108
  6
CONTINUOUS
 62
1
 10
5.1771261E-001
 20
-4.6820747E-001
 11
3.5137608E-002
 21
1.4366925E-002
  0
LINE
  8
108
  6
CONTINUOUS
 62
1
 10
3.7274608E-002
 20
2.6360325E-002
 11
5.3184161E-001
 21
-4.6820747E-001
  0
LINE
  8
108
  6
CONTINUOUS
 62
1
 10
5.4600261E-001
 20
-4.6820747E-001
 11
3.7274608E-002
 21
4.0505225E-002
  0
LINE
  8
108
  6
CONTINUOUS
 62
1
 10
3.7274608E-002
 20
5.4650125E-002
 11
5.6013161E-001
 21
-4.6820747E-001
  0
LINE
  8
108
  6
CONTINUOUS
 62
1
 10
5.7429161E-001
 20
-4.6820747E-001
 11
3.7274608E-002
 21
6.8779825E-002
  0
LINE
  8
108
  6
CONTINUOUS
 62
1
 10
3.7274608E-002
 20
8.2939925E-002
 11
5.7908361E-001
 21
-4.5886918E-001
  0
LINE
  8
108
  6
CONTINUOUS
 62
1
 10
5.7908361E-001
 20
-4.4473948E-001
 11
3.7274608E-002
 21
9.7069625E-002
  0
LINE
  8
108
  6
CONTINUOUS
 62
1
 10
3.7274608E-002
 20
1.1121452E-001
 11
5.7908361E-001
 21
-4.3059457E-001
  0
LINE
  8
108
  6
CONTINUOUS
 62
1
 10
5.7908361E-001
 20
-4.1644968E-001
 11
3.7274608E-002
 21
1.2535943E-001
  0
LINE
  8
108
  6
CONTINUOUS
 62
1
 10
3.7274608E-002
 20
1.3948902E-001
 11
5.7908361E-001
 21
-4.0232008E-001
  0
LINE
  8
108
  6
CONTINUOUS
 62
1
 10
5.7908361E-001
 20
-3.8815987E-001
 11
3.7274608E-002
 21
1.5364923E-001
  0
LINE
  8
108
  6
CONTINUOUS
 62
1
 10
3.7274608E-002
 20
1.6777882E-001
 11
5.7908361E-001
 21
-3.7403028E-001
  0
LINE
  8
108
  6
CONTINUOUS
 62
1
 10
5.7908361E-001
 20
-3.5988538E-001
 11
3.7274608E-002
 21
1.8192373E-001
  0
LINE
  8
108
  6
CONTINUOUS
 62
1
 10
3.7274608E-002
 20
1.9606863E-001
 11
5.7908361E-001
 21
-3.4574047E-001
  0
LINE
  8
108
  6
CONTINUOUS
 62
1
 10
5.7908361E-001
 20
-3.3161088E-001
 11
3.7274608E-002
 21
2.1019822E-001
  0
LINE
  8
108
  6
CONTINUOUS
 62
1
 10
3.7274608E-002
 20
2.2435843E-001
 11
5.7908361E-001
 21
-3.1745068E-001
  0
LINE
  8
108
  6
CONTINUOUS
 62
1
 10
5.7908361E-001
 20
-3.0332108E-001
 11
3.7274608E-002
 21
2.3848802E-001
  0
LINE
  8
108
  6
CONTINUOUS
 62
1
 10
3.7274608E-002
 20
2.5263293E-001
 11
5.7908361E-001
 21
-2.8917617E-001
  0
LINE
  8
108
  6
CONTINUOUS
 62
1
 10
5.7908361E-001
 20
-2.7503128E-001
 11
3.7274608E-002
 21
2.6677783E-001
  0
LINE
  8
108
  6
CONTINUOUS
 62
1
 10
3.7274608E-002
 20
2.8092272E-001
 11
5.7908361E-001
 21
-2.6088638E-001
  0
LINE
  8
108
  6
CONTINUOUS
 62
1
 10
5.7908361E-001
 20
-2.4674147E-001
 11
3.7274608E-002
 21
2.9506763E-001
  0
LINE
  8
108
  6
CONTINUOUS
 62
1
 10
3.7274608E-002
 20
3.0919733E-001
 11
5.7908361E-001
 21
-2.3261177E-001
  0
LINE
  8
108
  6
CONTINUOUS
 62
1
 10
5.7908361E-001
 20
-2.1845168E-001
 11
3.7274608E-002
 21
3.2335742E-001
  0
LINE
  8
108
  6
CONTINUOUS
 62
1
 10
3.7274608E-002
 20
3.3748703E-001
 11
5.7908361E-001
 21
-2.0432197E-001
  0
LINE
  8
108
  6
CONTINUOUS
 62
1
 10
5.7908361E-001
 20
-1.9017708E-001
 11
3.7274608E-002
 21
3.5163193E-001
  0
LINE
  8
108
  6
CONTINUOUS
 62
1
 10
3.7274608E-002
 20
3.6577683E-001
 11
5.7908361E-001
 21
-1.7603218E-001
  0
LINE
  8
108
  6
CONTINUOUS
 62
1
 10
5.7908361E-001
 20
-1.6190257E-001
 11
3.7274608E-002
 21
3.7990652E-001
  0
LINE
  8
108
  6
CONTINUOUS
 62
1
 10
3.7274608E-002
 20
3.9406663E-001
 11
5.7908361E-001
 21
-1.4774238E-001
  0
LINE
  8
108
  6
CONTINUOUS
 62
1
 10
5.7908361E-001
 20
-1.3361277E-001
 11
3.7274608E-002
 21
4.0819633E-001
  0
LINE
  8
108
  6
CONTINUOUS
 62
1
 10
3.7274608E-002
 20
4.2234122E-001
 11
5.7908361E-001
 21
-1.1946788E-001
  0
LINE
  8
108
  6
CONTINUOUS
 62
1
 10
5.7908361E-001
 20
-1.0532298E-001
 11
3.7274608E-002
 21
4.3648613E-001
  0
LINE
  8
108
  6
CONTINUOUS
 62
1
 10
3.7274608E-002
 20
4.5061573E-001
 11
5.7908361E-001
 21
-9.1193375E-002
  0
LINE
  8
108
  6
CONTINUOUS
 62
1
 10
5.7908361E-001
 20
-7.7033175E-002
 11
3.7274608E-002
 21
4.6477592E-001
  0
LINE
  8
108
  6
CONTINUOUS
 62
1
 10
3.7274608E-002
 20
4.7890553E-001
 11
5.7908361E-001
 21
-6.2903575E-002
  0
LINE
  8
108
  6
CONTINUOUS
 62
1
 10
5.7908361E-001
 20
-4.8758675E-002
 11
3.7274608E-002
 21
4.9305043E-001
  0
LINE
  8
108
  6
CONTINUOUS
 62
1
 10
3.7274608E-002
 20
5.0719532E-001
 11
5.7908361E-001
 21
-3.4613775E-002
  0
LINE
  8
108
  6
CONTINUOUS
 62
1
 10
5.7908361E-001
 20
-2.0484075E-002
 11
3.7274608E-002
 21
5.2132493E-001
  0
LINE
  8
108
  6
CONTINUOUS
 62
1
 10
3.7274608E-002
 20
5.3548513E-001
 11
5.7908361E-001
 21
-6.323975E-003
  0
LINE
  8
108
  6
CONTINUOUS
 62
1
 10
5.7908361E-001
 20
7.805725E-003
 11
3.7274608E-002
 21
5.4961472E-001
  0
LINE
  8
108
  6
CONTINUOUS
 62
1
 10
3.7274608E-002
 20
5.6375962E-001
 11
5.7908361E-001
 21
2.1950525E-002
  0
LINE
  8
108
  6
CONTINUOUS
 62
1
 10
5.7908361E-001
 20
3.6095425E-002
 11
3.7274608E-002
 21
5.7790453E-001
  0
LINE
  8
108
  6
CONTINUOUS
 62
1
 10
3.7274608E-002
 20
5.9204943E-001
 11
5.7908361E-001
 21
5.0240325E-002
  0
LINE
  8
108
  6
CONTINUOUS
 62
1
 10
5.7908361E-001
 20
6.4385225E-002
 11
3.7274608E-002
 21
6.0619433E-001
  0
LINE
  8
108
  6
CONTINUOUS
 62
1
 10
3.7274608E-002
 20
6.2032402E-001
 11
5.7908361E-001
 21
7.8514925E-002
  0
LINE
  8
108
  6
CONTINUOUS
 62
1
 10
5.7908361E-001
 20
9.2675025E-002
 11
3.7274608E-002
 21
6.3448412E-001
  0
LINE
  8
108
  6
CONTINUOUS
 62
1
 10
3.7274608E-002
 20
6.4861382E-001
 11
5.7908361E-001
 21
1.0680473E-001
  0
LINE
  8
108
  6
CONTINUOUS
 62
1
 10
5.7908361E-001
 20
1.2094963E-001
 11
3.7274608E-002
 21
6.6275872E-001
  0
LINE
  8
108
  6
CONTINUOUS
 62
1
 10
3.7274608E-002
 20
6.7690363E-001
 11
5.7908361E-001
 21
1.3509452E-001
  0
LINE
  8
108
  6
CONTINUOUS
 62
1
 10
5.7908361E-001
 20
1.4922413E-001
 11
3.7274608E-002
 21
6.9103322E-001
  0
LINE
  8
108
  6
CONTINUOUS
 62
1
 10
5.0854608E-002
 20
6.9161302E-001
 11
5.7908361E-001
 21
1.6338433E-001
  0
LINE
  8
108
  6
CONTINUOUS
 62
1
 10
5.7908361E-001
 20
1.7751392E-001
 11
6.4983608E-002
 21
6.9161302E-001
  0
LINE
  8
108
  6
CONTINUOUS
 62
1
 10
7.9144608E-002
 20
6.9161302E-001
 11
5.7908361E-001
 21
1.9165883E-001
  0
LINE
  8
108
  6
CONTINUOUS
 62
1
 10
5.7908361E-001
 20
2.0580372E-001
 11
9.3273608E-002
 21
6.9161302E-001
  0
LINE
  8
108
  6
CONTINUOUS
 62
1
 10
1.0743361E-001
 20
6.9161302E-001
 11
5.7908361E-001
 21
2.1993333E-001
  0
LINE
  8
108
  6
CONTINUOUS
 62
1
 10
5.7908361E-001
 20
2.3409353E-001
 11
1.2156361E-001
 21
6.9161302E-001
  0
LINE
  8
108
  6
CONTINUOUS
 62
1
 10
1.3569361E-001
 20
6.9161302E-001
 11
5.7908361E-001
 21
2.4822312E-001
  0
LINE
  8
108
  6
CONTINUOUS
 62
1
 10
5.7908361E-001
 20
2.6236803E-001
 11
1.4985361E-001
 21
6.9161302E-001
  0
LINE
  8
108
  6
CONTINUOUS
 62
1
 10
1.6398361E-001
 20
6.9161302E-001
 11
5.7908361E-001
 21
2.7651293E-001
  0
LINE
  8
108
  6
CONTINUOUS
 62
1
 10
5.7908361E-001
 20
2.9064262E-001
 11
1.7814361E-001
 21
6.9161302E-001
  0
LINE
  8
108
  6
CONTINUOUS
 62
1
 10
1.9227261E-001
 20
6.9161302E-001
 11
5.7908361E-001
 21
3.0480273E-001
  0
LINE
  8
108
  6
CONTINUOUS
 62
1
 10
5.7908361E-001
 20
3.1893243E-001
 11
2.0640261E-001
 21
6.9161302E-001
  0
LINE
  8
108
  6
CONTINUOUS
 62
1
 10
2.2056261E-001
 20
6.9161302E-001
 11
5.7908361E-001
 21
3.3307732E-001
  0
LINE
  8
108
  6
CONTINUOUS
 62
1
 10
5.7908361E-001
 20
3.4722223E-001
 11
2.3469261E-001
 21
6.9161302E-001
  0
LINE
  8
108
  6
CONTINUOUS
 62
1
 10
2.4885261E-001
 20
6.9161302E-001
 11
5.7908361E-001
 21
3.6136713E-001
  0
LINE
  8
108
  6
CONTINUOUS
 62
1
 10
5.7908361E-001
 20
3.7551193E-001
 11
2.6298261E-001
 21
6.9161302E-001
  0
LINE
  8
108
  6
CONTINUOUS
 62
1
 10
2.7711161E-001
 20
6.9161302E-001
 11
5.7908361E-001
 21
3.8964162E-001
  0
LINE
  8
108
  6
CONTINUOUS
 62
1
 10
5.7908361E-001
 20
4.0380173E-001
 11
2.9127161E-001
 21
6.9161302E-001
  0
LINE
  8
108
  6
CONTINUOUS
 62
1
 10
3.0540161E-001
 20
6.9161302E-001
 11
5.7908361E-001
 21
4.1793143E-001
  0
LINE
  8
108
  6
CONTINUOUS
 62
1
 10
5.7908361E-001
 20
4.3207632E-001
 11
3.1956161E-001
 21
6.9161302E-001
  0
LINE
  8
108
  6
CONTINUOUS
 62
1
 10
3.3369161E-001
 20
6.9161302E-001
 11
5.7908361E-001
 21
4.4622123E-001
  0
LINE
  8
108
  6
CONTINUOUS
 62
1
 10
5.7908361E-001
 20
4.6035083E-001
 11
3.4785161E-001
 21
6.9161302E-001
  0
LINE
  8
108
  6
CONTINUOUS
 62
1
 10
3.6198161E-001
 20
6.9161302E-001
 11
5.7908361E-001
 21
4.7451102E-001
  0
LINE
  8
108
  6
CONTINUOUS
 62
1
 10
5.7908361E-001
 20
4.8864063E-001
 11
3.7611061E-001
 21
6.9161302E-001
  0
LINE
  8
108
  6
CONTINUOUS
 62
1
 10
3.9027061E-001
 20
6.9161302E-001
 11
5.7908361E-001
 21
5.0278552E-001
  0
LINE
  8
108
  6
CONTINUOUS
 62
1
 10
5.7908361E-001
 20
5.1693042E-001
 11
4.0440061E-001
 21
6.9161302E-001
  0
LINE
  8
108
  6
CONTINUOUS
 62
1
 10
4.1856061E-001
 20
6.9161302E-001
 11
5.7908361E-001
 21
5.3106003E-001
  0
LINE
  8
108
  6
CONTINUOUS
 62
1
 10
5.7908361E-001
 20
5.4522023E-001
 11
4.3269061E-001
 21
6.9161302E-001
  0
LINE
  8
108
  6
CONTINUOUS
 62
1
 10
4.4681961E-001
 20
6.9161302E-001
 11
5.7908361E-001
 21
5.5934982E-001
  0
LINE
  8
108
  6
CONTINUOUS
 62
1
 10
5.7908361E-001
 20
5.7349472E-001
 11
4.6098061E-001
 21
6.9161302E-001
  0
LINE
  8
108
  6
CONTINUOUS
 62
1
 10
4.7510961E-001
 20
6.9161302E-001
 11
5.7908361E-001
 21
5.8763963E-001
  0
LINE
  8
108
  6
CONTINUOUS
 62
1
 10
5.7908361E-001
 20
6.0178453E-001
 11
4.8926961E-001
 21
6.9161302E-001
  0
LINE
  8
108
  6
CONTINUOUS
 62
1
 10
5.0339961E-001
 20
6.9161302E-001
 11
5.7908361E-001
 21
6.1592943E-001
  0
LINE
  8
108
  6
CONTINUOUS
 62
1
 10
5.7908361E-001
 20
6.3005913E-001
 11
5.1752961E-001
 21
6.9161302E-001
  0
LINE
  8
108
  6
CONTINUOUS
 62
1
 10
5.3168961E-001
 20
6.9161302E-001
 11
5.7908361E-001
 21
6.4420402E-001
  0
LINE
  8
108
  6
CONTINUOUS
 62
1
 10
5.7908361E-001
 20
6.5834892E-001
 11
5.4581861E-001
 21
6.9161302E-001
  0
LINE
  8
108
  6
CONTINUOUS
 62
1
 10
5.5997961E-001
 20
6.9161302E-001
 11
5.7908361E-001
 21
6.7249382E-001
  0
LINE
  8
108
  6
CONTINUOUS
 62
1
 10
5.7908361E-001
 20
6.8663873E-001
 11
5.7908361E-001
 21
6.9161302E-001
  0
ENDBLK
  0
BLOCK
  2
*XH45
  3
*XH
 10
0.0
 20
0.0
 70
65
  0
LINE
  8
108
  6
CONTINUOUS
 62
1
 10
-5.7824859E-001
 20
-4.649471E-001
 11
-5.7824859E-001
 21
-4.693722E-001
  0
LINE
  8
108
  6
CONTINUOUS
 62
1
 10
-5.5969359E-001
 20
-4.693722E-001
 11
-5.7824859E-001
 21
-4.508175E-001
  0
LINE
  8
108
  6
CONTINUOUS
 62
1
 10
-5.7824859E-001
 20
-4.366726E-001
 11
-5.4553359E-001
 21
-4.693722E-001
  0
LINE
  8
108
  6
CONTINUOUS
 62
1
 10
-5.3140359E-001
 20
-4.693722E-001
 11
-5.7824859E-001
 21
-4.225277E-001
  0
LINE
  8
108
  6
CONTINUOUS
 62
1
 10
-5.7824859E-001
 20
-4.08398E-001
 11
-5.1727459E-001
 21
-4.693722E-001
  0
LINE
  8
108
  6
CONTINUOUS
 62
1
 10
-5.0311459E-001
 20
-4.693722E-001
 11
-5.7824859E-001
 21
-3.942379E-001
  0
LINE
  8
108
  6
CONTINUOUS
 62
1
 10
-5.7824859E-001
 20
-3.801082E-001
 11
-4.8898459E-001
 21
-4.693722E-001
  0
LINE
  8
108
  6
CONTINUOUS
 62
1
 10
-4.7482459E-001
 20
-4.693722E-001
 11
-5.7824859E-001
 21
-3.659633E-001
  0
LINE
  8
108
  6
CONTINUOUS
 62
1
 10
-5.7824859E-001
 20
-3.518185E-001
 11
-4.6069459E-001
 21
-4.693722E-001
  0
LINE
  8
108
  6
CONTINUOUS
 62
1
 10
-4.4656559E-001
 20
-4.693722E-001
 11
-5.7824859E-001
 21
-3.376736E-001
  0
LINE
  8
108
  6
CONTINUOUS
 62
1
 10
-5.7824859E-001
 20
-3.235287E-001
 11
-4.3240459E-001
 21
-4.693722E-001
  0
LINE
  8
108
  6
CONTINUOUS
 62
1
 10
-4.1827559E-001
 20
-4.693722E-001
 11
-5.7824859E-001
 21
-3.09399E-001
  0
LINE
  8
108
  6
CONTINUOUS
 62
1
 10
-5.7824859E-001
 20
-2.952541E-001
 11
-4.0411559E-001
 21
-4.693722E-001
  0
LINE
  8
108
  6
CONTINUOUS
 62
1
 10
-3.8998559E-001
 20
-4.693722E-001
 11
-5.7824859E-001
 21
-2.811092E-001
  0
LINE
  8
108
  6
CONTINUOUS
 62
1
 10
-5.7824859E-001
 20
-2.669643E-001
 11
-3.7585559E-001
 21
-4.693722E-001
  0
LINE
  8
108
  6
CONTINUOUS
 62
1
 10
-3.6169559E-001
 20
-4.693722E-001
 11
-5.7824859E-001
 21
-2.528194E-001
  0
LINE
  8
108
  6
CONTINUOUS
 62
1
 10
-5.7824859E-001
 20
-2.386898E-001
 11
-3.4756659E-001
 21
-4.693722E-001
  0
LINE
  8
108
  6
CONTINUOUS
 62
1
 10
-3.3340559E-001
 20
-4.693722E-001
 11
-5.7824859E-001
 21
-2.245296E-001
  0
LINE
  8
108
  6
CONTINUOUS
 62
1
 10
-5.7824859E-001
 20
-2.104E-001
 11
-3.1927659E-001
 21
-4.693722E-001
  0
LINE
  8
108
  6
CONTINUOUS
 62
1
 10
-3.0514659E-001
 20
-4.693722E-001
 11
-5.7824859E-001
 21
-1.962551E-001
  0
LINE
  8
108
  6
CONTINUOUS
 62
1
 10
-5.7824859E-001
 20
-1.821102E-001
 11
-2.9098659E-001
 21
-4.693722E-001
  0
LINE
  8
108
  6
CONTINUOUS
 62
1
 10
-2.7685659E-001
 20
-4.693722E-001
 11
-5.7824859E-001
 21
-1.679806E-001
  0
LINE
  8
108
  6
CONTINUOUS
 62
1
 10
-5.7824859E-001
 20
-1.538204E-001
 11
-2.6269659E-001
 21
-4.693722E-001
  0
LINE
  8
108
  6
CONTINUOUS
 62
1
 10
-2.4856759E-001
 20
-4.693722E-001
 11
-5.7824859E-001
 21
-1.396908E-001
  0
LINE
  8
108
  6
CONTINUOUS
 62
1
 10
-5.7824859E-001
 20
-1.255459E-001
 11
-2.3440659E-001
 21
-4.693722E-001
  0
LINE
  8
108
  6
CONTINUOUS
 62
1
 10
-2.2027759E-001
 20
-4.693722E-001
 11
-5.7824859E-001
 21
-1.11401E-001
  0
LINE
  8
108
  6
CONTINUOUS
 62
1
 10
-5.7824859E-001
 20
-9.72713E-002
 11
-2.0614759E-001
 21
-4.693722E-001
  0
LINE
  8
108
  6
CONTINUOUS
 62
1
 10
-1.9198759E-001
 20
-4.693722E-001
 11
-5.7824859E-001
 21
-8.31112E-002
  0
LINE
  8
108
  6
CONTINUOUS
 62
1
 10
-5.7824859E-001
 20
-6.89815E-002
 11
-1.7785759E-001
 21
-4.693722E-001
  0
LINE
  8
108
  6
CONTINUOUS
 62
1
 10
-1.6369759E-001
 20
-4.693722E-001
 11
-5.7824859E-001
 21
-5.48366E-002
  0
LINE
  8
108
  6
CONTINUOUS
 62
1
 10
-5.7824859E-001
 20
-4.06917E-002
 11
-1.4956859E-001
 21
-4.693722E-001
  0
LINE
  8
108
  6
CONTINUOUS
 62
1
 10
-1.3543859E-001
 20
-4.693722E-001
 11
-5.7824859E-001
 21
-2.65468E-002
  0
LINE
  8
108
  6
CONTINUOUS
 62
1
 10
-5.7824859E-001
 20
-1.24019E-002
 11
-1.2127859E-001
 21
-4.693722E-001
  0
LINE
  8
108
  6
CONTINUOUS
 62
1
 10
-1.0714859E-001
 20
-4.693722E-001
 11
-5.7824859E-001
 21
1.7277002E-003
  0
LINE
  8
108
  6
CONTINUOUS
 62
1
 10
-5.7824859E-001
 20
1.58878E-002
 11
-9.2988589E-002
 21
-4.693722E-001
  0
LINE
  8
108
  6
CONTINUOUS
 62
1
 10
-7.8858589E-002
 20
-4.693722E-001
 11
-5.7824859E-001
 21
3.00175E-002
  0
LINE
  8
108
  6
CONTINUOUS
 62
1
 10
-5.7824859E-001
 20
4.41624E-002
 11
-6.4729589E-002
 21
-4.693722E-001
  0
LINE
  8
108
  6
CONTINUOUS
 62
1
 10
-5.0569589E-002
 20
-4.693722E-001
 11
-5.7824859E-001
 21
5.83073E-002
  0
LINE
  8
108
  6
CONTINUOUS
 62
1
 10
-5.7824859E-001
 20
7.24369E-002
 11
-3.6439589E-002
 21
-4.693722E-001
  0
LINE
  8
108
  6
CONTINUOUS
 62
1
 10
-2.2279589E-002
 20
-4.693722E-001
 11
-5.7824859E-001
 21
8.65971E-002
  0
LINE
  8
108
  6
CONTINUOUS
 62
1
 10
-5.7824859E-001
 20
1.007267E-001
 11
-8.1495889E-003
 21
-4.693722E-001
  0
LINE
  8
108
  6
CONTINUOUS
 62
1
 10
5.9804111E-003
 20
-4.693722E-001
 11
-5.7824859E-001
 21
1.148716E-001
  0
LINE
  8
108
  6
CONTINUOUS
 62
1
 10
-5.7824859E-001
 20
1.290165E-001
 11
2.0140411E-002
 21
-4.693722E-001
  0
LINE
  8
108
  6
CONTINUOUS
 62
1
 10
3.4269411E-002
 20
-4.693722E-001
 11
-5.7824859E-001
 21
1.431461E-001
  0
LINE
  8
108
  6
CONTINUOUS
 62
1
 10
-5.7824859E-001
 20
1.573063E-001
 11
4.8430411E-002
 21
-4.693722E-001
  0
LINE
  8
108
  6
CONTINUOUS
 62
1
 10
6.2559411E-002
 20
-4.693722E-001
 11
-5.7824859E-001
 21
1.714359E-001
  0
LINE
  8
108
  6
CONTINUOUS
 62
1
 10
-5.7824859E-001
 20
1.855808E-001
 11
7.6719411E-002
 21
-4.693722E-001
  0
LINE
  8
108
  6
CONTINUOUS
 62
1
 10
9.0849411E-002
 20
-4.693722E-001
 11
-5.7824859E-001
 21
1.997257E-001
  0
LINE
  8
108
  6
CONTINUOUS
 62
1
 10
-5.7824859E-001
 20
2.138554E-001
 11
1.0497941E-001
 21
-4.693722E-001
  0
LINE
  8
108
  6
CONTINUOUS
 62
1
 10
1.1913941E-001
 20
-4.693722E-001
 11
-5.7824859E-001
 21
2.280155E-001
  0
LINE
  8
108
  6
CONTINUOUS
 62
1
 10
-5.7824859E-001
 20
2.421452E-001
 11
1.3326841E-001
 21
-4.693722E-001
  0
LINE
  8
108
  6
CONTINUOUS
 62
1
 10
1.4742941E-001
 20
-4.693722E-001
 11
-5.7824859E-001
 21
2.562901E-001
  0
LINE
  8
108
  6
CONTINUOUS
 62
1
 10
-5.7824859E-001
 20
2.70435E-001
 11
1.6155841E-001
 21
-4.693722E-001
  0
LINE
  8
108
  6
CONTINUOUS
 62
1
 10
1.7568841E-001
 20
-4.693722E-001
 11
-5.7824859E-001
 21
2.845799E-001
  0
LINE
  8
108
  6
CONTINUOUS
 62
1
 10
-5.7824859E-001
 20
2.987248E-001
 11
1.8984841E-001
 21
-4.693722E-001
  0
LINE
  8
108
  6
CONTINUOUS
 62
1
 10
2.0397841E-001
 20
-4.693722E-001
 11
-5.7824859E-001
 21
3.128544E-001
  0
LINE
  8
108
  6
CONTINUOUS
 62
1
 10
-5.7824859E-001
 20
3.270146E-001
 11
2.1813841E-001
 21
-4.693722E-001
  0
LINE
  8
108
  6
CONTINUOUS
 62
1
 10
2.3226741E-001
 20
-4.693722E-001
 11
-5.7824859E-001
 21
3.411442E-001
  0
LINE
  8
108
  6
CONTINUOUS
 62
1
 10
-5.7824859E-001
 20
3.552891E-001
 11
2.4639741E-001
 21
-4.693722E-001
  0
LINE
  8
108
  6
CONTINUOUS
 62
1
 10
2.6055741E-001
 20
-4.693722E-001
 11
-5.7824859E-001
 21
3.69434E-001
  0
LINE
  8
108
  6
CONTINUOUS
 62
1
 10
-5.7824859E-001
 20
3.835636E-001
 11
2.7468741E-001
 21
-4.693722E-001
  0
LINE
  8
108
  6
CONTINUOUS
 62
1
 10
2.8884741E-001
 20
-4.693722E-001
 11
-5.7824859E-001
 21
3.977238E-001
  0
LINE
  8
108
  6
CONTINUOUS
 62
1
 10
-5.7824859E-001
 20
4.118534E-001
 11
3.0297741E-001
 21
-4.693722E-001
  0
LINE
  8
108
  6
CONTINUOUS
 62
1
 10
3.1713741E-001
 20
-4.693722E-001
 11
-5.7824859E-001
 21
4.259983E-001
  0
LINE
  8
108
  6
CONTINUOUS
 62
1
 10
-5.7824859E-001
 20
4.401432E-001
 11
3.3126641E-001
 21
-4.693722E-001
  0
LINE
  8
108
  6
CONTINUOUS
 62
1
 10
3.4539641E-001
 20
-4.693722E-001
 11
-5.7824859E-001
 21
4.542729E-001
  0
LINE
  8
108
  6
CONTINUOUS
 62
1
 10
-5.7824859E-001
 20
4.68433E-001
 11
3.5955641E-001
 21
-4.693722E-001
  0
LINE
  8
108
  6
CONTINUOUS
 62
1
 10
3.7368641E-001
 20
-4.693722E-001
 11
-5.7824859E-001
 21
4.825627E-001
  0
LINE
  8
108
  6
CONTINUOUS
 62
1
 10
-5.7824859E-001
 20
4.967076E-001
 11
3.8784641E-001
 21
-4.693722E-001
  0
LINE
  8
108
  6
CONTINUOUS
 62
1
 10
4.0197641E-001
 20
-4.693722E-001
 11
-5.7824859E-001
 21
5.108524E-001
  0
LINE
  8
108
  6
CONTINUOUS
 62
1
 10
-5.7824859E-001
 20
5.249821E-001
 11
4.1610541E-001
 21
-4.693722E-001
  0
LINE
  8
108
  6
CONTINUOUS
 62
1
 10
4.3026541E-001
 20
-4.693722E-001
 11
-5.7824859E-001
 21
5.391422E-001
  0
LINE
  8
108
  6
CONTINUOUS
 62
1
 10
-5.7824859E-001
 20
5.532719E-001
 11
4.4439541E-001
 21
-4.693722E-001
  0
LINE
  8
108
  6
CONTINUOUS
 62
1
 10
4.5855541E-001
 20
-4.693722E-001
 11
-2.4018589E-002
 21
1.3187E-002
  0
LINE
  8
108
  6
CONTINUOUS
 62
1
 10
-3.6439589E-002
 20
2.56077E-002
 11
-5.7824859E-001
 21
5.674168E-001
  0
LINE
  8
108
  6
CONTINUOUS
 62
1
 10
-5.7824859E-001
 20
5.815617E-001
 11
-3.6439589E-002
 21
3.97526E-002
  0
LINE
  8
108
  6
CONTINUOUS
 62
1
 10
-9.8585889E-003
 20
1.3187E-002
 11
4.7268541E-001
 21
-4.693722E-001
  0
LINE
  8
108
  6
CONTINUOUS
 62
1
 10
4.8681541E-001
 20
-4.693722E-001
 11
4.2714111E-003
 21
1.3187E-002
  0
LINE
  8
108
  6
CONTINUOUS
 62
1
 10
-3.6439589E-002
 20
5.38975E-002
 11
-5.7824859E-001
 21
5.957066E-001
  0
LINE
  8
108
  6
CONTINUOUS
 62
1
 10
-5.7824859E-001
 20
6.098515E-001
 11
-3.6439589E-002
 21
6.80424E-002
  0
LINE
  8
108
  6
CONTINUOUS
 62
1
 10
1.8400411E-002
 20
1.3187E-002
 11
5.0097541E-001
 21
-4.693722E-001
  0
LINE
  8
108
  6
CONTINUOUS
 62
1
 10
5.1510441E-001
 20
-4.693722E-001
 11
3.2560411E-002
 21
1.3187E-002
  0
LINE
  8
108
  6
CONTINUOUS
 62
1
 10
-3.6439589E-002
 20
8.2172E-002
 11
-5.7824859E-001
 21
6.239811E-001
  0
LINE
  8
108
  6
CONTINUOUS
 62
1
 10
-5.7824859E-001
 20
6.381413E-001
 11
-3.6439589E-002
 21
9.63322E-002
  0
LINE
  8
108
  6
CONTINUOUS
 62
1
 10
4.6690411E-002
 20
1.3187E-002
 11
5.2926441E-001
 21
-4.693722E-001
  0
LINE
  8
108
  6
CONTINUOUS
 62
1
 10
5.4339441E-001
 20
-4.693722E-001
 11
6.0850411E-002
 21
1.3187E-002
  0
LINE
  8
108
  6
CONTINUOUS
 62
1
 10
-3.6439589E-002
 20
1.104618E-001
 11
-5.7824859E-001
 21
6.522709E-001
  0
LINE
  8
108
  6
CONTINUOUS
 62
1
 10
-5.7824859E-001
 20
6.664158E-001
 11
-3.6439589E-002
 21
1.246067E-001
  0
LINE
  8
108
  6
CONTINUOUS
 62
1
 10
7.4980411E-002
 20
1.3187E-002
 11
5.5752441E-001
 21
-4.693722E-001
  0
LINE
  8
108
  6
CONTINUOUS
 62
1
 10
5.7168441E-001
 20
-4.693722E-001
 11
8.9109411E-002
 21
1.3187E-002
  0
LINE
  8
108
  6
CONTINUOUS
 62
1
 10
-3.6439589E-002
 20
1.387516E-001
 11
-5.7824859E-001
 21
6.805607E-001
  0
LINE
  8
108
  6
CONTINUOUS
 62
1
 10
-5.7400659E-001
 20
6.904484E-001
 11
-3.6439589E-002
 21
1.528813E-001
  0
LINE
  8
108
  6
CONTINUOUS
 62
1
 10
1.0327041E-001
 20
1.3187E-002
 11
5.8581441E-001
 21
-4.693722E-001
  0
LINE
  8
108
  6
CONTINUOUS
 62
1
 10
5.9997441E-001
 20
-4.693722E-001
 11
1.1739941E-001
 21
1.3187E-002
  0
LINE
  8
108
  6
CONTINUOUS
 62
1
 10
-3.6439589E-002
 20
1.670414E-001
 11
-5.5987659E-001
 21
6.904484E-001
  0
LINE
  8
108
  6
CONTINUOUS
 62
1
 10
-5.4571659E-001
 20
6.904484E-001
 11
-3.6439589E-002
 21
1.811711E-001
  0
LINE
  8
108
  6
CONTINUOUS
 62
1
 10
1.3155941E-001
 20
1.3187E-002
 11
6.1410341E-001
 21
-4.693722E-001
  0
LINE
  8
108
  6
CONTINUOUS
 62
1
 10
6.2826341E-001
 20
-4.693722E-001
 11
1.4568941E-001
 21
1.3187E-002
  0
LINE
  8
108
  6
CONTINUOUS
 62
1
 10
-3.6439589E-002
 20
1.953159E-001
 11
-5.3158759E-001
 21
6.904484E-001
  0
LINE
  8
108
  6
CONTINUOUS
 62
1
 10
-5.1742659E-001
 20
6.904484E-001
 11
-3.6439589E-002
 21
2.094608E-001
  0
LINE
  8
108
  6
CONTINUOUS
 62
1
 10
1.5981941E-001
 20
1.3187E-002
 11
6.4239341E-001
 21
-4.693722E-001
  0
LINE
  8
108
  6
CONTINUOUS
 62
1
 10
6.5652341E-001
 20
-4.693722E-001
 11
1.7397941E-001
 21
1.3187E-002
  0
LINE
  8
108
  6
CONTINUOUS
 62
1
 10
-3.6439589E-002
 20
2.235905E-001
 11
-5.0329759E-001
 21
6.904484E-001
  0
LINE
  8
108
  6
CONTINUOUS
 62
1
 10
-4.8916759E-001
 20
6.904484E-001
 11
-3.6439589E-002
 21
2.377506E-001
  0
LINE
  8
108
  6
CONTINUOUS
 62
1
 10
1.8810841E-001
 20
1.3187E-002
 11
6.7068341E-001
 21
-4.693722E-001
  0
LINE
  8
108
  6
CONTINUOUS
 62
1
 10
6.8481341E-001
 20
-4.693722E-001
 11
2.0226941E-001
 21
1.3187E-002
  0
LINE
  8
108
  6
CONTINUOUS
 62
1
 10
-3.6439589E-002
 20
2.518803E-001
 11
-4.7500759E-001
 21
6.904484E-001
  0
LINE
  8
108
  6
CONTINUOUS
 62
1
 10
-4.6087759E-001
 20
6.904484E-001
 11
-3.6439589E-002
 21
2.660252E-001
  0
LINE
  8
108
  6
CONTINUOUS
 62
1
 10
2.1639841E-001
 20
1.3187E-002
 11
6.9897341E-001
 21
-4.693722E-001
  0
LINE
  8
108
  6
CONTINUOUS
 62
1
 10
7.1310241E-001
 20
-4.693722E-001
 11
2.3052841E-001
 21
1.3187E-002
  0
LINE
  8
108
  6
CONTINUOUS
 62
1
 10
-3.6439589E-002
 20
2.801701E-001
 11
-4.4671759E-001
 21
6.904484E-001
  0
LINE
  8
108
  6
CONTINUOUS
 62
1
 10
-4.3258859E-001
 20
6.904484E-001
 11
-3.6439589E-002
 21
2.94315E-001
  0
LINE
  8
108
  6
CONTINUOUS
 62
1
 10
2.4468841E-001
 20
1.3187E-002
 11
7.2723241E-001
 21
-4.693722E-001
  0
LINE
  8
108
  6
CONTINUOUS
 62
1
 10
7.4139241E-001
 20
-4.693722E-001
 11
2.5881841E-001
 21
1.3187E-002
  0
LINE
  8
108
  6
CONTINUOUS
 62
1
 10
-3.6439589E-002
 20
3.084599E-001
 11
-4.1842759E-001
 21
6.904484E-001
  0
LINE
  8
108
  6
CONTINUOUS
 62
1
 10
-4.0429859E-001
 20
6.904484E-001
 11
-3.6439589E-002
 21
3.225895E-001
  0
LINE
  8
108
  6
CONTINUOUS
 62
1
 10
2.7297841E-001
 20
1.3187E-002
 11
7.5552241E-001
 21
-4.693722E-001
  0
LINE
  8
108
  6
CONTINUOUS
 62
1
 10
7.6968241E-001
 20
-4.693722E-001
 11
2.8710741E-001
 21
1.3187E-002
  0
LINE
  8
108
  6
CONTINUOUS
 62
1
 10
-3.6439589E-002
 20
3.367344E-001
 11
-3.9016859E-001
 21
6.904484E-001
  0
LINE
  8
108
  6
CONTINUOUS
 62
1
 10
-3.7600859E-001
 20
6.904484E-001
 11
-3.6439589E-002
 21
3.508793E-001
  0
LINE
  8
108
  6
CONTINUOUS
 62
1
 10
3.0126841E-001
 20
1.3187E-002
 11
7.8381241E-001
 21
-4.693722E-001
  0
LINE
  8
108
  6
CONTINUOUS
 62
1
 10
7.9794141E-001
 20
-4.693722E-001
 11
3.1539741E-001
 21
1.3187E-002
  0
LINE
  8
108
  6
CONTINUOUS
 62
1
 10
-3.6439589E-002
 20
3.650242E-001
 11
-3.6187859E-001
 21
6.904484E-001
  0
LINE
  8
108
  6
CONTINUOUS
 62
1
 10
-3.4771859E-001
 20
6.904484E-001
 11
-3.6439589E-002
 21
3.791691E-001
  0
LINE
  8
108
  6
CONTINUOUS
 62
1
 10
3.2952741E-001
 20
1.3187E-002
 11
8.0337341E-001
 21
-4.606441E-001
  0
LINE
  8
108
  6
CONTINUOUS
 62
1
 10
8.0337341E-001
 20
-4.465145E-001
 11
3.4368741E-001
 21
1.3187E-002
  0
LINE
  8
108
  6
CONTINUOUS
 62
1
 10
-3.6439589E-002
 20
3.932987E-001
 11
-3.3358959E-001
 21
6.904484E-001
  0
LINE
  8
108
  6
CONTINUOUS
 62
1
 10
-3.1945959E-001
 20
6.904484E-001
 11
-3.6439589E-002
 21
4.074589E-001
  0
LINE
  8
108
  6
CONTINUOUS
 62
1
 10
3.5781741E-001
 20
1.3187E-002
 11
8.0337341E-001
 21
-4.323543E-001
  0
LINE
  8
108
  6
CONTINUOUS
 62
1
 10
8.0337341E-001
 20
-4.182247E-001
 11
3.7197741E-001
 21
1.3187E-002
  0
LINE
  8
108
  6
CONTINUOUS
 62
1
 10
-3.6439589E-002
 20
4.215885E-001
 11
-3.0529959E-001
 21
6.904484E-001
  0
LINE
  8
108
  6
CONTINUOUS
 62
1
 10
-2.9116959E-001
 20
6.904484E-001
 11
-3.6439589E-002
 21
4.357334E-001
  0
LINE
  8
108
  6
CONTINUOUS
 62
1
 10
3.8610741E-001
 20
1.3187E-002
 11
8.0337341E-001
 21
-4.040798E-001
  0
LINE
  8
108
  6
CONTINUOUS
 62
1
 10
8.0337341E-001
 20
-3.899349E-001
 11
4.0023641E-001
 21
1.3187E-002
  0
LINE
  8
108
  6
CONTINUOUS
 62
1
 10
-3.6439589E-002
 20
4.498783E-001
 11
-2.7700959E-001
 21
6.904484E-001
  0
LINE
  8
108
  6
CONTINUOUS
 62
1
 10
-2.6287959E-001
 20
6.904484E-001
 11
-3.6439589E-002
 21
4.64008E-001
  0
LINE
  8
108
  6
CONTINUOUS
 62
1
 10
4.1439641E-001
 20
1.3187E-002
 11
8.0337341E-001
 21
-3.758053E-001
  0
LINE
  8
108
  6
CONTINUOUS
 62
1
 10
8.0337341E-001
 20
-3.616451E-001
 11
4.2852641E-001
 21
1.3187E-002
  0
LINE
  8
108
  6
CONTINUOUS
 62
1
 10
-3.6439589E-002
 20
4.781681E-001
 11
-2.4875059E-001
 21
6.904484E-001
  0
LINE
  8
108
  6
CONTINUOUS
 62
1
 10
-2.3459059E-001
 20
6.904484E-001
 11
-3.6439589E-002
 21
4.922978E-001
  0
LINE
  8
108
  6
CONTINUOUS
 62
1
 10
4.4268641E-001
 20
1.3187E-002
 11
8.0337341E-001
 21
-3.475155E-001
  0
LINE
  8
108
  6
CONTINUOUS
 62
1
 10
8.0337341E-001
 20
-3.333706E-001
 11
4.5681641E-001
 21
1.3187E-002
  0
LINE
  8
108
  6
CONTINUOUS
 62
1
 10
-3.6439589E-002
 20
5.064427E-001
 11
-2.2046059E-001
 21
6.904484E-001
  0
LINE
  8
108
  6
CONTINUOUS
 62
1
 10
-2.0630059E-001
 20
6.904484E-001
 11
-3.6439589E-002
 21
5.205876E-001
  0
LINE
  8
108
  6
CONTINUOUS
 62
1
 10
4.7094541E-001
 20
1.3187E-002
 11
8.0337341E-001
 21
-3.192257E-001
  0
LINE
  8
108
  6
CONTINUOUS
 62
1
 10
8.0337341E-001
 20
-3.05096E-001
 11
4.8510641E-001
 21
1.3187E-002
  0
LINE
  8
108
  6
CONTINUOUS
 62
1
 10
-3.6439589E-002
 20
5.347172E-001
 11
-1.9217059E-001
 21
6.904484E-001
  0
LINE
  8
108
  6
CONTINUOUS
 62
1
 10
-1.7804059E-001
 20
6.904484E-001
 11
-3.6439589E-002
 21
5.488774E-001
  0
LINE
  8
108
  6
CONTINUOUS
 62
1
 10
4.9923541E-001
 20
1.3187E-002
 11
8.0337341E-001
 21
-2.909359E-001
  0
LINE
  8
108
  6
CONTINUOUS
 62
1
 10
8.0337341E-001
 20
-2.768062E-001
 11
5.1339541E-001
 21
1.3187E-002
  0
LINE
  8
108
  6
CONTINUOUS
 62
1
 10
-3.6439589E-002
 20
5.63007E-001
 11
-1.6388059E-001
 21
6.904484E-001
  0
LINE
  8
108
  6
CONTINUOUS
 62
1
 10
-1.4975159E-001
 20
6.904484E-001
 11
-3.6439589E-002
 21
5.771519E-001
  0
LINE
  8
108
  6
CONTINUOUS
 62
1
 10
5.2752541E-001
 20
1.3187E-002
 11
8.0337341E-001
 21
-2.626613E-001
  0
LINE
  8
108
  6
CONTINUOUS
 62
1
 10
8.0337341E-001
 20
-2.485164E-001
 11
5.4165541E-001
 21
1.3187E-002
  0
LINE
  8
108
  6
CONTINUOUS
 62
1
 10
-3.6439589E-002
 20
5.912968E-001
 11
-1.3559059E-001
 21
6.904484E-001
  0
LINE
  8
108
  6
CONTINUOUS
 62
1
 10
-1.2146159E-001
 20
6.904484E-001
 11
-3.6439589E-002
 21
6.054417E-001
  0
LINE
  8
108
  6
CONTINUOUS
 62
1
 10
5.5581541E-001
 20
1.3187E-002
 11
8.0337341E-001
 21
-2.343716E-001
  0
LINE
  8
108
  6
CONTINUOUS
 62
1
 10
8.0337341E-001
 20
-2.202267E-001
 11
5.6994441E-001
 21
1.3187E-002
  0
LINE
  8
108
  6
CONTINUOUS
 62
1
 10
-3.6439589E-002
 20
6.195866E-001
 11
-1.0730159E-001
 21
6.904484E-001
  0
LINE
  8
108
  6
CONTINUOUS
 62
1
 10
-9.3171589E-002
 20
6.904484E-001
 11
-3.6439589E-002
 21
6.337162E-001
  0
LINE
  8
108
  6
CONTINUOUS
 62
1
 10
5.8410541E-001
 20
1.3187E-002
 11
8.0337341E-001
 21
-2.06097E-001
  0
LINE
  8
108
  6
CONTINUOUS
 62
1
 10
8.0337341E-001
 20
-1.919521E-001
 11
5.9823441E-001
 21
1.3187E-002
  0
LINE
  8
108
  6
CONTINUOUS
 62
1
 10
-3.6439589E-002
 20
6.478611E-001
 11
-7.9041589E-002
 21
6.904484E-001
  0
LINE
  8
108
  6
CONTINUOUS
 62
1
 10
-6.4881589E-002
 20
6.904484E-001
 11
-3.6439589E-002
 21
6.62006E-001
  0
LINE
  8
108
  6
CONTINUOUS
 62
1
 10
6.1239441E-001
 20
1.3187E-002
 11
8.0337341E-001
 21
-1.778072E-001
  0
LINE
  8
108
  6
CONTINUOUS
 62
1
 10
8.0337341E-001
 20
-1.636623E-001
 11
6.2652441E-001
 21
1.3187E-002
  0
LINE
  8
108
  6
CONTINUOUS
 62
1
 10
-3.6439589E-002
 20
6.761509E-001
 11
-5.0752589E-002
 21
6.904484E-001
  0
LINE
  8
108
  6
CONTINUOUS
 62
1
 10
-3.6591589E-002
 20
6.904484E-001
 11
-3.6591589E-002
 21
6.902958E-001
  0
LINE
  8
108
  6
CONTINUOUS
 62
1
 10
6.4065441E-001
 20
1.3187E-002
 11
8.0337341E-001
 21
-1.495174E-001
  0
LINE
  8
108
  6
CONTINUOUS
 62
1
 10
8.0337341E-001
 20
-1.353878E-001
 11
6.5481441E-001
 21
1.3187E-002
  0
LINE
  8
108
  6
CONTINUOUS
 62
1
 10
6.6894341E-001
 20
1.3187E-002
 11
8.0337341E-001
 21
-1.212276E-001
  0
LINE
  8
108
  6
CONTINUOUS
 62
1
 10
8.0337341E-001
 20
-1.07098E-001
 11
6.8310441E-001
 21
1.3187E-002
  0
LINE
  8
108
  6
CONTINUOUS
 62
1
 10
6.9723341E-001
 20
1.3187E-002
 11
8.0337341E-001
 21
-9.29531E-002
  0
LINE
  8
108
  6
CONTINUOUS
 62
1
 10
8.0337341E-001
 20
-7.88082E-002
 11
7.1136341E-001
 21
1.3187E-002
  0
LINE
  8
108
  6
CONTINUOUS
 62
1
 10
7.2552341E-001
 20
1.3187E-002
 11
8.0337341E-001
 21
-6.46786E-002
  0
LINE
  8
108
  6
CONTINUOUS
 62
1
 10
8.0337341E-001
 20
-5.05184E-002
 11
7.3965341E-001
 21
1.3187E-002
  0
LINE
  8
108
  6
CONTINUOUS
 62
1
 10
7.5381341E-001
 20
1.3187E-002
 11
8.0337341E-001
 21
-3.63888E-002
  0
LINE
  8
108
  6
CONTINUOUS
 62
1
 10
8.0337341E-001
 20
-2.22439E-002
 11
7.6794241E-001
 21
1.3187E-002
  0
LINE
  8
108
  6
CONTINUOUS
 62
1
 10
7.8207241E-001
 20
1.3187E-002
 11
8.0337341E-001
 21
-8.0989998E-003
  0
LINE
  8
108
  6
CONTINUOUS
 62
1
 10
8.0337341E-001
 20
6.0307002E-003
 11
7.9623241E-001
 21
1.3187E-002
  0
ENDBLK
  0
BLOCK
  2
*XH46
  3
*XH
 10
0.0
 20
0.0
 70
65
  0
LINE
  8
108
  6
CONTINUOUS
 62
1
 10
-8.0333099E-001
 20
-6.0903576E-003
 11
-7.9625099E-001
 21
-1.3139958E-002
  0
LINE
  8
108
  6
CONTINUOUS
 62
1
 10
-7.8212099E-001
 20
-1.3139958E-002
 11
-8.0333099E-001
 21
8.0392424E-003
  0
LINE
  8
108
  6
CONTINUOUS
 62
1
 10
-8.0333099E-001
 20
2.2199442E-002
 11
-7.6799099E-001
 21
-1.3139958E-002
  0
LINE
  8
108
  6
CONTINUOUS
 62
1
 10
-7.5383099E-001
 20
-1.3139958E-002
 11
-8.0333099E-001
 21
3.6359542E-002
  0
LINE
  8
108
  6
CONTINUOUS
 62
1
 10
-8.0333099E-001
 20
5.0489242E-002
 11
-7.3970199E-001
 21
-1.3139958E-002
  0
LINE
  8
108
  6
CONTINUOUS
 62
1
 10
-7.2554099E-001
 20
-1.3139958E-002
 11
-8.0333099E-001
 21
6.4618842E-002
  0
LINE
  8
108
  6
CONTINUOUS
 62
1
 10
-8.0333099E-001
 20
7.8779042E-002
 11
-7.1141199E-001
 21
-1.3139958E-002
  0
LINE
  8
108
  6
CONTINUOUS
 62
1
 10
-6.9728199E-001
 20
-1.3139958E-002
 11
-8.0333099E-001
 21
9.2908642E-002
  0
LINE
  8
108
  6
CONTINUOUS
 62
1
 10
-8.0333099E-001
 20
1.0703824E-001
 11
-6.8312199E-001
 21
-1.3139958E-002
  0
LINE
  8
108
  6
CONTINUOUS
 62
1
 10
-6.6899199E-001
 20
-1.3139958E-002
 11
-8.0333099E-001
 21
1.2119844E-001
  0
LINE
  8
108
  6
CONTINUOUS
 62
1
 10
-8.0333099E-001
 20
1.3535854E-001
 11
-6.5483199E-001
 21
-1.3139958E-002
  0
LINE
  8
108
  6
CONTINUOUS
 62
1
 10
3.6574008E-002
 20
-6.9041656E-001
 11
3.6574008E-002
 21
-6.9034026E-001
  0
LINE
  8
108
  6
CONTINUOUS
 62
1
 10
-6.4070299E-001
 20
-1.3139958E-002
 11
-8.0333099E-001
 21
1.4945774E-001
  0
LINE
  8
108
  6
CONTINUOUS
 62
1
 10
-8.0333099E-001
 20
1.6361784E-001
 11
-6.2657299E-001
 21
-1.3139958E-002
  0
LINE
  8
108
  6
CONTINUOUS
 62
1
 10
3.6483008E-002
 20
-6.7619536E-001
 11
5.0704008E-002
 21
-6.9041656E-001
  0
LINE
  8
108
  6
CONTINUOUS
 62
1
 10
6.4864008E-002
 20
-6.9041656E-001
 11
3.6483008E-002
 21
-6.6205046E-001
  0
LINE
  8
108
  6
CONTINUOUS
 62
1
 10
-6.1241299E-001
 20
-1.3139958E-002
 11
-8.0333099E-001
 21
1.7777804E-001
  0
LINE
  8
108
  6
CONTINUOUS
 62
1
 10
-8.0333099E-001
 20
1.9190764E-001
 11
-5.9828299E-001
 21
-1.3139958E-002
  0
LINE
  8
108
  6
CONTINUOUS
 62
1
 10
3.6483008E-002
 20
-6.4790556E-001
 11
7.8994008E-002
 21
-6.9041656E-001
  0
LINE
  8
108
  6
CONTINUOUS
 62
1
 10
9.3123008E-002
 20
-6.9041656E-001
 11
3.6483008E-002
 21
-6.3376066E-001
  0
LINE
  8
108
  6
CONTINUOUS
 62
1
 10
-5.8412299E-001
 20
-1.3139958E-002
 11
-8.0333099E-001
 21
2.0603734E-001
  0
LINE
  8
108
  6
CONTINUOUS
 62
1
 10
-8.0333099E-001
 20
2.2019744E-001
 11
-5.6999299E-001
 21
-1.3139958E-002
  0
LINE
  8
108
  6
CONTINUOUS
 62
1
 10
3.6483008E-002
 20
-6.1963106E-001
 11
1.0728301E-001
 21
-6.9041656E-001
  0
LINE
  8
108
  6
CONTINUOUS
 62
1
 10
1.2141301E-001
 20
-6.9041656E-001
 11
3.6483008E-002
 21
-6.0548616E-001
  0
LINE
  8
108
  6
CONTINUOUS
 62
1
 10
-5.5583299E-001
 20
-1.3139958E-002
 11
-8.0333099E-001
 21
2.3432714E-001
  0
LINE
  8
108
  6
CONTINUOUS
 62
1
 10
-8.0333099E-001
 20
2.4845674E-001
 11
-5.4170399E-001
 21
-1.3139958E-002
  0
LINE
  8
108
  6
CONTINUOUS
 62
1
 10
3.6483008E-002
 20
-5.9134126E-001
 11
1.3557301E-001
 21
-6.9041656E-001
  0
LINE
  8
108
  6
CONTINUOUS
 62
1
 10
1.4970301E-001
 20
-6.9041656E-001
 11
3.6483008E-002
 21
-5.7719636E-001
  0
LINE
  8
108
  6
CONTINUOUS
 62
1
 10
-5.2757399E-001
 20
-1.3139958E-002
 11
-8.0333099E-001
 21
2.6261684E-001
  0
LINE
  8
108
  6
CONTINUOUS
 62
1
 10
-8.0333099E-001
 20
2.7677704E-001
 11
-5.1341399E-001
 21
-1.3139958E-002
  0
LINE
  8
108
  6
CONTINUOUS
 62
1
 10
3.6483008E-002
 20
-5.6305146E-001
 11
1.6383201E-001
 21
-6.9041656E-001
  0
LINE
  8
108
  6
CONTINUOUS
 62
1
 10
1.7799301E-001
 20
-6.9041656E-001
 11
3.6483008E-002
 21
-5.4890656E-001
  0
LINE
  8
108
  6
CONTINUOUS
 62
1
 10
-4.9928399E-001
 20
-1.3139958E-002
 11
-8.0333099E-001
 21
2.9090664E-001
  0
LINE
  8
108
  6
CONTINUOUS
 62
1
 10
-8.0333099E-001
 20
3.0503634E-001
 11
-4.8512399E-001
 21
-1.3139958E-002
  0
LINE
  8
108
  6
CONTINUOUS
 62
1
 10
3.6483008E-002
 20
-5.3477696E-001
 11
1.9212201E-001
 21
-6.9041656E-001
  0
LINE
  8
108
  6
CONTINUOUS
 62
1
 10
2.0628201E-001
 20
-6.9041656E-001
 11
3.6483008E-002
 21
-5.2063206E-001
  0
LINE
  8
108
  6
CONTINUOUS
 62
1
 10
-4.7099399E-001
 20
-1.3139958E-002
 11
-8.0333099E-001
 21
3.1919644E-001
  0
LINE
  8
108
  6
CONTINUOUS
 62
1
 10
-8.0333099E-001
 20
3.3332614E-001
 11
-4.5686499E-001
 21
-1.3139958E-002
  0
LINE
  8
108
  6
CONTINUOUS
 62
1
 10
3.6483008E-002
 20
-5.0648716E-001
 11
2.2041201E-001
 21
-6.9041656E-001
  0
LINE
  8
108
  6
CONTINUOUS
 62
1
 10
2.3457201E-001
 20
-6.9041656E-001
 11
3.6483008E-002
 21
-4.9234226E-001
  0
LINE
  8
108
  6
CONTINUOUS
 62
1
 10
-4.4270399E-001
 20
-1.3139958E-002
 11
-8.0333099E-001
 21
3.4745574E-001
  0
LINE
  8
108
  6
CONTINUOUS
 62
1
 10
-8.0333099E-001
 20
3.6161594E-001
 11
-4.2857499E-001
 21
-1.3139958E-002
  0
LINE
  8
108
  6
CONTINUOUS
 62
1
 10
3.6483008E-002
 20
-4.7819736E-001
 11
2.4870201E-001
 21
-6.9041656E-001
  0
LINE
  8
108
  6
CONTINUOUS
 62
1
 10
2.6283101E-001
 20
-6.9041656E-001
 11
3.6483008E-002
 21
-4.6406766E-001
  0
LINE
  8
108
  6
CONTINUOUS
 62
1
 10
-4.1441499E-001
 20
-1.3139958E-002
 11
-8.0333099E-001
 21
3.7574554E-001
  0
LINE
  8
108
  6
CONTINUOUS
 62
1
 10
-8.0333099E-001
 20
3.8987514E-001
 11
-4.0028499E-001
 21
-1.3139958E-002
  0
LINE
  8
108
  6
CONTINUOUS
 62
1
 10
3.6483008E-002
 20
-4.4992276E-001
 11
2.7699201E-001
 21
-6.9041656E-001
  0
LINE
  8
108
  6
CONTINUOUS
 62
1
 10
2.9112101E-001
 20
-6.9041656E-001
 11
3.6483008E-002
 21
-4.3577786E-001
  0
LINE
  8
108
  6
CONTINUOUS
 62
1
 10
-3.8615499E-001
 20
-1.3139958E-002
 11
-8.0333099E-001
 21
4.0403534E-001
  0
LINE
  8
108
  6
CONTINUOUS
 62
1
 10
-8.0333099E-001
 20
4.1819554E-001
 11
-3.7199499E-001
 21
-1.3139958E-002
  0
LINE
  8
108
  6
CONTINUOUS
 62
1
 10
3.6483008E-002
 20
-4.2163296E-001
 11
3.0528101E-001
 21
-6.9041656E-001
  0
LINE
  8
108
  6
CONTINUOUS
 62
1
 10
3.1941101E-001
 20
-6.9041656E-001
 11
3.6483008E-002
 21
-4.0748806E-001
  0
LINE
  8
108
  6
CONTINUOUS
 62
1
 10
-3.5786599E-001
 20
-1.3139958E-002
 11
-8.0333099E-001
 21
4.3232514E-001
  0
LINE
  8
108
  6
CONTINUOUS
 62
1
 10
-8.0333099E-001
 20
4.4645474E-001
 11
-3.4370499E-001
 21
-1.3139958E-002
  0
LINE
  8
108
  6
CONTINUOUS
 62
1
 10
3.6483008E-002
 20
-3.9334316E-001
 11
3.3354101E-001
 21
-6.9041656E-001
  0
LINE
  8
108
  6
CONTINUOUS
 62
1
 10
3.4770101E-001
 20
-6.9041656E-001
 11
3.6483008E-002
 21
-3.7921356E-001
  0
LINE
  8
108
  6
CONTINUOUS
 62
1
 10
-3.2957599E-001
 20
-1.3139958E-002
 11
-8.0333099E-001
 21
4.6061494E-001
  0
LINE
  8
108
  6
CONTINUOUS
 62
1
 10
-7.9798999E-001
 20
4.6940404E-001
 11
-3.1544599E-001
 21
-1.3139958E-002
  0
LINE
  8
108
  6
CONTINUOUS
 62
1
 10
3.6483008E-002
 20
-3.6506866E-001
 11
3.6183001E-001
 21
-6.9041656E-001
  0
LINE
  8
108
  6
CONTINUOUS
 62
1
 10
3.7599101E-001
 20
-6.9041656E-001
 11
3.6483008E-002
 21
-3.5092376E-001
  0
LINE
  8
108
  6
CONTINUOUS
 62
1
 10
-3.0128599E-001
 20
-1.3139958E-002
 11
-7.8385999E-001
 21
4.6940404E-001
  0
LINE
  8
108
  6
CONTINUOUS
 62
1
 10
-7.6969999E-001
 20
4.6940404E-001
 11
-2.8715599E-001
 21
-1.3139958E-002
  0
LINE
  8
108
  6
CONTINUOUS
 62
1
 10
3.6483008E-002
 20
-3.3677886E-001
 11
3.9012001E-001
 21
-6.9041656E-001
  0
LINE
  8
108
  6
CONTINUOUS
 62
1
 10
4.0425001E-001
 20
-6.9041656E-001
 11
3.6483008E-002
 21
-3.2263396E-001
  0
LINE
  8
108
  6
CONTINUOUS
 62
1
 10
-2.7299599E-001
 20
-1.3139958E-002
 11
-7.5557099E-001
 21
4.6940404E-001
  0
LINE
  8
108
  6
CONTINUOUS
 62
1
 10
-7.4141099E-001
 20
4.6940404E-001
 11
-2.5886699E-001
 21
-1.3139958E-002
  0
LINE
  8
108
  6
CONTINUOUS
 62
1
 10
3.6483008E-002
 20
-3.0850436E-001
 11
4.1841001E-001
 21
-6.9041656E-001
  0
LINE
  8
108
  6
CONTINUOUS
 62
1
 10
4.3254001E-001
 20
-6.9041656E-001
 11
3.6483008E-002
 21
-2.9435946E-001
  0
LINE
  8
108
  6
CONTINUOUS
 62
1
 10
-2.4470599E-001
 20
-1.3139958E-002
 11
-7.2728099E-001
 21
4.6940404E-001
  0
LINE
  8
108
  6
CONTINUOUS
 62
1
 10
-7.1315099E-001
 20
4.6940404E-001
 11
-2.3057699E-001
 21
-1.3139958E-002
  0
LINE
  8
108
  6
CONTINUOUS
 62
1
 10
3.6483008E-002
 20
-2.8021456E-001
 11
4.4670001E-001
 21
-6.9041656E-001
  0
LINE
  8
108
  6
CONTINUOUS
 62
1
 10
4.6082901E-001
 20
-6.9041656E-001
 11
3.6483008E-002
 21
-2.6606966E-001
  0
LINE
  8
108
  6
CONTINUOUS
 62
1
 10
-2.1644699E-001
 20
-1.3139958E-002
 11
-6.9899099E-001
 21
4.6940404E-001
  0
LINE
  8
108
  6
CONTINUOUS
 62
1
 10
-6.8486099E-001
 20
4.6940404E-001
 11
-2.0228699E-001
 21
-1.3139958E-002
  0
LINE
  8
108
  6
CONTINUOUS
 62
1
 10
3.6483008E-002
 20
-2.5192476E-001
 11
4.7499001E-001
 21
-6.9041656E-001
  0
LINE
  8
108
  6
CONTINUOUS
 62
1
 10
4.8911901E-001
 20
-6.9041656E-001
 11
3.6483008E-002
 21
-2.3777986E-001
  0
LINE
  8
108
  6
CONTINUOUS
 62
1
 10
-1.8815699E-001
 20
-1.3139958E-002
 11
-6.7070099E-001
 21
4.6940404E-001
  0
LINE
  8
108
  6
CONTINUOUS
 62
1
 10
-6.5657199E-001
 20
4.6940404E-001
 11
-1.7399699E-001
 21
-1.3139958E-002
  0
LINE
  8
108
  6
CONTINUOUS
 62
1
 10
3.6483008E-002
 20
-2.2365016E-001
 11
5.0324901E-001
 21
-6.9041656E-001
  0
LINE
  8
108
  6
CONTINUOUS
 62
1
 10
5.1740901E-001
 20
-6.9041656E-001
 11
3.6483008E-002
 21
-2.0950526E-001
  0
LINE
  8
108
  6
CONTINUOUS
 62
1
 10
-1.5986799E-001
 20
-1.3139958E-002
 11
-6.4244199E-001
 21
4.6940404E-001
  0
LINE
  8
108
  6
CONTINUOUS
 62
1
 10
-6.2828199E-001
 20
4.6940404E-001
 11
-1.4573799E-001
 21
-1.3139958E-002
  0
LINE
  8
108
  6
CONTINUOUS
 62
1
 10
3.6483008E-002
 20
-1.9536036E-001
 11
5.3153901E-001
 21
-6.9041656E-001
  0
LINE
  8
108
  6
CONTINUOUS
 62
1
 10
5.4569901E-001
 20
-6.9041656E-001
 11
3.6483008E-002
 21
-1.8121546E-001
  0
LINE
  8
108
  6
CONTINUOUS
 62
1
 10
-1.3157799E-001
 20
-1.3139958E-002
 11
-6.1415199E-001
 21
4.6940404E-001
  0
LINE
  8
108
  6
CONTINUOUS
 62
1
 10
-5.9999199E-001
 20
4.6940404E-001
 11
-1.1744799E-001
 21
-1.3139958E-002
  0
LINE
  8
108
  6
CONTINUOUS
 62
1
 10
3.6483008E-002
 20
-1.6707066E-001
 11
5.5982801E-001
 21
-6.9041656E-001
  0
LINE
  8
108
  6
CONTINUOUS
 62
1
 10
5.7395801E-001
 20
-6.9041656E-001
 11
3.6483008E-002
 21
-1.5294096E-001
  0
LINE
  8
108
  6
CONTINUOUS
 62
1
 10
-1.0328799E-001
 20
-1.3139958E-002
 11
-5.8586199E-001
 21
4.6940404E-001
  0
LINE
  8
108
  6
CONTINUOUS
 62
1
 10
-5.7170199E-001
 20
4.6940404E-001
 11
-8.9157992E-002
 21
-1.3139958E-002
  0
LINE
  8
108
  6
CONTINUOUS
 62
1
 10
3.6483008E-002
 20
-1.3881136E-001
 11
5.7829201E-001
 21
-6.8060516E-001
  0
LINE
  8
108
  6
CONTINUOUS
 62
1
 10
5.7829201E-001
 20
-6.6646026E-001
 11
3.6483008E-002
 21
-1.2465116E-001
  0
LINE
  8
108
  6
CONTINUOUS
 62
1
 10
-7.5028992E-002
 20
-1.3139958E-002
 11
-5.5757299E-001
 21
4.6940404E-001
  0
LINE
  8
108
  6
CONTINUOUS
 62
1
 10
-5.4344299E-001
 20
4.6940404E-001
 11
-6.0868992E-002
 21
-1.3139958E-002
  0
LINE
  8
108
  6
CONTINUOUS
 62
1
 10
3.6483008E-002
 20
-1.1049106E-001
 11
5.7829201E-001
 21
-6.5231536E-001
  0
LINE
  8
108
  6
CONTINUOUS
 62
1
 10
5.7829201E-001
 20
-6.3817046E-001
 11
3.6483008E-002
 21
-9.6361358E-002
  0
LINE
  8
108
  6
CONTINUOUS
 62
1
 10
-4.6738992E-002
 20
-1.3139958E-002
 11
-5.2928299E-001
 21
4.6940404E-001
  0
LINE
  8
108
  6
CONTINUOUS
 62
1
 10
-5.1515299E-001
 20
4.6940404E-001
 11
-3.2578992E-002
 21
-1.3139958E-002
  0
LINE
  8
108
  6
CONTINUOUS
 62
1
 10
3.6483008E-002
 20
-8.2231758E-002
 11
5.7829201E-001
 21
-6.2402556E-001
  0
LINE
  8
108
  6
CONTINUOUS
 62
1
 10
5.7829201E-001
 20
-6.0989596E-001
 11
3.6483008E-002
 21
-6.8071558E-002
  0
LINE
  8
108
  6
CONTINUOUS
 62
1
 10
-1.8448992E-002
 20
-1.3139958E-002
 11
-5.0099299E-001
 21
4.6940404E-001
  0
LINE
  8
108
  6
CONTINUOUS
 62
1
 10
-4.8686299E-001
 20
4.6940404E-001
 11
-4.3189917E-003
 21
-1.3139958E-002
  0
LINE
  8
108
  6
CONTINUOUS
 62
1
 10
3.6483008E-002
 20
-5.3941958E-002
 11
5.7829201E-001
 21
-5.9575106E-001
  0
LINE
  8
108
  6
CONTINUOUS
 62
1
 10
5.7829201E-001
 20
-5.8160616E-001
 11
3.6483008E-002
 21
-3.9812358E-002
  0
LINE
  8
108
  6
CONTINUOUS
 62
1
 10
9.8410083E-003
 20
-1.3139958E-002
 11
-4.7273399E-001
 21
4.6940404E-001
  0
LINE
  8
108
  6
CONTINUOUS
 62
1
 10
-4.5857399E-001
 20
4.6940404E-001
 11
2.3970008E-002
 21
-1.3139958E-002
  0
LINE
  8
108
  6
CONTINUOUS
 62
1
 10
3.6483008E-002
 20
-2.5652158E-002
 11
5.7829201E-001
 21
-5.6746126E-001
  0
LINE
  8
108
  6
CONTINUOUS
 62
1
 10
5.7829201E-001
 20
-5.5331636E-001
 11
-4.4444399E-001
 21
4.6940404E-001
  0
LINE
  8
108
  6
CONTINUOUS
 62
1
 10
-4.3028399E-001
 20
4.6940404E-001
 11
5.7829201E-001
 21
-5.3917146E-001
  0
LINE
  8
108
  6
CONTINUOUS
 62
1
 10
5.7829201E-001
 20
-5.2504176E-001
 11
-4.1615399E-001
 21
4.6940404E-001
  0
LINE
  8
108
  6
CONTINUOUS
 62
1
 10
-4.0202499E-001
 20
4.6940404E-001
 11
5.7829201E-001
 21
-5.1089686E-001
  0
LINE
  8
108
  6
CONTINUOUS
 62
1
 10
5.7829201E-001
 20
-4.9675196E-001
 11
-3.8786399E-001
 21
4.6940404E-001
  0
LINE
  8
108
  6
CONTINUOUS
 62
1
 10
-3.7373499E-001
 20
4.6940404E-001
 11
5.7829201E-001
 21
-4.8260716E-001
  0
LINE
  8
108
  6
CONTINUOUS
 62
1
 10
5.7829201E-001
 20
-4.6846226E-001
 11
-3.5957499E-001
 21
4.6940404E-001
  0
LINE
  8
108
  6
CONTINUOUS
 62
1
 10
-3.4544499E-001
 20
4.6940404E-001
 11
5.7829201E-001
 21
-4.5433256E-001
  0
LINE
  8
108
  6
CONTINUOUS
 62
1
 10
5.7829201E-001
 20
-4.4018766E-001
 11
-3.3131499E-001
 21
4.6940404E-001
  0
LINE
  8
108
  6
CONTINUOUS
 62
1
 10
-3.1715499E-001
 20
4.6940404E-001
 11
5.7829201E-001
 21
-4.2604276E-001
  0
LINE
  8
108
  6
CONTINUOUS
 62
1
 10
5.7829201E-001
 20
-4.1189786E-001
 11
-3.0302599E-001
 21
4.6940404E-001
  0
LINE
  8
108
  6
CONTINUOUS
 62
1
 10
-2.8886499E-001
 20
4.6940404E-001
 11
5.7829201E-001
 21
-3.9775296E-001
  0
LINE
  8
108
  6
CONTINUOUS
 62
1
 10
5.7829201E-001
 20
-3.8360806E-001
 11
-2.7473599E-001
 21
4.6940404E-001
  0
LINE
  8
108
  6
CONTINUOUS
 62
1
 10
-2.6057599E-001
 20
4.6940404E-001
 11
5.7829201E-001
 21
-3.6947846E-001
  0
LINE
  8
108
  6
CONTINUOUS
 62
1
 10
5.7829201E-001
 20
-3.5533356E-001
 11
-2.4644599E-001
 21
4.6940404E-001
  0
LINE
  8
108
  6
CONTINUOUS
 62
1
 10
-2.3231599E-001
 20
4.6940404E-001
 11
5.7829201E-001
 21
-3.4118866E-001
  0
LINE
  8
108
  6
CONTINUOUS
 62
1
 10
5.7829201E-001
 20
-3.2704376E-001
 11
-2.1815599E-001
 21
4.6940404E-001
  0
LINE
  8
108
  6
CONTINUOUS
 62
1
 10
-2.0402699E-001
 20
4.6940404E-001
 11
5.7829201E-001
 21
-3.1289886E-001
  0
LINE
  8
108
  6
CONTINUOUS
 62
1
 10
5.7829201E-001
 20
-2.9876926E-001
 11
-1.8986599E-001
 21
4.6940404E-001
  0
LINE
  8
108
  6
CONTINUOUS
 62
1
 10
-1.7573699E-001
 20
4.6940404E-001
 11
5.7829201E-001
 21
-2.8462436E-001
  0
LINE
  8
108
  6
CONTINUOUS
 62
1
 10
5.7829201E-001
 20
-2.7047946E-001
 11
-1.6160699E-001
 21
4.6940404E-001
  0
LINE
  8
108
  6
CONTINUOUS
 62
1
 10
-1.4744699E-001
 20
4.6940404E-001
 11
5.7829201E-001
 21
-2.5633456E-001
  0
LINE
  8
108
  6
CONTINUOUS
 62
1
 10
5.7829201E-001
 20
-2.4218966E-001
 11
-1.3331699E-001
 21
4.6940404E-001
  0
LINE
  8
108
  6
CONTINUOUS
 62
1
 10
-1.1915699E-001
 20
4.6940404E-001
 11
5.7829201E-001
 21
-2.2804476E-001
  0
LINE
  8
108
  6
CONTINUOUS
 62
1
 10
5.7829201E-001
 20
-2.1391506E-001
 11
-1.0502699E-001
 21
4.6940404E-001
  0
LINE
  8
108
  6
CONTINUOUS
 62
1
 10
-9.0897992E-002
 20
4.6940404E-001
 11
5.7829201E-001
 21
-1.9977016E-001
  0
LINE
  8
108
  6
CONTINUOUS
 62
1
 10
5.7829201E-001
 20
-1.8562526E-001
 11
-7.6737992E-002
 21
4.6940404E-001
  0
LINE
  8
108
  6
CONTINUOUS
 62
1
 10
-6.2607992E-002
 20
4.6940404E-001
 11
5.7829201E-001
 21
-1.7148036E-001
  0
LINE
  8
108
  6
CONTINUOUS
 62
1
 10
5.7829201E-001
 20
-1.5733546E-001
 11
-4.8447992E-002
 21
4.6940404E-001
  0
LINE
  8
108
  6
CONTINUOUS
 62
1
 10
-3.4317992E-002
 20
4.6940404E-001
 11
5.7829201E-001
 21
-1.4320586E-001
  0
LINE
  8
108
  6
CONTINUOUS
 62
1
 10
5.7829201E-001
 20
-1.2904576E-001
 11
-2.0157992E-002
 21
4.6940404E-001
  0
LINE
  8
108
  6
CONTINUOUS
 62
1
 10
-6.0279917E-003
 20
4.6940404E-001
 11
5.7829201E-001
 21
-1.1491606E-001
  0
LINE
  8
108
  6
CONTINUOUS
 62
1
 10
5.7829201E-001
 20
-1.0078646E-001
 11
8.1010083E-003
 21
4.6940404E-001
  0
LINE
  8
108
  6
CONTINUOUS
 62
1
 10
2.2261008E-002
 20
4.6940404E-001
 11
5.7829201E-001
 21
-8.6626258E-002
  0
LINE
  8
108
  6
CONTINUOUS
 62
1
 10
5.7829201E-001
 20
-7.2466158E-002
 11
3.6391008E-002
 21
4.6940404E-001
  0
LINE
  8
108
  6
CONTINUOUS
 62
1
 10
5.0551008E-002
 20
4.6940404E-001
 11
5.7829201E-001
 21
-5.8366958E-002
  0
LINE
  8
108
  6
CONTINUOUS
 62
1
 10
5.7829201E-001
 20
-4.4206858E-002
 11
6.4681008E-002
 21
4.6940404E-001
  0
LINE
  8
108
  6
CONTINUOUS
 62
1
 10
7.8810008E-002
 20
4.6940404E-001
 11
5.7829201E-001
 21
-3.0046658E-002
  0
LINE
  8
108
  6
CONTINUOUS
 62
1
 10
5.7829201E-001
 20
-1.5917058E-002
 11
9.2971008E-002
 21
4.6940404E-001
  0
LINE
  8
108
  6
CONTINUOUS
 62
1
 10
1.0710001E-001
 20
4.6940404E-001
 11
5.7829201E-001
 21
-1.7873576E-003
  0
LINE
  8
108
  6
CONTINUOUS
 62
1
 10
5.7829201E-001
 20
1.2372742E-002
 11
1.2126001E-001
 21
4.6940404E-001
  0
LINE
  8
108
  6
CONTINUOUS
 62
1
 10
1.3539001E-001
 20
4.6940404E-001
 11
5.7829201E-001
 21
2.6502342E-002
  0
LINE
  8
108
  6
CONTINUOUS
 62
1
 10
5.7829201E-001
 20
4.0632042E-002
 11
1.4952001E-001
 21
4.6940404E-001
  0
LINE
  8
108
  6
CONTINUOUS
 62
1
 10
1.6368001E-001
 20
4.6940404E-001
 11
5.7829201E-001
 21
5.4792142E-002
  0
LINE
  8
108
  6
CONTINUOUS
 62
1
 10
5.7829201E-001
 20
6.8952342E-002
 11
1.7780901E-001
 21
4.6940404E-001
  0
LINE
  8
108
  6
CONTINUOUS
 62
1
 10
1.9197001E-001
 20
4.6940404E-001
 11
5.7829201E-001
 21
8.3081942E-002
  0
LINE
  8
108
  6
CONTINUOUS
 62
1
 10
5.7829201E-001
 20
9.7211642E-002
 11
2.0609901E-001
 21
4.6940404E-001
  0
LINE
  8
108
  6
CONTINUOUS
 62
1
 10
2.2022901E-001
 20
4.6940404E-001
 11
5.7829201E-001
 21
1.1137174E-001
  0
LINE
  8
108
  6
CONTINUOUS
 62
1
 10
5.7829201E-001
 20
1.2550144E-001
 11
2.3438901E-001
 21
4.6940404E-001
  0
LINE
  8
108
  6
CONTINUOUS
 62
1
 10
2.4851901E-001
 20
4.6940404E-001
 11
5.7829201E-001
 21
1.3963104E-001
  0
LINE
  8
108
  6
CONTINUOUS
 62
1
 10
5.7829201E-001
 20
1.5379124E-001
 11
2.6267901E-001
 21
4.6940404E-001
  0
LINE
  8
108
  6
CONTINUOUS
 62
1
 10
2.7680801E-001
 20
4.6940404E-001
 11
5.7829201E-001
 21
1.6792084E-001
  0
LINE
  8
108
  6
CONTINUOUS
 62
1
 10
5.7829201E-001
 20
1.8205044E-001
 11
2.9096901E-001
 21
4.6940404E-001
  0
LINE
  8
108
  6
CONTINUOUS
 62
1
 10
3.0509801E-001
 20
4.6940404E-001
 11
5.7829201E-001
 21
1.9621064E-001
  0
LINE
  8
108
  6
CONTINUOUS
 62
1
 10
5.7829201E-001
 20
2.1037084E-001
 11
3.1922801E-001
 21
4.6940404E-001
  0
LINE
  8
108
  6
CONTINUOUS
 62
1
 10
3.3338801E-001
 20
4.6940404E-001
 11
5.7829201E-001
 21
2.2450044E-001
  0
LINE
  8
108
  6
CONTINUOUS
 62
1
 10
5.7829201E-001
 20
2.3863004E-001
 11
3.4751801E-001
 21
4.6940404E-001
  0
LINE
  8
108
  6
CONTINUOUS
 62
1
 10
3.6167801E-001
 20
4.6940404E-001
 11
5.7829201E-001
 21
2.5279024E-001
  0
LINE
  8
108
  6
CONTINUOUS
 62
1
 10
5.7829201E-001
 20
2.6691984E-001
 11
3.7580701E-001
 21
4.6940404E-001
  0
LINE
  8
108
  6
CONTINUOUS
 62
1
 10
3.8993701E-001
 20
4.6940404E-001
 11
5.7829201E-001
 21
2.8104954E-001
  0
LINE
  8
108
  6
CONTINUOUS
 62
1
 10
5.7829201E-001
 20
2.9520964E-001
 11
4.0409701E-001
 21
4.6940404E-001
  0
LINE
  8
108
  6
CONTINUOUS
 62
1
 10
4.1822701E-001
 20
4.6940404E-001
 11
5.7829201E-001
 21
3.0936984E-001
  0
LINE
  8
108
  6
CONTINUOUS
 62
1
 10
5.7829201E-001
 20
3.2346894E-001
 11
4.3238701E-001
 21
4.6940404E-001
  0
LINE
  8
108
  6
CONTINUOUS
 62
1
 10
4.4651701E-001
 20
4.6940404E-001
 11
5.7829201E-001
 21
3.3762914E-001
  0
LINE
  8
108
  6
CONTINUOUS
 62
1
 10
5.7829201E-001
 20
3.5178924E-001
 11
4.6064601E-001
 21
4.6940404E-001
  0
LINE
  8
108
  6
CONTINUOUS
 62
1
 10
4.7480601E-001
 20
4.6940404E-001
 11
5.7829201E-001
 21
3.6591884E-001
  0
LINE
  8
108
  6
CONTINUOUS
 62
1
 10
5.7829201E-001
 20
3.8004854E-001
 11
4.8893601E-001
 21
4.6940404E-001
  0
LINE
  8
108
  6
CONTINUOUS
 62
1
 10
5.0309601E-001
 20
4.6940404E-001
 11
5.7829201E-001
 21
3.9420864E-001
  0
LINE
  8
108
  6
CONTINUOUS
 62
1
 10
5.7829201E-001
 20
4.0833834E-001
 11
5.1722601E-001
 21
4.6940404E-001
  0
LINE
  8
108
  6
CONTINUOUS
 62
1
 10
5.3135601E-001
 20
4.6940404E-001
 11
5.7829201E-001
 21
4.2246794E-001
  0
LINE
  8
108
  6
CONTINUOUS
 62
1
 10
5.7829201E-001
 20
4.3662814E-001
 11
5.4551601E-001
 21
4.6940404E-001
  0
LINE
  8
108
  6
CONTINUOUS
 62
1
 10
5.5964501E-001
 20
4.6940404E-001
 11
5.7829201E-001
 21
4.5078824E-001
  0
LINE
  8
108
  6
CONTINUOUS
 62
1
 10
5.7829201E-001
 20
4.6491794E-001
 11
5.7829201E-001
 21
4.6940404E-001
  0
ENDBLK
  0
BLOCK
  2
*XH47
  3
*XH
 10
0.0
 20
0.0
 70
65
  0
LINE
  8
108
  6
CONTINUOUS
 62
1
 10
-5.7903787E-001
 20
-6.7961682E-001
 11
-5.6591487E-001
 21
-6.9273932E-001
  0
LINE
  8
108
  6
CONTINUOUS
 62
1
 10
-5.5175487E-001
 20
-6.9273932E-001
 11
-5.7903787E-001
 21
-6.6547192E-001
  0
LINE
  8
108
  6
CONTINUOUS
 62
1
 10
-5.7903787E-001
 20
-6.5132702E-001
 11
-5.3762587E-001
 21
-6.9273932E-001
  0
LINE
  8
108
  6
CONTINUOUS
 62
1
 10
-5.2349587E-001
 20
-6.9273932E-001
 11
-5.7903787E-001
 21
-6.3718212E-001
  0
LINE
  8
108
  6
CONTINUOUS
 62
1
 10
-5.7903787E-001
 20
-6.2305242E-001
 11
-5.0933587E-001
 21
-6.9273932E-001
  0
LINE
  8
108
  6
CONTINUOUS
 62
1
 10
-4.9520587E-001
 20
-6.9273932E-001
 11
-5.7903787E-001
 21
-6.0890752E-001
  0
LINE
  8
108
  6
CONTINUOUS
 62
1
 10
-5.7903787E-001
 20
-5.9476262E-001
 11
-4.8104587E-001
 21
-6.9273932E-001
  0
LINE
  8
108
  6
CONTINUOUS
 62
1
 10
-4.6691587E-001
 20
-6.9273932E-001
 11
-5.7903787E-001
 21
-5.8061772E-001
  0
LINE
  8
108
  6
CONTINUOUS
 62
1
 10
-5.7903787E-001
 20
-5.6647282E-001
 11
-4.5275587E-001
 21
-6.9273932E-001
  0
LINE
  8
108
  6
CONTINUOUS
 62
1
 10
-4.3862687E-001
 20
-6.9273932E-001
 11
-5.7903787E-001
 21
-5.5232792E-001
  0
LINE
  8
108
  6
CONTINUOUS
 62
1
 10
-5.7903787E-001
 20
-5.3819832E-001
 11
-4.2449687E-001
 21
-6.9273932E-001
  0
LINE
  8
108
  6
CONTINUOUS
 62
1
 10
-4.1033687E-001
 20
-6.9273932E-001
 11
-5.7903787E-001
 21
-5.2405342E-001
  0
LINE
  8
108
  6
CONTINUOUS
 62
1
 10
-5.7903787E-001
 20
-5.0990852E-001
 11
-3.9620687E-001
 21
-6.9273932E-001
  0
LINE
  8
108
  6
CONTINUOUS
 62
1
 10
-3.8204687E-001
 20
-6.9273932E-001
 11
-5.7903787E-001
 21
-4.9576362E-001
  0
LINE
  8
108
  6
CONTINUOUS
 62
1
 10
-5.7903787E-001
 20
-4.8161872E-001
 11
-3.6791687E-001
 21
-6.9273932E-001
  0
LINE
  8
108
  6
CONTINUOUS
 62
1
 10
-3.5378787E-001
 20
-6.9273932E-001
 11
-5.7903787E-001
 21
-4.6748912E-001
  0
LINE
  8
108
  6
CONTINUOUS
 62
1
 10
-5.7903787E-001
 20
-4.5334422E-001
 11
-3.3962787E-001
 21
-6.9273932E-001
  0
LINE
  8
108
  6
CONTINUOUS
 62
1
 10
-3.2549787E-001
 20
-6.9273932E-001
 11
-5.7903787E-001
 21
-4.3919932E-001
  0
LINE
  8
108
  6
CONTINUOUS
 62
1
 10
-5.7903787E-001
 20
-4.2505442E-001
 11
-3.1133787E-001
 21
-6.9273932E-001
  0
LINE
  8
108
  6
CONTINUOUS
 62
1
 10
-2.9720787E-001
 20
-6.9273932E-001
 11
-5.7903787E-001
 21
-4.1090952E-001
  0
LINE
  8
108
  6
CONTINUOUS
 62
1
 10
-5.7903787E-001
 20
-3.9676462E-001
 11
-2.8307787E-001
 21
-6.9273932E-001
  0
LINE
  8
108
  6
CONTINUOUS
 62
1
 10
-2.6891787E-001
 20
-6.9273932E-001
 11
-5.7903787E-001
 21
-3.8263492E-001
  0
LINE
  8
108
  6
CONTINUOUS
 62
1
 10
-5.7903787E-001
 20
-3.6849012E-001
 11
-2.5478887E-001
 21
-6.9273932E-001
  0
LINE
  8
108
  6
CONTINUOUS
 62
1
 10
-2.4062887E-001
 20
-6.9273932E-001
 11
-5.7903787E-001
 21
-3.5434522E-001
  0
LINE
  8
108
  6
CONTINUOUS
 62
1
 10
-5.7903787E-001
 20
-3.4020032E-001
 11
-2.2649887E-001
 21
-6.9273932E-001
  0
LINE
  8
108
  6
CONTINUOUS
 62
1
 10
-2.1236887E-001
 20
-6.9273932E-001
 11
-5.7903787E-001
 21
-3.2605542E-001
  0
LINE
  8
108
  6
CONTINUOUS
 62
1
 10
-5.7903787E-001
 20
-3.1192572E-001
 11
-1.9820887E-001
 21
-6.9273932E-001
  0
LINE
  8
108
  6
CONTINUOUS
 62
1
 10
-1.8407887E-001
 20
-6.9273932E-001
 11
-5.7903787E-001
 21
-2.9778082E-001
  0
LINE
  8
108
  6
CONTINUOUS
 62
1
 10
-5.7903787E-001
 20
-2.8363592E-001
 11
-1.6991887E-001
 21
-6.9273932E-001
  0
LINE
  8
108
  6
CONTINUOUS
 62
1
 10
-1.5578987E-001
 20
-6.9273932E-001
 11
-5.7903787E-001
 21
-2.6949102E-001
  0
LINE
  8
108
  6
CONTINUOUS
 62
1
 10
-5.7903787E-001
 20
-2.5534612E-001
 11
-1.4162987E-001
 21
-6.9273932E-001
  0
LINE
  8
108
  6
CONTINUOUS
 62
1
 10
-1.2749987E-001
 20
-6.9273932E-001
 11
-5.7903787E-001
 21
-2.4120122E-001
  0
LINE
  8
108
  6
CONTINUOUS
 62
1
 10
-5.7903787E-001
 20
-2.2707162E-001
 11
-1.1336987E-001
 21
-6.9273932E-001
  0
LINE
  8
108
  6
CONTINUOUS
 62
1
 10
-9.9209869E-002
 20
-6.9273932E-001
 11
-5.7903787E-001
 21
-2.1292672E-001
  0
LINE
  8
108
  6
CONTINUOUS
 62
1
 10
-5.7903787E-001
 20
-1.9878182E-001
 11
-8.5079869E-002
 21
-6.9273932E-001
  0
LINE
  8
108
  6
CONTINUOUS
 62
1
 10
-7.0919869E-002
 20
-6.9273932E-001
 11
-5.7903787E-001
 21
-1.8463692E-001
  0
LINE
  8
108
  6
CONTINUOUS
 62
1
 10
-5.7903787E-001
 20
-1.7049202E-001
 11
-5.6790869E-002
 21
-6.9273932E-001
  0
LINE
  8
108
  6
CONTINUOUS
 62
1
 10
-4.2660869E-002
 20
-6.9273932E-001
 11
-5.7903787E-001
 21
-1.5633182E-001
  0
LINE
  8
108
  6
CONTINUOUS
 62
1
 10
-5.7903787E-001
 20
-1.4223272E-001
 11
-3.7228869E-002
 21
-6.8402652E-001
  0
LINE
  8
108
  6
CONTINUOUS
 62
1
 10
-3.7228869E-002
 20
-6.6988172E-001
 11
-5.7903787E-001
 21
-1.2807262E-001
  0
LINE
  8
108
  6
CONTINUOUS
 62
1
 10
-5.7903787E-001
 20
-1.1391242E-001
 11
-3.7228869E-002
 21
-6.5573682E-001
  0
LINE
  8
108
  6
CONTINUOUS
 62
1
 10
-3.7228869E-002
 20
-6.4159192E-001
 11
-5.7903787E-001
 21
-9.9782824E-002
  0
LINE
  8
108
  6
CONTINUOUS
 62
1
 10
-5.7903787E-001
 20
-8.5653124E-002
 11
-3.7228869E-002
 21
-6.2744702E-001
  0
LINE
  8
108
  6
CONTINUOUS
 62
1
 10
-3.7228869E-002
 20
-6.1331732E-001
 11
-5.7903787E-001
 21
-7.1493024E-002
  0
LINE
  8
108
  6
CONTINUOUS
 62
1
 10
-5.7903787E-001
 20
-5.7363324E-002
 11
-3.7228869E-002
 21
-5.9917242E-001
  0
LINE
  8
108
  6
CONTINUOUS
 62
1
 10
-3.7228869E-002
 20
-5.8502752E-001
 11
-5.7903787E-001
 21
-4.3233724E-002
  0
LINE
  8
108
  6
CONTINUOUS
 62
1
 10
-5.7903787E-001
 20
-2.9073524E-002
 11
-3.7228869E-002
 21
-5.7088262E-001
  0
LINE
  8
108
  6
CONTINUOUS
 62
1
 10
-3.7228869E-002
 20
-5.5673772E-001
 11
-5.7903787E-001
 21
-1.4913424E-002
  0
LINE
  8
108
  6
CONTINUOUS
 62
1
 10
-5.7903787E-001
 20
-7.838238E-004
 11
-3.7228869E-002
 21
-5.4259282E-001
  0
LINE
  8
108
  6
CONTINUOUS
 62
1
 10
-3.7228869E-002
 20
-5.2846322E-001
 11
-5.7903787E-001
 21
1.3345876E-002
  0
LINE
  8
108
  6
CONTINUOUS
 62
1
 10
-5.7903787E-001
 20
2.7505976E-002
 11
-3.7228869E-002
 21
-5.1431832E-001
  0
LINE
  8
108
  6
CONTINUOUS
 62
1
 10
-3.7228869E-002
 20
-5.0017342E-001
 11
-5.7903787E-001
 21
4.1635676E-002
  0
LINE
  8
108
  6
CONTINUOUS
 62
1
 10
-5.7903787E-001
 20
5.5765276E-002
 11
-3.7228869E-002
 21
-4.8602852E-001
  0
LINE
  8
108
  6
CONTINUOUS
 62
1
 10
-3.7228869E-002
 20
-4.7188362E-001
 11
-5.7903787E-001
 21
6.9925476E-002
  0
LINE
  8
108
  6
CONTINUOUS
 62
1
 10
-5.7903787E-001
 20
8.4055076E-002
 11
-3.7228869E-002
 21
-4.5775402E-001
  0
LINE
  8
108
  6
CONTINUOUS
 62
1
 10
-3.7228869E-002
 20
-4.4360912E-001
 11
-5.7903787E-001
 21
9.8184776E-002
  0
LINE
  8
108
  6
CONTINUOUS
 62
1
 10
-5.7903787E-001
 20
1.1234488E-001
 11
-3.7228869E-002
 21
-4.2946422E-001
  0
LINE
  8
108
  6
CONTINUOUS
 62
1
 10
-3.7228869E-002
 20
-4.1531932E-001
 11
-5.7903787E-001
 21
1.2650508E-001
  0
LINE
  8
108
  6
CONTINUOUS
 62
1
 10
-5.7903787E-001
 20
1.4063468E-001
 11
-3.7228869E-002
 21
-4.0117442E-001
  0
LINE
  8
108
  6
CONTINUOUS
 62
1
 10
-3.7228869E-002
 20
-3.8702952E-001
 11
-5.7903787E-001
 21
1.5476428E-001
  0
LINE
  8
108
  6
CONTINUOUS
 62
1
 10
-5.7903787E-001
 20
1.6892448E-001
 11
-3.7228869E-002
 21
-3.7289982E-001
  0
LINE
  8
108
  6
CONTINUOUS
 62
1
 10
-3.7228869E-002
 20
-3.5875492E-001
 11
-5.7903787E-001
 21
1.8305408E-001
  0
LINE
  8
108
  6
CONTINUOUS
 62
1
 10
-5.7903787E-001
 20
1.9718378E-001
 11
-3.7228869E-002
 21
-3.4461002E-001
  0
LINE
  8
108
  6
CONTINUOUS
 62
1
 10
-3.7228869E-002
 20
-3.3046512E-001
 11
-5.7903787E-001
 21
2.1134388E-001
  0
LINE
  8
108
  6
CONTINUOUS
 62
1
 10
-5.7903787E-001
 20
2.2550408E-001
 11
-3.7228869E-002
 21
-3.1632032E-001
  0
LINE
  8
108
  6
CONTINUOUS
 62
1
 10
-3.7228869E-002
 20
-3.0219062E-001
 11
-5.7903787E-001
 21
2.3960318E-001
  0
LINE
  8
108
  6
CONTINUOUS
 62
1
 10
-5.7903787E-001
 20
2.5376338E-001
 11
-3.7228869E-002
 21
-2.8804572E-001
  0
LINE
  8
108
  6
CONTINUOUS
 62
1
 10
-3.7228869E-002
 20
-2.7390082E-001
 11
-5.7903787E-001
 21
2.6792348E-001
  0
LINE
  8
108
  6
CONTINUOUS
 62
1
 10
-5.7903787E-001
 20
2.8205318E-001
 11
-3.7228869E-002
 21
-2.5975592E-001
  0
LINE
  8
108
  6
CONTINUOUS
 62
1
 10
-3.7228869E-002
 20
-2.4561102E-001
 11
-5.7903787E-001
 21
2.9618278E-001
  0
LINE
  8
108
  6
CONTINUOUS
 62
1
 10
-5.7903787E-001
 20
3.1034298E-001
 11
-3.7228869E-002
 21
-2.3146612E-001
  0
LINE
  8
108
  6
CONTINUOUS
 62
1
 10
-3.7228869E-002
 20
-2.1733652E-001
 11
-5.7903787E-001
 21
3.2447258E-001
  0
LINE
  8
108
  6
CONTINUOUS
 62
1
 10
-5.7903787E-001
 20
3.3860218E-001
 11
-3.7228869E-002
 21
-2.0319162E-001
  0
LINE
  8
108
  6
CONTINUOUS
 62
1
 10
-3.7228869E-002
 20
-1.8904672E-001
 11
-5.7903787E-001
 21
3.5276238E-001
  0
LINE
  8
108
  6
CONTINUOUS
 62
1
 10
-5.7903787E-001
 20
3.6692248E-001
 11
-3.7228869E-002
 21
-1.7490182E-001
  0
LINE
  8
108
  6
CONTINUOUS
 62
1
 10
-3.7228869E-002
 20
-1.6075692E-001
 11
-5.7903787E-001
 21
3.8105218E-001
  0
LINE
  8
108
  6
CONTINUOUS
 62
1
 10
-5.7903787E-001
 20
3.9518178E-001
 11
-3.7228869E-002
 21
-1.4662732E-001
  0
LINE
  8
108
  6
CONTINUOUS
 62
1
 10
-3.7228869E-002
 20
-1.3246712E-001
 11
-5.7903787E-001
 21
4.0934198E-001
  0
LINE
  8
108
  6
CONTINUOUS
 62
1
 10
-5.7903787E-001
 20
4.2347158E-001
 11
-3.7228869E-002
 21
-1.1833752E-001
  0
LINE
  8
108
  6
CONTINUOUS
 62
1
 10
-3.7228869E-002
 20
-1.0420782E-001
 11
-5.7903787E-001
 21
4.3760128E-001
  0
LINE
  8
108
  6
CONTINUOUS
 62
1
 10
-5.7903787E-001
 20
4.5176138E-001
 11
-3.7228869E-002
 21
-9.0047724E-002
  0
LINE
  8
108
  6
CONTINUOUS
 62
1
 10
-3.7228869E-002
 20
-7.5887524E-002
 11
-5.7903787E-001
 21
4.6592158E-001
  0
LINE
  8
108
  6
CONTINUOUS
 62
1
 10
-5.6606787E-001
 20
4.6708118E-001
 11
-3.7228869E-002
 21
-6.1788424E-002
  0
LINE
  8
108
  6
CONTINUOUS
 62
1
 10
-3.7228869E-002
 20
-4.7628224E-002
 11
-5.5193787E-001
 21
4.6708118E-001
  0
LINE
  8
108
  6
CONTINUOUS
 62
1
 10
-5.3780887E-001
 20
4.6708118E-001
 11
-3.7228869E-002
 21
-3.3468124E-002
  0
LINE
  8
108
  6
CONTINUOUS
 62
1
 10
-3.7228869E-002
 20
-1.9338424E-002
 11
-5.2364887E-001
 21
4.6708118E-001
  0
LINE
  8
108
  6
CONTINUOUS
 62
1
 10
-5.0951887E-001
 20
4.6708118E-001
 11
-2.6943869E-002
 21
-1.5462724E-002
  0
LINE
  8
108
  6
CONTINUOUS
 62
1
 10
-1.2814869E-002
 20
-1.5462724E-002
 11
-4.9535887E-001
 21
4.6708118E-001
  0
LINE
  8
108
  6
CONTINUOUS
 62
1
 10
-4.8122887E-001
 20
4.6708118E-001
 11
1.3451312E-003
 21
-1.5462724E-002
  0
LINE
  8
108
  6
CONTINUOUS
 62
1
 10
1.5475131E-002
 20
-1.5462724E-002
 11
-4.6709887E-001
 21
4.6708118E-001
  0
LINE
  8
108
  6
CONTINUOUS
 62
1
 10
-4.5293887E-001
 20
4.6708118E-001
 11
2.9605131E-002
 21
-1.5462724E-002
  0
LINE
  8
108
  6
CONTINUOUS
 62
1
 10
4.3765131E-002
 20
-1.5462724E-002
 11
-4.3880987E-001
 21
4.6708118E-001
  0
LINE
  8
108
  6
CONTINUOUS
 62
1
 10
-4.2464987E-001
 20
4.6708118E-001
 11
5.7894131E-002
 21
-1.5462724E-002
  0
LINE
  8
108
  6
CONTINUOUS
 62
1
 10
7.2055131E-002
 20
-1.5462724E-002
 11
-4.1051987E-001
 21
4.6708118E-001
  0
LINE
  8
108
  6
CONTINUOUS
 62
1
 10
-3.9638987E-001
 20
4.6708118E-001
 11
8.6184131E-002
 21
-1.5462724E-002
  0
LINE
  8
108
  6
CONTINUOUS
 62
1
 10
1.0031413E-001
 20
-1.5462724E-002
 11
-3.8222987E-001
 21
4.6708118E-001
  0
LINE
  8
108
  6
CONTINUOUS
 62
1
 10
-3.6809987E-001
 20
4.6708118E-001
 11
1.1447413E-001
 21
-1.5462724E-002
  0
LINE
  8
108
  6
CONTINUOUS
 62
1
 10
1.2860413E-001
 20
-1.5462724E-002
 11
-3.5393987E-001
 21
4.6708118E-001
  0
LINE
  8
108
  6
CONTINUOUS
 62
1
 10
-3.3981087E-001
 20
4.6708118E-001
 11
1.4276413E-001
 21
-1.5462724E-002
  0
LINE
  8
108
  6
CONTINUOUS
 62
1
 10
1.5689313E-001
 20
-1.5462724E-002
 11
-3.2565087E-001
 21
4.6708118E-001
  0
LINE
  8
108
  6
CONTINUOUS
 62
1
 10
-3.1152087E-001
 20
4.6708118E-001
 11
1.7102313E-001
 21
-1.5462724E-002
  0
LINE
  8
108
  6
CONTINUOUS
 62
1
 10
1.8518313E-001
 20
-1.5462724E-002
 11
-2.9739087E-001
 21
4.6708118E-001
  0
LINE
  8
108
  6
CONTINUOUS
 62
1
 10
-2.8323087E-001
 20
4.6708118E-001
 11
1.9931313E-001
 21
-1.5462724E-002
  0
LINE
  8
108
  6
CONTINUOUS
 62
1
 10
2.1347313E-001
 20
-1.5462724E-002
 11
-2.6910087E-001
 21
4.6708118E-001
  0
LINE
  8
108
  6
CONTINUOUS
 62
1
 10
-2.5494087E-001
 20
4.6708118E-001
 11
2.2760313E-001
 21
-1.5462724E-002
  0
LINE
  8
108
  6
CONTINUOUS
 62
1
 10
2.4173213E-001
 20
-1.5462724E-002
 11
-2.4081187E-001
 21
4.6708118E-001
  0
LINE
  8
108
  6
CONTINUOUS
 62
1
 10
-2.2668187E-001
 20
4.6708118E-001
 11
2.5589213E-001
 21
-1.5462724E-002
  0
LINE
  8
108
  6
CONTINUOUS
 62
1
 10
2.7002213E-001
 20
-1.5462724E-002
 11
-2.1252187E-001
 21
4.6708118E-001
  0
LINE
  8
108
  6
CONTINUOUS
 62
1
 10
-1.9839187E-001
 20
4.6708118E-001
 11
2.8418213E-001
 21
-1.5462724E-002
  0
LINE
  8
108
  6
CONTINUOUS
 62
1
 10
2.9831213E-001
 20
-1.5462724E-002
 11
-1.8423187E-001
 21
4.6708118E-001
  0
LINE
  8
108
  6
CONTINUOUS
 62
1
 10
-1.7010187E-001
 20
4.6708118E-001
 11
3.1247213E-001
 21
-1.5462724E-002
  0
LINE
  8
108
  6
CONTINUOUS
 62
1
 10
3.2660213E-001
 20
-1.5462724E-002
 11
-1.5597287E-001
 21
4.6708118E-001
  0
LINE
  8
108
  6
CONTINUOUS
 62
1
 10
-1.4181287E-001
 20
4.6708118E-001
 11
3.4073113E-001
 21
-1.5462724E-002
  0
LINE
  8
108
  6
CONTINUOUS
 62
1
 10
3.5489113E-001
 20
-1.5462724E-002
 11
-1.2768287E-001
 21
4.6708118E-001
  0
LINE
  8
108
  6
CONTINUOUS
 62
1
 10
-1.1352287E-001
 20
4.6708118E-001
 11
3.6902113E-001
 21
-1.5462724E-002
  0
LINE
  8
108
  6
CONTINUOUS
 62
1
 10
3.8318113E-001
 20
-1.5462724E-002
 11
-9.9392869E-002
 21
4.6708118E-001
  0
LINE
  8
108
  6
CONTINUOUS
 62
1
 10
-8.5263869E-002
 20
4.6708118E-001
 11
3.9731113E-001
 21
-1.5462724E-002
  0
LINE
  8
108
  6
CONTINUOUS
 62
1
 10
4.1144113E-001
 20
-1.5462724E-002
 11
-7.1102869E-002
 21
4.6708118E-001
  0
LINE
  8
108
  6
CONTINUOUS
 62
1
 10
-5.6973869E-002
 20
4.6708118E-001
 11
4.2560113E-001
 21
-1.5462724E-002
  0
LINE
  8
108
  6
CONTINUOUS
 62
1
 10
4.3973013E-001
 20
-1.5462724E-002
 11
-4.2813869E-002
 21
4.6708118E-001
  0
LINE
  8
108
  6
CONTINUOUS
 62
1
 10
-2.8683869E-002
 20
4.6708118E-001
 11
4.5389113E-001
 21
-1.5462724E-002
  0
LINE
  8
108
  6
CONTINUOUS
 62
1
 10
4.6802013E-001
 20
-1.5462724E-002
 11
-1.4523869E-002
 21
4.6708118E-001
  0
LINE
  8
108
  6
CONTINUOUS
 62
1
 10
-3.938688E-004
 20
4.6708118E-001
 11
4.8215013E-001
 21
-1.5462724E-002
  0
LINE
  8
108
  6
CONTINUOUS
 62
1
 10
4.9631013E-001
 20
-1.5462724E-002
 11
1.3735131E-002
 21
4.6708118E-001
  0
LINE
  8
108
  6
CONTINUOUS
 62
1
 10
2.7896131E-002
 20
4.6708118E-001
 11
5.1044013E-001
 21
-1.5462724E-002
  0
LINE
  8
108
  6
CONTINUOUS
 62
1
 10
5.2460013E-001
 20
-1.5462724E-002
 11
4.2025131E-002
 21
4.6708118E-001
  0
LINE
  8
108
  6
CONTINUOUS
 62
1
 10
5.6185131E-002
 20
4.6708118E-001
 11
5.3872913E-001
 21
-1.5462724E-002
  0
LINE
  8
108
  6
CONTINUOUS
 62
1
 10
5.5285913E-001
 20
-1.5462724E-002
 11
7.0315131E-002
 21
4.6708118E-001
  0
LINE
  8
108
  6
CONTINUOUS
 62
1
 10
8.4445131E-002
 20
4.6708118E-001
 11
5.6701913E-001
 21
-1.5462724E-002
  0
LINE
  8
108
  6
CONTINUOUS
 62
1
 10
5.8114913E-001
 20
-1.5462724E-002
 11
9.8605131E-002
 21
4.6708118E-001
  0
LINE
  8
108
  6
CONTINUOUS
 62
1
 10
1.1273513E-001
 20
4.6708118E-001
 11
5.9530913E-001
 21
-1.5462724E-002
  0
LINE
  8
108
  6
CONTINUOUS
 62
1
 10
6.0943913E-001
 20
-1.5462724E-002
 11
1.2689513E-001
 21
4.6708118E-001
  0
LINE
  8
108
  6
CONTINUOUS
 62
1
 10
1.4102413E-001
 20
4.6708118E-001
 11
6.2359913E-001
 21
-1.5462724E-002
  0
LINE
  8
108
  6
CONTINUOUS
 62
1
 10
6.3772813E-001
 20
-1.5462724E-002
 11
1.5515413E-001
 21
4.6708118E-001
  0
LINE
  8
108
  6
CONTINUOUS
 62
1
 10
1.6931413E-001
 20
4.6708118E-001
 11
6.5185813E-001
 21
-1.5462724E-002
  0
LINE
  8
108
  6
CONTINUOUS
 62
1
 10
6.6601813E-001
 20
-1.5462724E-002
 11
1.8344413E-001
 21
4.6708118E-001
  0
LINE
  8
108
  6
CONTINUOUS
 62
1
 10
1.9760413E-001
 20
4.6708118E-001
 11
6.8014813E-001
 21
-1.5462724E-002
  0
LINE
  8
108
  6
CONTINUOUS
 62
1
 10
6.9430813E-001
 20
-1.5462724E-002
 11
2.1173413E-001
 21
4.6708118E-001
  0
LINE
  8
108
  6
CONTINUOUS
 62
1
 10
2.2586313E-001
 20
4.6708118E-001
 11
7.0843813E-001
 21
-1.5462724E-002
  0
LINE
  8
108
  6
CONTINUOUS
 62
1
 10
7.2256713E-001
 20
-1.5462724E-002
 11
2.4002313E-001
 21
4.6708118E-001
  0
LINE
  8
108
  6
CONTINUOUS
 62
1
 10
2.5415313E-001
 20
4.6708118E-001
 11
7.3672713E-001
 21
-1.5462724E-002
  0
LINE
  8
108
  6
CONTINUOUS
 62
1
 10
7.5085713E-001
 20
-1.5462724E-002
 11
2.6831313E-001
 21
4.6708118E-001
  0
LINE
  8
108
  6
CONTINUOUS
 62
1
 10
2.8244313E-001
 20
4.6708118E-001
 11
7.6501713E-001
 21
-1.5462724E-002
  0
LINE
  8
108
  6
CONTINUOUS
 62
1
 10
7.7914713E-001
 20
-1.5462724E-002
 11
2.9660313E-001
 21
4.6708118E-001
  0
LINE
  8
108
  6
CONTINUOUS
 62
1
 10
3.1073313E-001
 20
4.6708118E-001
 11
7.9327713E-001
 21
-1.5462724E-002
  0
LINE
  8
108
  6
CONTINUOUS
 62
1
 10
8.0258413E-001
 20
-1.0640924E-002
 11
3.2486213E-001
 21
4.6708118E-001
  0
LINE
  8
108
  6
CONTINUOUS
 62
1
 10
3.3902213E-001
 20
4.6708118E-001
 11
8.0258413E-001
 21
3.5191762E-003
  0
LINE
  8
108
  6
CONTINUOUS
 62
1
 10
8.0258413E-001
 20
1.7679376E-002
 11
3.5315213E-001
 21
4.6708118E-001
  0
LINE
  8
108
  6
CONTINUOUS
 62
1
 10
3.6731213E-001
 20
4.6708118E-001
 11
8.0258413E-001
 21
3.1778476E-002
  0
LINE
  8
108
  6
CONTINUOUS
 62
1
 10
8.0258413E-001
 20
4.5938676E-002
 11
3.8144213E-001
 21
4.6708118E-001
  0
LINE
  8
108
  6
CONTINUOUS
 62
1
 10
3.9557113E-001
 20
4.6708118E-001
 11
8.0258413E-001
 21
6.0098776E-002
  0
LINE
  8
108
  6
CONTINUOUS
 62
1
 10
8.0258413E-001
 20
7.4228476E-002
 11
4.0973213E-001
 21
4.6708118E-001
  0
LINE
  8
108
  6
CONTINUOUS
 62
1
 10
4.2386113E-001
 20
4.6708118E-001
 11
8.0258413E-001
 21
8.8358076E-002
  0
LINE
  8
108
  6
CONTINUOUS
 62
1
 10
8.0258413E-001
 20
1.0251828E-001
 11
4.3802113E-001
 21
4.6708118E-001
  0
LINE
  8
108
  6
CONTINUOUS
 62
1
 10
4.5215113E-001
 20
4.6708118E-001
 11
8.0258413E-001
 21
1.1664788E-001
  0
LINE
  8
108
  6
CONTINUOUS
 62
1
 10
8.0258413E-001
 20
1.3077748E-001
 11
4.6628113E-001
 21
4.6708118E-001
  0
LINE
  8
108
  6
CONTINUOUS
 62
1
 10
4.8044113E-001
 20
4.6708118E-001
 11
8.0258413E-001
 21
1.4493768E-001
  0
LINE
  8
108
  6
CONTINUOUS
 62
1
 10
8.0258413E-001
 20
1.5909778E-001
 11
4.9457013E-001
 21
4.6708118E-001
  0
LINE
  8
108
  6
CONTINUOUS
 62
1
 10
5.0873113E-001
 20
4.6708118E-001
 11
8.0258413E-001
 21
1.7322748E-001
  0
LINE
  8
108
  6
CONTINUOUS
 62
1
 10
8.0258413E-001
 20
1.8735708E-001
 11
5.2286013E-001
 21
4.6708118E-001
  0
LINE
  8
108
  6
CONTINUOUS
 62
1
 10
5.3699013E-001
 20
4.6708118E-001
 11
8.0258413E-001
 21
2.0151728E-001
  0
LINE
  8
108
  6
CONTINUOUS
 62
1
 10
8.0258413E-001
 20
2.1564688E-001
 11
5.5115013E-001
 21
4.6708118E-001
  0
LINE
  8
108
  6
CONTINUOUS
 62
1
 10
5.6528013E-001
 20
4.6708118E-001
 11
8.0258413E-001
 21
2.2977658E-001
  0
LINE
  8
108
  6
CONTINUOUS
 62
1
 10
8.0258413E-001
 20
2.4393668E-001
 11
5.7944013E-001
 21
4.6708118E-001
  0
LINE
  8
108
  6
CONTINUOUS
 62
1
 10
5.9356913E-001
 20
4.6708118E-001
 11
8.0258413E-001
 21
2.5809688E-001
  0
LINE
  8
108
  6
CONTINUOUS
 62
1
 10
8.0258413E-001
 20
2.7219598E-001
 11
6.0773013E-001
 21
4.6708118E-001
  0
LINE
  8
108
  6
CONTINUOUS
 62
1
 10
6.2185913E-001
 20
4.6708118E-001
 11
8.0258413E-001
 21
2.8635608E-001
  0
LINE
  8
108
  6
CONTINUOUS
 62
1
 10
8.0258413E-001
 20
3.0051628E-001
 11
6.3598913E-001
 21
4.6708118E-001
  0
LINE
  8
108
  6
CONTINUOUS
 62
1
 10
6.5014913E-001
 20
4.6708118E-001
 11
8.0258413E-001
 21
3.1464588E-001
  0
LINE
  8
108
  6
CONTINUOUS
 62
1
 10
8.0258413E-001
 20
3.2877558E-001
 11
6.6427913E-001
 21
4.6708118E-001
  0
LINE
  8
108
  6
CONTINUOUS
 62
1
 10
6.7843913E-001
 20
4.6708118E-001
 11
8.0258413E-001
 21
3.4293568E-001
  0
LINE
  8
108
  6
CONTINUOUS
 62
1
 10
8.0258413E-001
 20
3.5706538E-001
 11
6.9256813E-001
 21
4.6708118E-001
  0
LINE
  8
108
  6
CONTINUOUS
 62
1
 10
7.0669813E-001
 20
4.6708118E-001
 11
8.0258413E-001
 21
3.7119498E-001
  0
LINE
  8
108
  6
CONTINUOUS
 62
1
 10
8.0258413E-001
 20
3.8535518E-001
 11
7.2085813E-001
 21
4.6708118E-001
  0
LINE
  8
108
  6
CONTINUOUS
 62
1
 10
7.3498813E-001
 20
4.6708118E-001
 11
8.0258413E-001
 21
3.9951528E-001
  0
LINE
  8
108
  6
CONTINUOUS
 62
1
 10
8.0258413E-001
 20
4.1364498E-001
 11
7.4914813E-001
 21
4.6708118E-001
  0
LINE
  8
108
  6
CONTINUOUS
 62
1
 10
7.6327813E-001
 20
4.6708118E-001
 11
8.0258413E-001
 21
4.2777458E-001
  0
LINE
  8
108
  6
CONTINUOUS
 62
1
 10
8.0258413E-001
 20
4.4193478E-001
 11
7.7740713E-001
 21
4.6708118E-001
  0
LINE
  8
108
  6
CONTINUOUS
 62
1
 10
7.9156813E-001
 20
4.6708118E-001
 11
8.0258413E-001
 21
4.5606438E-001
  0
ENDBLK
  0
BLOCK
  2
*XH48
  3
*XH
 10
0.0
 20
0.0
 70
65
  0
LINE
  8
108
  6
CONTINUOUS
 62
1
 10
-1.4100798
 20
-6.1241201
 11
-7.8593475E-001
 21
-5.4999899
  0
LINE
  8
108
  6
CONTINUOUS
 62
1
 10
8.992025E-002
 20
-4.6241201
 11
1.0899503
 21
-3.6241049
  0
LINE
  8
108
  6
CONTINUOUS
 62
1
 10
1.0899503
 20
-7.9568986E-001
 11
8.992025E-002
 21
-1.7956899
  0
LINE
  8
108
  6
CONTINUOUS
 62
1
 10
8.992025E-002
 20
1.0327402
 11
1.0899503
 21
2.0327402
  0
LINE
  8
108
  6
CONTINUOUS
 62
1
 10
1.0762173
 20
4.8474833
 11
8.992025E-002
 21
3.8611552
  0
LINE
  8
108
  6
CONTINUOUS
 62
1
 10
-1.4100798
 20
5.1895853
 11
-1.0996548
 21
5.5000101
  0
ENDBLK
  0
BLOCK
  2
*XH49
  3
*XH
 10
0.0
 20
0.0
 70
65
  0
LINE
  8
108
  6
CONTINUOUS
 62
1
 10
1.4457885
 20
-5.1538595
 11
9.277825E-001
 21
-5.6718649
  0
LINE
  8
108
  6
CONTINUOUS
 62
1
 10
-1.0541815
 20
-4.8254293
 11
-5.41815E-002
 21
-3.8254293
  0
LINE
  8
108
  6
CONTINUOUS
 62
1
 10
-5.41815E-002
 20
-9.9699906E-001
 11
-1.0541815
 21
-1.9969991
  0
LINE
  8
108
  6
CONTINUOUS
 62
1
 10
-1.0541815
 20
8.3143104E-001
 11
-5.41815E-002
 21
1.831431
  0
LINE
  8
108
  6
CONTINUOUS
 62
1
 10
1.4457885
 20
6.1598612
 11
6.140925E-001
 21
5.3281351
  0
LINE
  8
108
  6
CONTINUOUS
 62
1
 10
-5.41815E-002
 20
4.6598612
 11
-1.0541815
 21
3.6598612
  0
ENDBLK
  0
BLOCK
  2
*XH51
  3
*XH
 10
0.0
 20
0.0
 70
65
  0
LINE
  8
108
  6
CONTINUOUS
 62
1
 10
-6.6582272
 20
-2.675568
 11
-3.4012082
 21
-5.932587
  0
LINE
  8
108
  6
CONTINUOUS
 62
1
 10
-2.500242E-001
 20
-6.2553709
 11
-5.7332092
 21
-7.7215595E-001
  0
LINE
  8
108
  6
CONTINUOUS
 62
1
 10
-4.3946472
 20
7.1768205E-001
 11
-2.7832582
 21
-8.9370695E-001
  0
LINE
  8
108
  6
CONTINUOUS
 62
1
 10
4.534358E-001
 20
-4.130402
 11
3.0668088
 21
-6.7437739
  0
LINE
  8
108
  6
CONTINUOUS
 62
1
 10
5.5854248
 20
-6.43396
 11
3.2818668
 21
-4.130402
  0
LINE
  8
108
  6
CONTINUOUS
 62
1
 10
-1.7577152
 20
9.0921005E-001
 11
-3.0339602
 21
2.1854251
  0
LINE
  8
108
  6
CONTINUOUS
 62
1
 10
-1.6366212
 20
3.6165161
 11
-3.897032E-001
 21
2.3695981
  0
LINE
  8
108
  6
CONTINUOUS
 62
1
 10
2.4387268
 20
2.3695981
 11
-2.027222E-001
 21
5.0110471
  0
LINE
  8
108
  6
CONTINUOUS
 62
1
 10
1.3745178
 20
6.262238
 11
4.7762818
 21
2.8604741
  0
LINE
  8
108
  6
CONTINUOUS
 62
1
 10
5.5854248
 20
4.879761
 11
3.6788088
 21
6.786377
  0
ENDBLK
  0
BLOCK
  2
*XH52
  3
*XH
 10
0.0
 20
0.0
 70
65
  0
LINE
  8
108
  6
CONTINUOUS
 62
1
 10
2.596518E+001
 20
-2.6726545
 11
2.734311E+001
 21
-1.2947245
  0
LINE
  8
108
  6
CONTINUOUS
 62
1
 10
2.734311E+001
 20
1.5337055
 11
2.313675E+001
 21
-2.6726545
  0
LINE
  8
108
  6
CONTINUOUS
 62
1
 10
2.0643098E+001
 20
-2.3378765
 11
2.530832E+001
 21
2.3273455
  0
LINE
  8
108
  6
CONTINUOUS
 62
1
 10
2.247989E+001
 20
2.3273455
 11
1.897989E+001
 21
-1.1726545
  0
LINE
  8
108
  6
CONTINUOUS
 62
1
 10
1.615146E+001
 20
-1.1726545
 11
1.965146E+001
 21
2.3273455
  0
LINE
  8
108
  6
CONTINUOUS
 62
1
 10
1.6823029E+001
 20
2.3273455
 11
1.3323029E+001
 21
-1.1726545
  0
LINE
  8
108
  6
CONTINUOUS
 62
1
 10
1.2643098E+001
 20
-1.8525865
 11
1.1823029E+001
 21
-2.6726545
  0
LINE
  8
108
  6
CONTINUOUS
 62
1
 10
8.9945994
 20
-2.6726545
 11
1.3994599E+001
 21
2.3273455
  0
LINE
  8
108
  6
CONTINUOUS
 62
1
 10
1.2666169E+001
 20
3.8273455
 11
1.2643098E+001
 21
3.8042745
  0
LINE
  8
108
  6
CONTINUOUS
 62
1
 10
1.1166169E+001
 20
2.3273455
 11
6.1661694
 21
-2.6726545
  0
LINE
  8
108
  6
CONTINUOUS
 62
1
 10
3.3377394
 20
-2.6726545
 11
8.3377394
 21
2.3273455
  0
LINE
  8
108
  6
CONTINUOUS
 62
1
 10
5.5093394
 20
2.3273455
 11
5.0933938E-001
 21
-2.6726545
  0
LINE
  8
108
  6
CONTINUOUS
 62
1
 10
-2.3190906
 20
-2.6726545
 11
2.6809094
 21
2.3273455
  0
LINE
  8
108
  6
CONTINUOUS
 62
1
 10
-1.4752062E-001
 20
2.3273455
 11
-5.1475206
 21
-2.6726545
  0
LINE
  8
108
  6
CONTINUOUS
 62
1
 10
-7.9759506
 20
-2.6726545
 11
-2.9759506
 21
2.3273455
  0
LINE
  8
108
  6
CONTINUOUS
 62
1
 10
-5.8043806
 20
2.3273455
 11
-1.0804381E+001
 21
-2.6726545
  0
LINE
  8
108
  6
CONTINUOUS
 62
1
 10
-1.3632812E+001
 20
-2.6726545
 11
-8.6328116
 21
2.3273455
  0
LINE
  8
108
  6
CONTINUOUS
 62
1
 10
-1.1461242E+001
 20
2.3273455
 11
-1.6461242E+001
 21
-2.6726545
  0
LINE
  8
108
  6
CONTINUOUS
 62
1
 10
-1.9289672E+001
 20
-2.6726545
 11
-1.4289672E+001
 21
2.3273455
  0
LINE
  8
108
  6
CONTINUOUS
 62
1
 10
-1.7118102E+001
 20
2.3273455
 11
-2.2118102E+001
 21
-2.6726545
  0
LINE
  8
108
  6
CONTINUOUS
 62
1
 10
-2.4946532E+001
 20
-2.6726545
 11
-1.9946532E+001
 21
2.3273455
  0
LINE
  8
108
  6
CONTINUOUS
 62
1
 10
-2.2774932E+001
 20
2.3273455
 11
-2.7774932E+001
 21
-2.6726545
  0
LINE
  8
108
  6
CONTINUOUS
 62
1
 10
-2.9856902E+001
 20
-1.9261945
 11
-2.5603362E+001
 21
2.3273455
  0
LINE
  8
108
  6
CONTINUOUS
 62
1
 10
-2.8431792E+001
 20
2.3273455
 11
-3.0106902E+001
 21
6.5223552E-001
  0
ENDBLK
  0
BLOCK
  2
*XH53
  3
*XH
 10
0.0
 20
0.0
 70
65
  0
LINE
  8
108
  6
CONTINUOUS
 62
1
 10
4.2163955
 20
-2.8546753
 11
8.6471505
 21
1.5760807
  0
LINE
  8
108
  6
CONTINUOUS
 62
1
 10
6.3879645
 20
2.1453247
 11
1.3879645
 21
-2.8546753
  0
LINE
  8
108
  6
CONTINUOUS
 62
1
 10
-1.4404655
 20
-2.8546753
 11
3.5595345
 21
2.1453247
  0
LINE
  8
108
  6
CONTINUOUS
 62
1
 10
7.311045E-001
 20
2.1453247
 11
-4.2604725
 21
-2.8462523
  0
LINE
  8
108
  6
CONTINUOUS
 62
1
 10
-5.6032455
 20
-1.3606263
 11
-2.0973255
 21
2.1453247
  0
LINE
  8
108
  6
CONTINUOUS
 62
1
 10
-4.9257555
 20
2.1453247
 11
-6.6028495
 21
4.6820067E-001
  0
ENDBLK
  0
BLOCK
  2
*XH54
  3
*XH
 10
0.0
 20
0.0
 70
65
  0
LINE
  8
108
  6
CONTINUOUS
 62
1
 10
5.5983012
 20
-2.8869846
 11
9.3714032
 21
8.8611736E-001
  0
LINE
  8
108
  6
CONTINUOUS
 62
1
 10
7.7698712
 20
2.1130154
 11
2.7698712
 21
-2.8869846
  0
LINE
  8
108
  6
CONTINUOUS
 62
1
 10
-5.8558786E-002
 20
-2.8869846
 11
4.9414412
 21
2.1130154
  0
LINE
  8
108
  6
CONTINUOUS
 62
1
 10
2.1130112
 20
2.1130154
 11
-2.8869888
 21
-2.8869846
  0
LINE
  8
108
  6
CONTINUOUS
 62
1
 10
-5.3470108
 20
-2.5185766
 11
-7.1541979E-001
 21
2.1130154
  0
LINE
  8
108
  6
CONTINUOUS
 62
1
 10
-3.5438498
 20
2.1130154
 11
-6.7612258
 21
-1.1043616
  0
LINE
  8
108
  6
CONTINUOUS
 62
1
 10
-6.8785968
 20
1.6066674
 11
-6.3722488
 21
2.1130154
  0
ENDBLK
  0
BLOCK
  2
*XH55
  3
*XH
 10
0.0
 20
0.0
 70
65
  0
LINE
  8
108
  6
CONTINUOUS
 62
1
 10
3.832676
 20
-4.0995413E-001
 11
1.115635
 21
-3.1269951
  0
LINE
  8
108
  6
CONTINUOUS
 62
1
 10
-1.19006
 20
-2.6042591
 11
3.287205
 21
1.8730049
  0
LINE
  8
108
  6
CONTINUOUS
 62
1
 10
4.58805E-001
 20
1.8730049
 11
-2.567318
 21
-1.1531181
  0
LINE
  8
108
  6
CONTINUOUS
 62
1
 10
-2.567318
 20
1.6753119
 11
-2.369625
 21
1.8730049
  0
ENDBLK
  0
BLOCK
  2
*XH56
  3
*XH
 10
0.0
 20
0.0
 70
65
  0
LINE
  8
108
  6
CONTINUOUS
 62
1
 10
2.7603329
 20
-2.896524
 11
6.8824039
 21
1.225546
  0
LINE
  8
108
  6
CONTINUOUS
 62
1
 10
4.9319029
 20
2.103476
 11
-6.80971E-002
 21
-2.896524
  0
LINE
  8
108
  6
CONTINUOUS
 62
1
 10
-2.8965271
 20
-2.896524
 11
2.1034729
 21
2.103476
  0
LINE
  8
108
  6
CONTINUOUS
 62
1
 10
-7.249571E-001
 20
2.103476
 11
-4.7175721
 21
-1.889139
  0
LINE
  8
108
  6
CONTINUOUS
 62
1
 10
-4.7175721
 20
9.39261E-001
 11
-3.5533871
 21
2.103476
  0
ENDBLK
  0
BLOCK
  2
*XH57
  3
*XH
 10
0.0
 20
0.0
 70
65
  0
LINE
  8
108
  6
CONTINUOUS
 62
1
 10
-4.75652E-001
 20
-3.3040875
 11
3.204066
 21
3.756615E-001
  0
LINE
  8
108
  6
CONTINUOUS
 62
1
 10
1.695918
 20
1.6959125
 11
-1.64591
 21
-1.6459145
  0
LINE
  8
108
  6
CONTINUOUS
 62
1
 10
-1.64591
 20
1.1825155
 11
-1.132512
 21
1.6959125
  0
ENDBLK
  0
BLOCK
  2
*XH58
  3
*XH
 10
0.0
 20
0.0
 70
65
  0
LINE
  8
108
  6
CONTINUOUS
 62
1
 10
-5.1824167E-002
 20
-2.8802283
 11
2.5001168
 21
-3.2831833E-001
  0
LINE
  8
108
  6
CONTINUOUS
 62
1
 10
2.0623118
 20
2.0623067
 11
-1.3945972
 21
-1.3946023
  0
LINE
  8
108
  6
CONTINUOUS
 62
1
 10
-2.3498892
 20
4.7853567E-001
 11
-7.6611817E-001
 21
2.0623067
  0
ENDBLK
  0
BLOCK
  2
*XH59
  3
*XH
 10
0.0
 20
0.0
 70
65
  0
LINE
  8
108
  6
CONTINUOUS
 62
1
 10
-2.0724752
 20
-1.0655447E+001
 11
-1.5008202
 21
-1.1227102E+001
  0
LINE
  8
108
  6
CONTINUOUS
 62
1
 10
-8.6605237E-002
 20
-1.1227102E+001
 11
-2.0724752
 21
-9.2412322
  0
LINE
  8
108
  6
CONTINUOUS
 62
1
 10
-2.0724752
 20
-7.8270162
 11
1.3276098
 21
-1.1227102E+001
  0
LINE
  8
108
  6
CONTINUOUS
 62
1
 10
2.1748088
 20
-1.0660116E+001
 11
-2.0724752
 21
-6.4128012
  0
LINE
  8
108
  6
CONTINUOUS
 62
1
 10
-2.0724752
 20
-4.9985862
 11
2.1748088
 21
-9.2459012
  0
LINE
  8
108
  6
CONTINUOUS
 62
1
 10
2.1748088
 20
-7.8316862
 11
-2.0724752
 21
-3.5843712
  0
LINE
  8
108
  6
CONTINUOUS
 62
1
 10
-2.0724752
 20
-2.1701562
 11
2.1748088
 21
-6.4174712
  0
LINE
  8
108
  6
CONTINUOUS
 62
1
 10
2.1748088
 20
-5.0032562
 11
-2.0724752
 21
-7.5594118E-001
  0
LINE
  8
108
  6
CONTINUOUS
 62
1
 10
-2.0724752
 20
6.5827382E-001
 11
2.1748088
 21
-3.5890402
  0
LINE
  8
108
  6
CONTINUOUS
 62
1
 10
2.1748088
 20
-2.1748252
 11
-2.0724752
 21
2.0724888
  0
LINE
  8
108
  6
CONTINUOUS
 62
1
 10
-2.0724752
 20
3.4867038
 11
2.1748088
 21
-7.6061018E-001
  0
LINE
  8
108
  6
CONTINUOUS
 62
1
 10
2.1748088
 20
6.5360482E-001
 11
-2.0724752
 21
4.9009188
  0
LINE
  8
108
  6
CONTINUOUS
 62
1
 10
-2.0724752
 20
6.3151338
 11
2.1748088
 21
2.0678198
  0
LINE
  8
108
  6
CONTINUOUS
 62
1
 10
2.1748088
 20
3.4820348
 11
-2.0724752
 21
7.7293488
  0
LINE
  8
108
  6
CONTINUOUS
 62
1
 10
-2.0724752
 20
9.1435648
 11
2.1748088
 21
4.8962498
  0
LINE
  8
108
  6
CONTINUOUS
 62
1
 10
2.1748088
 20
6.3104648
 11
-2.0724752
 21
1.055778E+001
  0
LINE
  8
108
  6
CONTINUOUS
 62
1
 10
-1.8733782
 20
1.1772898E+001
 11
2.1748088
 21
7.7246798
  0
LINE
  8
108
  6
CONTINUOUS
 62
1
 10
2.1748088
 20
9.1388948
 11
-4.5916324E-001
 21
1.1772898E+001
  0
LINE
  8
108
  6
CONTINUOUS
 62
1
 10
9.5502076E-001
 20
1.1772898E+001
 11
2.1748088
 21
1.055311E+001
  0
ENDBLK
  0
BLOCK
  2
*XH60
  3
*XH
 10
0.0
 20
0.0
 70
65
  0
LINE
  8
108
  6
CONTINUOUS
 62
1
 10
2.5985105
 20
1.1842958
 11
-1.1842955
 21
-2.5985113
  0
LINE
  8
108
  6
CONTINUOUS
 62
1
 10
-2.5051575
 20
-1.0909422
 11
1.0909425
 21
2.5051578
  0
ENDBLK
  0
BLOCK
  2
*XH61
  3
*XH
 10
0.0
 20
0.0
 70
65
  0
LINE
  8
108
  6
CONTINUOUS
 62
1
 10
-5.7521456
 20
-1.3189173
 11
-5.6288246
 21
-1.4422383
  0
LINE
  8
108
  6
CONTINUOUS
 62
1
 10
-4.2146096
 20
-1.4422383
 11
-5.7521456
 21
9.5297682E-002
  0
LINE
  8
108
  6
CONTINUOUS
 62
1
 10
-5.7521456
 20
1.5094827
 11
-2.8003946
 21
-1.4422383
  0
LINE
  8
108
  6
CONTINUOUS
 62
1
 10
-1.3861786
 20
-1.4422383
 11
-4.3832496
 21
1.5548317
  0
LINE
  8
108
  6
CONTINUOUS
 62
1
 10
-2.9690346
 20
1.5548317
 11
2.8036409E-002
 21
-1.4422383
  0
LINE
  8
108
  6
CONTINUOUS
 62
1
 10
1.4422514
 20
-1.4422383
 11
-1.5548196
 21
1.5548317
  0
LINE
  8
108
  6
CONTINUOUS
 62
1
 10
-1.4060459E-001
 20
1.5548317
 11
2.8564664
 21
-1.4422383
  0
LINE
  8
108
  6
CONTINUOUS
 62
1
 10
4.2706504
 20
-1.4422383
 11
1.2735804
 21
1.5548317
  0
LINE
  8
108
  6
CONTINUOUS
 62
1
 10
2.6877954
 20
1.5548317
 11
5.6848654
 21
-1.4422383
  0
LINE
  8
108
  6
CONTINUOUS
 62
1
 10
6.2361354
 20
-5.7929332E-001
 11
4.1020104
 21
1.5548317
  0
LINE
  8
108
  6
CONTINUOUS
 62
1
 10
5.5162254
 20
1.5548317
 11
6.2361354
 21
8.3492168E-001
  0
ENDBLK
  0
BLOCK
  2
*XH62
  3
*XH
 10
0.0
 20
0.0
 70
65
  0
LINE
  8
108
  6
CONTINUOUS
 62
1
 10
2.374146E-001
 20
-4.1972164
 11
9.422786E-001
 21
-4.9020814
  0
LINE
  8
108
  6
CONTINUOUS
 62
1
 10
3.0040766
 20
-4.1354494
 11
2.374146E-001
 21
-1.3687864
  0
LINE
  8
108
  6
CONTINUOUS
 62
1
 10
-1.2292904
 20
9.79186E-002
 11
-3.7625854
 21
2.6312136
  0
LINE
  8
108
  6
CONTINUOUS
 62
1
 10
-3.3317074
 20
5.0287656
 11
2.2374146
 21
-5.403564E-001
  0
LINE
  8
108
  6
CONTINUOUS
 62
1
 10
2.2374146
 20
2.2880736
 11
-5.724304E-001
 21
5.0979186
  0
ENDBLK
  0
BLOCK
  2
*XH63
  3
*XH
 10
0.0
 20
0.0
 70
65
  0
LINE
  8
108
  6
CONTINUOUS
 62
1
 10
-2.8186796
 20
-4.2523749
 11
-1.4721226
 21
-5.5989329
  0
LINE
  8
108
  6
CONTINUOUS
 62
1
 10
-3.1913758E-001
 20
-3.9235179
 11
-2.3191376
 21
-1.9235179
  0
LINE
  8
108
  6
CONTINUOUS
 62
1
 10
-2.3191376
 20
9.0491208E-001
 11
-3.1913758E-001
 21
-1.0950879
  0
LINE
  8
108
  6
CONTINUOUS
 62
1
 10
2.0131684
 20
-5.9893292E-001
 11
-2.3191376
 21
3.7333421
  0
LINE
  8
108
  6
CONTINUOUS
 62
1
 10
-1.5840158E-001
 20
4.4010671
 11
3.6808624
 21
5.6177308E-001
  0
LINE
  8
108
  6
CONTINUOUS
 62
1
 10
3.6808624
 20
3.3902031
 11
2.6699984
 21
4.4010671
  0
ENDBLK
  0
BLOCK
  2
*XH64
  3
*XH
 10
0.0
 20
0.0
 70
65
  0
LINE
  8
108
  6
CONTINUOUS
 62
1
 10
4.3991775
 20
1.56551E-001
 11
9.031445E-001
 21
-3.339512
  0
LINE
  8
108
  6
CONTINUOUS
 62
1
 10
-1.0130535
 20
-2.42728
 11
3.0747145
 21
1.660488
  0
LINE
  8
108
  6
CONTINUOUS
 62
1
 10
2.462845E-001
 20
1.660488
 11
-2.4272995
 21
-1.013065
  0
LINE
  8
108
  6
CONTINUOUS
 62
1
 10
-2.6008225
 20
1.641842
 11
-2.5821455
 21
1.660488
  0
ENDBLK
  0
BLOCK
  2
*XH65
  3
*XH
 10
0.0
 20
0.0
 70
65
  0
LINE
  8
108
  6
CONTINUOUS
 62
1
 10
1.6294962
 20
-1.1989438
 11
4.4712317E-001
 21
-2.3812868
  0
LINE
  8
108
  6
CONTINUOUS
 62
1
 10
-1.1258748
 20
-1.1258848
 11
1.6294962
 21
1.6294862
  0
LINE
  8
108
  6
CONTINUOUS
 62
1
 10
-2.0973683E-001
 20
2.6187132
 11
-2.3705038
 21
4.5791617E-001
  0
ENDBLK
  0
BLOCK
  2
*XH66
  3
*XH
 10
0.0
 20
0.0
 70
65
  0
LINE
  8
108
  6
CONTINUOUS
 62
1
 10
2.4857585
 20
-3.4264633E-001
 11
-3.2399493E-001
 21
-3.1524303
  0
LINE
  8
108
  6
CONTINUOUS
 62
1
 10
-1.5142415
 20
-1.5142463
 11
1.8475749
 21
1.8475697
  0
LINE
  8
108
  6
CONTINUOUS
 62
1
 10
-9.8085533E-001
 20
1.8475697
 11
-1.5142415
 21
1.3141837
  0
ENDBLK
  0
ENDSEC
  0
SECTION
  2
ENTITIES
  0
TEXT
  8
103
  6
CONTINUOUS
 62
40
 10
4.129183E+002
 20
1.3376441E+001
 40
5.0
  1
BTS-Zubehör Pendel-Zapfenband-74XX
 41
6.6477273E-001
 72
1
 11
3.5641262E+002
 21
1.0876441E+001
 73
2
  0
LINE
  8
104
  6
CONTINUOUS
 62
40
 10
7.6533242E+001
 20
1.66357E+002
 11
6.9244546E+001
 21
1.590683E+002
  0
LINE
  8
104
  6
CONTINUOUS
 62
40
 10
7.0658761E+001
 20
1.5765409E+002
 11
7.7947457E+001
 21
1.6494278E+002
  0
LINE
  8
106
  6
CENTERLINE
 62
1
 10
6.7595986E+001
 20
1.268491E+002
 11
6.7595986E+001
 21
1.3999753E+002
  0
LINE
  8
106
  6
CENTERLINE
 62
1
 10
7.9595986E+001
 20
1.258823E+002
 11
7.9595986E+001
 21
1.4038425E+002
  0
CIRCLE
  8
104
  6
CONTINUOUS
 62
40
 10
6.7595986E+001
 20
1.3270554E+002
 40
2.6499939
  0
CIRCLE
  8
104
  6
CONTINUOUS
 62
40
 10
6.7595986E+001
 20
1.3270554E+002
 40
4.9999999
  0
CIRCLE
  8
104
  6
CONTINUOUS
 62
40
 10
7.9595986E+001
 20
1.3270554E+002
 40
5.0
  0
CIRCLE
  8
104
  6
CONTINUOUS
 62
40
 10
7.9595986E+001
 20
1.3270554E+002
 40
2.649994
  0
LINE
  8
106
  6
CENTERLINE
 62
1
 10
7.3595986E+001
 20
1.7703342E+002
 11
7.3595986E+001
 21
1.2182024E+002
  0
LINE
  8
106
  6
CENTERLINE
 62
1
 10
5.9154824E+001
 20
1.3270554E+002
 11
8.740342E+001
 21
1.3270554E+002
  0
LINE
  8
106
  6
CENTERLINE
 62
1
 10
6.6783486E+001
 20
1.4520554E+002
 11
8.060563E+001
 21
1.4520554E+002
  0
LINE
  8
106
  6
CENTERLINE
 62
1
 10
6.4668618E+001
 20
1.6200554E+002
 11
8.2796059E+001
 21
1.6200554E+002
  0
LINE
  8
105
  6
HIDDEN
 62
1
 10
6.1095986E+001
 20
1.7020554E+002
 11
8.6095986E+001
 21
1.7020554E+002
  0
LINE
  8
104
  6
CONTINUOUS
 62
40
 10
6.1095986E+001
 20
1.7520554E+002
 11
8.6095986E+001
 21
1.7520554E+002
  0
LINE
  8
104
  6
CONTINUOUS
 62
40
 10
8.6095986E+001
 20
1.7520554E+002
 11
8.6095986E+001
 21
1.2520554E+002
  0
LINE
  8
104
  6
CONTINUOUS
 62
40
 10
8.6095986E+001
 20
1.2520554E+002
 11
6.1095986E+001
 21
1.2520554E+002
  0
LINE
  8
104
  6
CONTINUOUS
 62
40
 10
6.1095986E+001
 20
1.2520554E+002
 11
6.1095986E+001
 21
1.7520554E+002
  0
CIRCLE
  8
104
  6
CONTINUOUS
 62
40
 10
7.3595986E+001
 20
1.6200554E+002
 40
5.25
  0
CIRCLE
  8
105
  6
HIDDEN
 62
1
 10
7.3595986E+001
 20
1.6200554E+002
 40
7.25
  0
CIRCLE
  8
104
  6
CONTINUOUS
 62
40
 10
7.3595986E+001
 20
1.4520554E+002
 40
2.649994
  0
CIRCLE
  8
104
  6
CONTINUOUS
 62
40
 10
7.3595986E+001
 20
1.4520554E+002
 40
5.0
  0
LINE
  8
104
  6
CONTINUOUS
 62
40
 10
1.2704099E+002
 20
1.6126808E+002
 11
1.2844584E+002
 21
1.6126808E+002
  0
LINE
  8
104
  6
CONTINUOUS
 62
40
 10
1.2844584E+002
 20
1.6126808E+002
 11
1.2844584E+002
 21
1.6272847E+002
  0
LINE
  8
104
  6
CONTINUOUS
 62
40
 10
1.2844584E+002
 20
1.6272847E+002
 11
1.2704099E+002
 21
1.6272847E+002
  0
LINE
  8
104
  6
CONTINUOUS
 62
40
 10
1.6404099E+002
 20
1.7520558E+002
 11
1.6404099E+002
 21
1.7420558E+002
  0
LINE
  8
104
  6
CONTINUOUS
 62
40
 10
1.7704099E+002
 20
1.7520558E+002
 11
1.7704099E+002
 21
1.7420558E+002
  0
LINE
  8
104
  6
CONTINUOUS
 62
40
 10
1.6204099E+002
 20
1.7420558E+002
 11
1.6404099E+002
 21
1.7420558E+002
  0
LINE
  8
104
  6
CONTINUOUS
 62
40
 10
1.6404099E+002
 20
1.7420558E+002
 11
1.6404099E+002
 21
1.6420558E+002
  0
LINE
  8
104
  6
CONTINUOUS
 62
40
 10
1.6404099E+002
 20
1.6420558E+002
 11
1.6204099E+002
 21
1.6420558E+002
  0
LINE
  8
104
  6
CONTINUOUS
 62
40
 10
1.6204099E+002
 20
1.6420558E+002
 11
1.6204099E+002
 21
1.7420558E+002
  0
INSERT
  2
*XH26
  8
108
 10
1.6304099E+002
 20
1.6917317E+002
  0
LINE
  8
104
  6
CONTINUOUS
 62
40
 10
1.7904099E+002
 20
1.6420558E+002
 11
1.7704099E+002
 21
1.6420558E+002
  0
LINE
  8
104
  6
CONTINUOUS
 62
40
 10
1.7704099E+002
 20
1.6420558E+002
 11
1.7704099E+002
 21
1.7420558E+002
  0
LINE
  8
104
  6
CONTINUOUS
 62
40
 10
1.7704099E+002
 20
1.7420558E+002
 11
1.7904099E+002
 21
1.7420558E+002
  0
LINE
  8
104
  6
CONTINUOUS
 62
40
 10
1.7904099E+002
 20
1.7420558E+002
 11
1.7904099E+002
 21
1.6420558E+002
  0
INSERT
  2
*XH27
  8
108
 10
1.7804099E+002
 20
1.6917317E+002
  0
LINE
  8
104
  6
CONTINUOUS
 62
40
 10
1.7704099E+002
 20
1.7020558E+002
 11
1.7704099E+002
 21
1.6320558E+002
  0
LINE
  8
104
  6
CONTINUOUS
 62
40
 10
1.6404099E+002
 20
1.7020558E+002
 11
1.6404099E+002
 21
1.6320558E+002
  0
LINE
  8
106
  6
CENTERLINE
 62
1
 10
1.7054099E+002
 20
1.7754121E+002
 11
1.7054099E+002
 21
1.5620558E+002
  0
LINE
  8
104
  6
CONTINUOUS
 62
40
 10
1.4054099E+002
 20
1.7020558E+002
 11
1.4054099E+002
 21
1.6600557E+002
  0
LINE
  8
104
  6
CONTINUOUS
 62
40
 10
1.4054099E+002
 20
1.5800557E+002
 11
1.4054099E+002
 21
1.5620558E+002
  0
LINE
  8
104
  6
CONTINUOUS
 62
40
 10
1.8004099E+002
 20
1.7020558E+002
 11
1.8004099E+002
 21
1.7520558E+002
  0
LINE
  8
104
  6
CONTINUOUS
 62
40
 10
1.8004099E+002
 20
1.7520558E+002
 11
1.8004099E+002
 21
1.6320558E+002
  0
LINE
  8
104
  6
CONTINUOUS
 62
40
 10
1.8004099E+002
 20
1.6320558E+002
 11
1.7804099E+002
 21
1.6320558E+002
  0
LINE
  8
104
  6
CONTINUOUS
 62
40
 10
1.7804099E+002
 20
1.6320558E+002
 11
1.7804099E+002
 21
1.5620558E+002
  0
LINE
  8
104
  6
CONTINUOUS
 62
40
 10
2.0054099E+002
 20
1.7020558E+002
 11
2.0054099E+002
 21
1.5620558E+002
  0
LINE
  8
104
  6
CONTINUOUS
 62
40
 10
1.6104099E+002
 20
1.7020558E+002
 11
1.6104099E+002
 21
1.7520558E+002
  0
LINE
  8
104
  6
CONTINUOUS
 62
40
 10
1.6104099E+002
 20
1.7520558E+002
 11
1.6104099E+002
 21
1.6320558E+002
  0
LINE
  8
104
  6
CONTINUOUS
 62
40
 10
1.6104099E+002
 20
1.6320558E+002
 11
1.6304099E+002
 21
1.6320558E+002
  0
LINE
  8
104
  6
CONTINUOUS
 62
40
 10
1.6304099E+002
 20
1.6320558E+002
 11
1.6304099E+002
 21
1.5620558E+002
  0
LINE
  8
104
  6
CONTINUOUS
 62
40
 10
1.6304099E+002
 20
1.6320558E+002
 11
1.7804099E+002
 21
1.6320558E+002
  0
LINE
  8
104
  6
CONTINUOUS
 62
40
 10
1.3204099E+002
 20
1.6682808E+002
 11
1.3504099E+002
 21
1.6682808E+002
  0
LINE
  8
104
  6
CONTINUOUS
 62
40
 10
1.3504099E+002
 20
1.6682808E+002
 11
1.3504099E+002
 21
1.6600557E+002
  0
LINE
  8
104
  6
CONTINUOUS
 62
40
 10
1.3204099E+002
 20
1.5733046E+002
 11
1.3504099E+002
 21
1.5733046E+002
  0
LINE
  8
104
  6
CONTINUOUS
 62
40
 10
2.0054099E+002
 20
1.5620558E+002
 11
2.0054099E+002
 21
1.5320558E+002
  0
LINE
  8
104
  6
CONTINUOUS
 62
40
 10
2.0054099E+002
 20
1.5320558E+002
 11
1.3504099E+002
 21
1.5320558E+002
  0
ARC
  8
104
  6
CONTINUOUS
 62
40
 10
1.3504098E+002
 20
1.5620556E+002
 40
2.9999828
 50
1.7999967E+002
 51
2.7000033E+002
  0
LINE
  8
104
  6
CONTINUOUS
 62
40
 10
1.3204099E+002
 20
1.5620558E+002
 11
1.3204099E+002
 21
1.5733046E+002
  0
LINE
  8
104
  6
CONTINUOUS
 62
40
 10
1.3204099E+002
 20
1.5733046E+002
 11
1.3504099E+002
 21
1.5733046E+002
  0
LINE
  8
104
  6
CONTINUOUS
 62
40
 10
1.3504099E+002
 20
1.5733046E+002
 11
1.3504099E+002
 21
1.5620558E+002
  0
LINE
  8
104
  6
CONTINUOUS
 62
40
 10
1.3504099E+002
 20
1.5620558E+002
 11
2.0054099E+002
 21
1.5620558E+002
  0
INSERT
  2
*XH28
  8
108
 10
1.7961861E+002
 20
1.5937669E+002
  0
INSERT
  2
*XH29
  8
108
 10
1.9070633E+002
 20
1.6268342E+002
  0
INSERT
  2
*XH30
  8
108
 10
1.5222013E+002
 20
1.6285237E+002
  0
INSERT
  2
*XH31
  8
108
 10
1.9690681E+002
 20
1.7231683E+002
  0
INSERT
  2
*XH32
  8
108
 10
2.3036295E+002
 20
1.7280183E+002
  0
INSERT
  2
*XH33
  8
108
 10
2.4739785E+002
 20
1.7273747E+002
  0
INSERT
  2
*XH34
  8
108
 10
1.4035473E+002
 20
1.7230035E+002
  0
INSERT
  2
*XH35
  8
108
 10
1.2954099E+002
 20
1.5200142E+002
  0
INSERT
  2
*XH36
  8
108
 10
1.2922881E+002
 20
1.325146E+002
  0
LINE
  8
104
  6
CONTINUOUS
 62
40
 10
1.3204099E+002
 20
1.6600557E+002
 11
1.4924101E+002
 21
1.6600557E+002
  0
LINE
  8
104
  6
CONTINUOUS
 62
40
 10
1.4924101E+002
 20
1.6600557E+002
 11
1.4924101E+002
 21
1.5800557E+002
  0
LINE
  8
104
  6
CONTINUOUS
 62
40
 10
1.4924101E+002
 20
1.5800557E+002
 11
1.3204099E+002
 21
1.5800557E+002
  0
LINE
  8
99
  6
CONTINUOUS
 62
1
 10
1.3204099E+002
 20
1.6510561E+002
 11
1.4924101E+002
 21
1.6510561E+002
  0
LINE
  8
99
  6
CONTINUOUS
 62
1
 10
1.4924101E+002
 20
1.5890559E+002
 11
1.3204099E+002
 21
1.5890559E+002
  0
LINE
  8
104
  6
CONTINUOUS
 62
40
 10
1.5554099E+002
 20
1.7520558E+002
 11
1.5554099E+002
 21
1.7020558E+002
  0
LINE
  8
104
  6
CONTINUOUS
 62
40
 10
1.8454099E+002
 20
1.7520558E+002
 11
1.8454099E+002
 21
1.7020558E+002
  0
LINE
  8
104
  6
CONTINUOUS
 62
40
 10
1.3204099E+002
 20
1.6925557E+002
 11
1.2924101E+002
 21
1.6925557E+002
  0
LINE
  8
104
  6
CONTINUOUS
 62
40
 10
1.2924101E+002
 20
1.6925557E+002
 11
1.2924101E+002
 21
1.5475557E+002
  0
LINE
  8
104
  6
CONTINUOUS
 62
40
 10
1.2924101E+002
 20
1.5475557E+002
 11
1.3204099E+002
 21
1.5475557E+002
  0
LINE
  8
104
  6
CONTINUOUS
 62
40
 10
1.2924101E+002
 20
1.6725557E+002
 11
1.2704099E+002
 21
1.6725557E+002
  0
LINE
  8
104
  6
CONTINUOUS
 62
40
 10
1.2924101E+002
 20
1.5675557E+002
 11
1.2704099E+002
 21
1.5675557E+002
  0
LINE
  8
104
  6
CONTINUOUS
 62
40
 10
1.2704099E+002
 20
1.4020558E+002
 11
1.2939097E+002
 21
1.4255562E+002
  0
LINE
  8
104
  6
CONTINUOUS
 62
40
 10
1.2939097E+002
 20
1.4255562E+002
 11
1.2939097E+002
 21
1.4785561E+002
  0
LINE
  8
104
  6
CONTINUOUS
 62
40
 10
1.2939097E+002
 20
1.4785561E+002
 11
1.2704099E+002
 21
1.5020558E+002
  0
LINE
  8
104
  6
CONTINUOUS
 62
40
 10
1.2704099E+002
 20
1.5020558E+002
 11
1.2939097E+002
 21
1.4785561E+002
  0
LINE
  8
104
  6
CONTINUOUS
 62
40
 10
1.2939097E+002
 20
1.4785561E+002
 11
1.3204099E+002
 21
1.4785561E+002
  0
LINE
  8
104
  6
CONTINUOUS
 62
40
 10
1.2939097E+002
 20
1.4255562E+002
 11
1.3204099E+002
 21
1.4255562E+002
  0
LINE
  8
106
  6
CENTERLINE
 62
1
 10
1.2511143E+002
 20
1.4520558E+002
 11
1.3436424E+002
 21
1.4520558E+002
  0
LINE
  8
106
  6
CENTERLINE
 62
1
 10
1.2484324E+002
 20
1.3270558E+002
 11
1.3490067E+002
 21
1.3270558E+002
  0
LINE
  8
104
  6
CONTINUOUS
 62
40
 10
2.1204099E+002
 20
1.7520558E+002
 11
2.1439097E+002
 21
1.7285561E+002
  0
LINE
  8
104
  6
CONTINUOUS
 62
40
 10
2.1439097E+002
 20
1.7285561E+002
 11
2.1969096E+002
 21
1.7285561E+002
  0
LINE
  8
104
  6
CONTINUOUS
 62
40
 10
2.1969096E+002
 20
1.7285561E+002
 11
2.2204099E+002
 21
1.7520558E+002
  0
LINE
  8
104
  6
CONTINUOUS
 62
40
 10
2.2204099E+002
 20
1.7520558E+002
 11
2.1969096E+002
 21
1.7285561E+002
  0
LINE
  8
104
  6
CONTINUOUS
 62
40
 10
2.1969096E+002
 20
1.7285561E+002
 11
2.1969096E+002
 21
1.7020558E+002
  0
LINE
  8
104
  6
CONTINUOUS
 62
40
 10
2.1439097E+002
 20
1.7285561E+002
 11
2.1439097E+002
 21
1.7020558E+002
  0
LINE
  8
104
  6
CONTINUOUS
 62
40
 10
2.3704099E+002
 20
1.7520558E+002
 11
2.3939097E+002
 21
1.7285561E+002
  0
LINE
  8
104
  6
CONTINUOUS
 62
40
 10
2.3939097E+002
 20
1.7285561E+002
 11
2.4469096E+002
 21
1.7285561E+002
  0
LINE
  8
104
  6
CONTINUOUS
 62
40
 10
2.4469096E+002
 20
1.7285561E+002
 11
2.4704099E+002
 21
1.7520558E+002
  0
LINE
  8
104
  6
CONTINUOUS
 62
40
 10
2.4704099E+002
 20
1.7520558E+002
 11
2.4469096E+002
 21
1.7285561E+002
  0
LINE
  8
104
  6
CONTINUOUS
 62
40
 10
2.4469096E+002
 20
1.7285561E+002
 11
2.4469096E+002
 21
1.7020558E+002
  0
LINE
  8
104
  6
CONTINUOUS
 62
40
 10
2.3939097E+002
 20
1.7285561E+002
 11
2.3939097E+002
 21
1.7020558E+002
  0
LINE
  8
104
  6
CONTINUOUS
 62
40
 10
2.5004099E+002
 20
1.7520558E+002
 11
2.5004099E+002
 21
1.7020558E+002
  0
LINE
  8
104
  6
CONTINUOUS
 62
40
 10
2.5004099E+002
 20
1.7020558E+002
 11
1.8004099E+002
 21
1.7020558E+002
  0
LINE
  8
104
  6
CONTINUOUS
 62
40
 10
1.6104099E+002
 20
1.7020558E+002
 11
1.3304099E+002
 21
1.7020558E+002
  0
ARC
  8
104
  6
CONTINUOUS
 62
40
 10
1.3304098E+002
 20
1.6920559E+002
 40
9.9999078E-001
 50
8.9999472E+001
 51
1.8000053E+002
  0
LINE
  8
104
  6
CONTINUOUS
 62
40
 10
1.3204099E+002
 20
1.6920558E+002
 11
1.3204099E+002
 21
1.2520558E+002
  0
LINE
  8
104
  6
CONTINUOUS
 62
40
 10
1.3204099E+002
 20
1.2520558E+002
 11
1.2704099E+002
 21
1.2520558E+002
  0
LINE
  8
104
  6
CONTINUOUS
 62
40
 10
1.2704099E+002
 20
1.2520558E+002
 11
1.2704099E+002
 21
1.6920558E+002
  0
ARC
  8
104
  6
CONTINUOUS
 62
40
 10
1.3304099E+002
 20
1.6920555E+002
 40
5.9999965
 50
8.9999966E+001
 51
1.7999975E+002
  0
LINE
  8
104
  6
CONTINUOUS
 62
40
 10
1.3304099E+002
 20
1.7520555E+002
 11
2.5004099E+002
 21
1.7520555E+002
  0
LINE
  8
106
  6
CENTERLINE
 62
1
 10
1.2551377E+002
 20
1.6200557E+002
 11
1.3583933E+002
 21
1.6200557E+002
  0
LINE
  8
106
  6
CENTERLINE
 62
1
 10
1.3583933E+002
 20
1.6200557E+002
 11
1.5328397E+002
 21
1.6200557E+002
  0
LINE
  8
106
  6
CENTERLINE
 62
1
 10
1.5328397E+002
 20
1.6200557E+002
 11
1.6312913E+002
 21
1.6200557E+002
  0
LINE
  8
99
  6
CONTINUOUS
 62
1
 10
1.4924101E+002
 20
1.6600557E+002
 11
1.5604099E+002
 21
1.6600557E+002
  0
LINE
  8
99
  6
CONTINUOUS
 62
1
 10
1.4924101E+002
 20
1.5800557E+002
 11
1.5604099E+002
 21
1.5800557E+002
  0
LINE
  8
104
  6
CONTINUOUS
 62
40
 10
1.5604099E+002
 20
1.5800557E+002
 11
1.5604099E+002
 21
1.6600557E+002
  0
LINE
  8
104
  6
CONTINUOUS
 62
40
 10
1.4924101E+002
 20
1.6510561E+002
 11
1.5904099E+002
 21
1.6510561E+002
  0
LINE
  8
104
  6
CONTINUOUS
 62
40
 10
1.5904099E+002
 20
1.6510561E+002
 11
1.5904099E+002
 21
1.5890559E+002
  0
LINE
  8
104
  6
CONTINUOUS
 62
40
 10
1.5904099E+002
 20
1.5890559E+002
 11
1.4924101E+002
 21
1.5890559E+002
  0
LINE
  8
104
  6
CONTINUOUS
 62
40
 10
1.5904099E+002
 20
1.5890559E+002
 11
1.6083079E+002
 21
1.6200557E+002
  0
LINE
  8
104
  6
CONTINUOUS
 62
40
 10
1.6083079E+002
 20
1.6200557E+002
 11
1.5904099E+002
 21
1.6510561E+002
  0
LINE
  8
106
  6
CENTERLINE
 62
1
 10
2.4204099E+002
 20
1.775248E+002
 11
2.4204099E+002
 21
1.6827199E+002
  0
LINE
  8
106
  6
CENTERLINE
 62
1
 10
2.2954099E+002
 20
1.773907E+002
 11
2.2954099E+002
 21
1.680038E+002
  0
LINE
  8
106
  6
CENTERLINE
 62
1
 10
2.1704099E+002
 20
1.775248E+002
 11
2.1704099E+002
 21
1.6746742E+002
  0
LINE
  8
105
  6
HIDDEN
 62
1
 10
1.5104096E+002
 20
3.5689748E+001
 11
1.4004096E+002
 21
3.5689748E+001
  0
LINE
  8
105
  6
HIDDEN
 62
1
 10
1.5104096E+002
 20
2.9621785E+001
 11
1.4004096E+002
 21
2.9621785E+001
  0
ARC
  8
105
  6
HIDDEN
 62
1
 10
1.3861123E+002
 20
3.7154882E+001
 40
1.5702664
 50
1.7996772E+002
 51
2.5865794E+002
  0
ARC
  8
105
  6
HIDDEN
 62
1
 10
1.3860636E+002
 20
3.7130558E+001
 40
1.5454609
 50
2.5865744E+002
 51
3.3816614E+002
  0
LINE
  8
105
  6
HIDDEN
 62
1
 10
1.4004096E+002
 20
3.6555776E+001
 11
1.4954096E+002
 21
3.6555776E+001
  0
LINE
  8
105
  6
HIDDEN
 62
1
 10
1.4954096E+002
 20
3.6555776E+001
 11
1.5104096E+002
 21
3.5689748E+001
  0
LINE
  8
105
  6
HIDDEN
 62
1
 10
1.5104096E+002
 20
3.5689748E+001
 11
1.5104096E+002
 21
2.9621785E+001
  0
LINE
  8
105
  6
HIDDEN
 62
1
 10
1.5104096E+002
 20
2.9621785E+001
 11
1.4954096E+002
 21
2.8755773E+001
  0
LINE
  8
105
  6
HIDDEN
 62
1
 10
1.4954096E+002
 20
2.8755773E+001
 11
1.4004096E+002
 21
2.8755773E+001
  0
ARC
  8
105
  6
HIDDEN
 62
1
 10
1.3860637E+002
 20
2.8180977E+001
 40
1.5454631
 50
2.1834368E+001
 51
1.0134283E+002
  0
ARC
  8
105
  6
HIDDEN
 62
1
 10
1.3861123E+002
 20
2.8156652E+001
 40
1.57027
 50
1.0134234E+002
 51
1.800323E+002
  0
LINE
  8
105
  6
HIDDEN
 62
1
 10
1.4954096E+002
 20
3.6555776E+001
 11
1.4954096E+002
 21
2.8755773E+001
  0
LINE
  8
105
  6
HIDDEN
 62
1
 10
1.4004096E+002
 20
3.6555776E+001
 11
1.4004096E+002
 21
2.8755773E+001
  0
LINE
  8
105
  6
HIDDEN
 62
1
 10
1.3104096E+002
 20
2.7530767E+001
 11
1.2754096E+002
 21
2.7530767E+001
  0
LINE
  8
105
  6
HIDDEN
 62
1
 10
1.2754096E+002
 20
2.7530767E+001
 11
1.2754096E+002
 21
3.1655767E+001
  0
LINE
  8
105
  6
HIDDEN
 62
1
 10
1.2754096E+002
 20
3.1655767E+001
 11
1.2954096E+002
 21
3.1655767E+001
  0
LINE
  8
105
  6
HIDDEN
 62
1
 10
1.2954096E+002
 20
3.1655767E+001
 11
1.2954096E+002
 21
3.3655767E+001
  0
LINE
  8
105
  6
HIDDEN
 62
1
 10
1.2954096E+002
 20
3.3655767E+001
 11
1.2754096E+002
 21
3.3655767E+001
  0
LINE
  8
105
  6
HIDDEN
 62
1
 10
1.2754096E+002
 20
3.3655767E+001
 11
1.2754096E+002
 21
3.7780767E+001
  0
LINE
  8
105
  6
HIDDEN
 62
1
 10
1.2754096E+002
 20
3.7780767E+001
 11
1.3104096E+002
 21
3.7780767E+001
  0
LINE
  8
105
  6
HIDDEN
 62
1
 10
1.3104096E+002
 20
3.7780767E+001
 11
1.3104096E+002
 21
3.5405767E+001
  0
LINE
  8
105
  6
HIDDEN
 62
1
 10
1.3104096E+002
 20
3.5405767E+001
 11
1.3454096E+002
 21
3.5405767E+001
  0
LINE
  8
105
  6
HIDDEN
 62
1
 10
1.3454096E+002
 20
3.5405767E+001
 11
1.3454096E+002
 21
3.7780767E+001
  0
LINE
  8
105
  6
HIDDEN
 62
1
 10
1.3454096E+002
 20
3.7780767E+001
 11
1.3704096E+002
 21
3.7780767E+001
  0
LINE
  8
105
  6
HIDDEN
 62
1
 10
1.3704096E+002
 20
3.7780767E+001
 11
1.3704096E+002
 21
2.7530767E+001
  0
LINE
  8
105
  6
HIDDEN
 62
1
 10
1.3704096E+002
 20
2.7530767E+001
 11
1.3454096E+002
 21
2.7530767E+001
  0
LINE
  8
105
  6
HIDDEN
 62
1
 10
1.3454096E+002
 20
2.7530767E+001
 11
1.3454096E+002
 21
2.9905767E+001
  0
LINE
  8
105
  6
HIDDEN
 62
1
 10
1.3454096E+002
 20
2.9905767E+001
 11
1.3104096E+002
 21
2.9905767E+001
  0
LINE
  8
105
  6
HIDDEN
 62
1
 10
1.3104096E+002
 20
2.9905767E+001
 11
1.3104096E+002
 21
2.7530767E+001
  0
LINE
  8
105
  6
HIDDEN
 62
1
 10
1.3104096E+002
 20
3.5405767E+001
 11
1.3104096E+002
 21
2.9905767E+001
  0
LINE
  8
105
  6
HIDDEN
 62
1
 10
1.3454096E+002
 20
3.5405767E+001
 11
1.3454096E+002
 21
2.9905767E+001
  0
LINE
  8
105
  6
HIDDEN
 62
1
 10
1.2670735E+002
 20
3.2655767E+001
 11
1.517711E+002
 21
3.2655767E+001
  0
LINE
  8
106
  6
CENTERLINE
 62
1
 10
1.1060444E+002
 20
3.2655767E+001
 11
1.8678803E+002
 21
3.2655767E+001
  0
LINE
  8
106
  6
CENTERLINE
 62
1
 10
1.9935639E+002
 20
3.2655767E+001
 11
2.397685E+002
 21
3.2655767E+001
  0
ARC
  8
104
  6
CONTINUOUS
 62
40
 10
1.2904096E+002
 20
4.0155767E+001
 40
2.0
 50
0.0
 51
1.8E+002
  0
LINE
  8
104
  6
CONTINUOUS
 62
40
 10
1.3104096E+002
 20
4.0155767E+001
 11
1.3104096E+002
 21
3.8155767E+001
  0
ARC
  8
104
  6
CONTINUOUS
 62
40
 10
1.2904096E+002
 20
3.8155767E+001
 40
2.0
 50
1.8E+002
 51
3.6E+002
  0
LINE
  8
104
  6
CONTINUOUS
 62
40
 10
1.2704096E+002
 20
3.8155767E+001
 11
1.2704096E+002
 21
4.0155767E+001
  0
ARC
  8
104
  6
CONTINUOUS
 62
40
 10
1.2904096E+002
 20
2.7155767E+001
 40
2.0
 50
0.0
 51
1.8E+002
  0
LINE
  8
104
  6
CONTINUOUS
 62
40
 10
1.2704096E+002
 20
2.7155767E+001
 11
1.2704096E+002
 21
2.5155767E+001
  0
ARC
  8
104
  6
CONTINUOUS
 62
40
 10
1.2904096E+002
 20
2.5155767E+001
 40
2.0
 50
1.8E+002
 51
3.6E+002
  0
LINE
  8
104
  6
CONTINUOUS
 62
40
 10
1.3104096E+002
 20
2.5155767E+001
 11
1.3104096E+002
 21
2.7155767E+001
  0
LINE
  8
106
  6
CENTERLINE
 62
1
 10
1.2904096E+002
 20
4.3801061E+001
 11
1.2904096E+002
 21
2.1093694E+001
  0
LINE
  8
106
  6
CENTERLINE
 62
1
 10
1.2616892E+002
 20
2.6155767E+001
 11
1.3195005E+002
 21
2.6155767E+001
  0
LINE
  8
106
  6
CENTERLINE
 62
1
 10
1.2599012E+002
 20
3.9155767E+001
 11
1.3212885E+002
 21
3.9155767E+001
  0
ARC
  8
104
  6
CONTINUOUS
 62
40
 10
1.6554096E+002
 20
3.2655767E+001
 40
9.5
 50
9.0E+001
 51
2.7E+002
  0
LINE
  8
104
  6
CONTINUOUS
 62
40
 10
1.6554096E+002
 20
2.3155767E+001
 11
1.7554096E+002
 21
2.3155767E+001
  0
ARC
  8
104
  6
CONTINUOUS
 62
40
 10
1.7554096E+002
 20
3.2655767E+001
 40
9.5
 50
2.7E+002
 51
4.5E+002
  0
LINE
  8
104
  6
CONTINUOUS
 62
40
 10
1.7554096E+002
 20
4.2155767E+001
 11
1.6554096E+002
 21
4.2155767E+001
  0
CIRCLE
  8
104
  6
CONTINUOUS
 62
40
 10
2.3054096E+002
 20
3.8655767E+001
 40
2.649994
  0
CIRCLE
  8
104
  6
CONTINUOUS
 62
40
 10
2.3054096E+002
 20
3.8655767E+001
 40
5.0
  0
CIRCLE
  8
104
  6
CONTINUOUS
 62
40
 10
2.3054096E+002
 20
2.6655767E+001
 40
2.649994
  0
CIRCLE
  8
104
  6
CONTINUOUS
 62
40
 10
2.3054096E+002
 20
2.6655767E+001
 40
5.0
  0
LINE
  8
106
  6
CENTERLINE
 62
1
 10
1.7054096E+002
 20
4.7890569E+001
 11
1.7054096E+002
 21
1.7653127E+001
  0
LINE
  8
106
  6
CENTERLINE
 62
1
 10
1.2054096E+002
 20
4.7413762E+001
 11
1.2054096E+002
 21
1.8210073E+001
  0
LINE
  8
106
  6
CENTERLINE
 62
1
 10
2.3054096E+002
 20
4.7294561E+001
 11
2.3054096E+002
 21
1.7852468E+001
  0
LINE
  8
106
  6
CENTERLINE
 62
1
 10
1.1398084E+002
 20
3.8655767E+001
 11
1.2625831E+002
 21
3.8655767E+001
  0
LINE
  8
106
  6
CENTERLINE
 62
1
 10
1.1374244E+002
 20
2.6655767E+001
 11
1.2661591E+002
 21
2.6655767E+001
  0
LINE
  8
106
  6
CENTERLINE
 62
1
 10
2.3699397E+002
 20
3.8655767E+001
 11
2.2292851E+002
 21
3.8655767E+001
  0
LINE
  8
106
  6
CENTERLINE
 62
1
 10
2.3699397E+002
 20
2.6655767E+001
 11
2.2328611E+002
 21
2.6655767E+001
  0
LINE
  8
104
  6
CONTINUOUS
 62
40
 10
1.1254096E+002
 20
4.5155767E+001
 11
2.3754096E+002
 21
4.5155767E+001
  0
LINE
  8
104
  6
CONTINUOUS
 62
40
 10
2.3754096E+002
 20
4.5155767E+001
 11
2.3754096E+002
 21
2.0155767E+001
  0
LINE
  8
104
  6
CONTINUOUS
 62
40
 10
2.3754096E+002
 20
2.0155767E+001
 11
1.1254096E+002
 21
2.0155767E+001
  0
LINE
  8
104
  6
CONTINUOUS
 62
40
 10
1.1254096E+002
 20
2.0155767E+001
 11
1.1254096E+002
 21
4.5155767E+001
  0
CIRCLE
  8
104
  6
CONTINUOUS
 62
40
 10
1.2054096E+002
 20
3.8655767E+001
 40
2.649994
  0
CIRCLE
  8
104
  6
CONTINUOUS
 62
40
 10
1.2054096E+002
 20
3.8655767E+001
 40
5.0
  0
CIRCLE
  8
104
  6
CONTINUOUS
 62
40
 10
1.2054096E+002
 20
2.6655767E+001
 40
2.649994
  0
CIRCLE
  8
104
  6
CONTINUOUS
 62
40
 10
1.2054096E+002
 20
2.6655767E+001
 40
5.0
  0
LINE
  8
105
  6
HIDDEN
 62
1
 10
1.4579096E+002
 20
4.2180761E+001
 11
1.4579096E+002
 21
3.9180761E+001
  0
LINE
  8
105
  6
HIDDEN
 62
1
 10
1.4579096E+002
 20
2.6130773E+001
 11
1.4579096E+002
 21
2.3130773E+001
  0
LINE
  8
105
  6
HIDDEN
 62
1
 10
1.5029096E+002
 20
2.3130773E+001
 11
1.5029096E+002
 21
2.6130773E+001
  0
LINE
  8
105
  6
HIDDEN
 62
1
 10
1.5029096E+002
 20
3.9180761E+001
 11
1.5029096E+002
 21
4.2180761E+001
  0
LINE
  8
105
  6
HIDDEN
 62
1
 10
1.9279096E+002
 20
4.2180761E+001
 11
1.9279096E+002
 21
3.9180761E+001
  0
LINE
  8
105
  6
HIDDEN
 62
1
 10
1.9279096E+002
 20
2.6130773E+001
 11
1.9279096E+002
 21
2.3130773E+001
  0
LINE
  8
105
  6
HIDDEN
 62
1
 10
1.9729096E+002
 20
2.3130773E+001
 11
1.9729096E+002
 21
2.6130773E+001
  0
LINE
  8
105
  6
HIDDEN
 62
1
 10
1.9729096E+002
 20
3.9180761E+001
 11
1.9729096E+002
 21
4.2180761E+001
  0
LINE
  8
105
  6
HIDDEN
 62
1
 10
1.3404096E+002
 20
2.1155767E+001
 11
1.3404096E+002
 21
2.9655767E+001
  0
LINE
  8
105
  6
HIDDEN
 62
1
 10
1.3404096E+002
 20
3.5655767E+001
 11
1.3404096E+002
 21
4.4155767E+001
  0
LINE
  8
105
  6
HIDDEN
 62
1
 10
1.3104096E+002
 20
3.9655767E+001
 11
1.3404096E+002
 21
3.9655767E+001
  0
LINE
  8
105
  6
HIDDEN
 62
1
 10
1.3104096E+002
 20
2.5655767E+001
 11
1.3404096E+002
 21
2.5655767E+001
  0
LINE
  8
105
  6
HIDDEN
 62
1
 10
1.2688984E+002
 20
3.2655767E+001
 11
2.0588917E+002
 21
3.2655767E+001
  0
ARC
  8
105
  6
HIDDEN
 62
1
 10
1.4049064E+002
 20
2.5130767E+001
 40
1.000006
 50
9.0000107E+001
 51
1.499998E+002
  0
LINE
  8
105
  6
HIDDEN
 62
1
 10
1.3962461E+002
 20
2.5630773E+001
 11
1.3761833E+002
 21
2.2155767E+001
  0
ARC
  8
105
  6
HIDDEN
 62
1
 10
1.3588628E+002
 20
2.3155779E+001
 40
1.9999976
 50
2.6999956E+002
 51
3.2999954E+002
  0
LINE
  8
105
  6
HIDDEN
 62
1
 10
1.3588627E+002
 20
2.1155782E+001
 11
1.3104096E+002
 21
2.1155782E+001
  0
LINE
  8
105
  6
HIDDEN
 62
1
 10
1.3104096E+002
 20
2.1155782E+001
 11
1.3104096E+002
 21
2.9655767E+001
  0
LINE
  8
105
  6
HIDDEN
 62
1
 10
1.3104096E+002
 20
2.9655767E+001
 11
1.3454096E+002
 21
2.9655767E+001
  0
LINE
  8
105
  6
HIDDEN
 62
1
 10
1.3454096E+002
 20
2.9655767E+001
 11
1.3454096E+002
 21
3.5655767E+001
  0
LINE
  8
105
  6
HIDDEN
 62
1
 10
1.3454096E+002
 20
3.5655767E+001
 11
1.3104096E+002
 21
3.5655767E+001
  0
LINE
  8
105
  6
HIDDEN
 62
1
 10
1.3104096E+002
 20
3.5655767E+001
 11
1.3104096E+002
 21
4.4155767E+001
  0
LINE
  8
105
  6
HIDDEN
 62
1
 10
1.3104096E+002
 20
4.4155767E+001
 11
1.3588627E+002
 21
4.4155767E+001
  0
ARC
  8
105
  6
HIDDEN
 62
1
 10
1.3588628E+002
 20
4.2155774E+001
 40
1.9999932
 50
2.9999887E+001
 51
9.0000262E+001
  0
LINE
  8
105
  6
HIDDEN
 62
1
 10
1.3761833E+002
 20
4.3155767E+001
 11
1.3962461E+002
 21
3.9680761E+001
  0
ARC
  8
105
  6
HIDDEN
 62
1
 10
1.4049066E+002
 20
4.0180768E+001
 40
1.0000228
 50
2.0999974E+002
 51
2.6999883E+002
  0
LINE
  8
105
  6
HIDDEN
 62
1
 10
1.4049064E+002
 20
3.9180745E+001
 11
1.4104096E+002
 21
3.9180745E+001
  0
LINE
  8
105
  6
HIDDEN
 62
1
 10
1.4104096E+002
 20
3.9180745E+001
 11
1.4104096E+002
 21
4.2180761E+001
  0
LINE
  8
105
  6
HIDDEN
 62
1
 10
1.4104096E+002
 20
4.2180761E+001
 11
1.5504096E+002
 21
4.2180761E+001
  0
LINE
  8
105
  6
HIDDEN
 62
1
 10
1.5504096E+002
 20
4.2180761E+001
 11
1.5504096E+002
 21
3.9180761E+001
  0
LINE
  8
105
  6
HIDDEN
 62
1
 10
1.5504096E+002
 20
3.9180761E+001
 11
1.5556361E+002
 21
3.9180761E+001
  0
ARC
  8
105
  6
HIDDEN
 62
1
 10
1.5556358E+002
 20
4.0180818E+001
 40
1.0000579
 50
2.7000177E+002
 51
3.2999809E+002
  0
LINE
  8
105
  6
HIDDEN
 62
1
 10
1.5642963E+002
 20
3.9680761E+001
 11
1.5843595E+002
 21
4.3155767E+001
  0
ARC
  8
105
  6
HIDDEN
 62
1
 10
1.6016799E+002
 20
4.2155782E+001
 40
1.9999847
 50
9.0000485E+001
 51
1.5000025E+002
  0
LINE
  8
105
  6
HIDDEN
 62
1
 10
1.6016798E+002
 20
4.4155767E+001
 11
1.8291395E+002
 21
4.4155767E+001
  0
ARC
  8
105
  6
HIDDEN
 62
1
 10
1.8291394E+002
 20
4.2155745E+001
 40
2.0000215
 50
3.0000355E+001
 51
8.9999765E+001
  0
LINE
  8
105
  6
HIDDEN
 62
1
 10
1.84646E+002
 20
4.3155767E+001
 11
1.8665229E+002
 21
3.9680761E+001
  0
ARC
  8
105
  6
HIDDEN
 62
1
 10
1.8751834E+002
 20
4.0180765E+001
 40
1.0000196
 50
2.0999964E+002
 51
2.6999899E+002
  0
LINE
  8
105
  6
HIDDEN
 62
1
 10
1.8751832E+002
 20
3.9180745E+001
 11
1.8804096E+002
 21
3.9180745E+001
  0
LINE
  8
105
  6
HIDDEN
 62
1
 10
1.8804096E+002
 20
3.9180745E+001
 11
1.8804096E+002
 21
4.2180761E+001
  0
LINE
  8
105
  6
HIDDEN
 62
1
 10
1.8804096E+002
 20
4.2180761E+001
 11
2.0204096E+002
 21
4.2180761E+001
  0
LINE
  8
105
  6
HIDDEN
 62
1
 10
2.0204096E+002
 20
4.2180761E+001
 11
2.0204096E+002
 21
2.3130773E+001
  0
LINE
  8
105
  6
HIDDEN
 62
1
 10
2.0204096E+002
 20
2.3130773E+001
 11
1.8804096E+002
 21
2.3130773E+001
  0
LINE
  8
105
  6
HIDDEN
 62
1
 10
1.8804096E+002
 20
2.3130773E+001
 11
1.8804096E+002
 21
2.6130773E+001
  0
LINE
  8
105
  6
HIDDEN
 62
1
 10
1.8804096E+002
 20
2.6130773E+001
 11
1.8751832E+002
 21
2.6130773E+001
  0
ARC
  8
105
  6
HIDDEN
 62
1
 10
1.8751831E+002
 20
2.5130775E+001
 40
9.999975E-001
 50
8.9999769E+001
 51
1.5000008E+002
  0
LINE
  8
105
  6
HIDDEN
 62
1
 10
1.8665229E+002
 20
2.5630773E+001
 11
1.84646E+002
 21
2.2155767E+001
  0
ARC
  8
105
  6
HIDDEN
 62
1
 10
1.8291396E+002
 20
2.3155784E+001
 40
2.0000018
 50
2.6999966E+002
 51
3.2999947E+002
  0
LINE
  8
105
  6
HIDDEN
 62
1
 10
1.8291395E+002
 20
2.1155782E+001
 11
1.6016798E+002
 21
2.1155782E+001
  0
ARC
  8
105
  6
HIDDEN
 62
1
 10
1.6016799E+002
 20
2.3155776E+001
 40
1.9999942
 50
2.1000041E+002
 51
2.6999961E+002
  0
LINE
  8
105
  6
HIDDEN
 62
1
 10
1.5843595E+002
 20
2.2155767E+001
 11
1.5642963E+002
 21
2.5630773E+001
  0
ARC
  8
105
  6
HIDDEN
 62
1
 10
1.5556361E+002
 20
2.5130745E+001
 40
1.0000128
 50
3.0001435E+001
 51
9.0000232E+001
  0
LINE
  8
105
  6
HIDDEN
 62
1
 10
1.5556361E+002
 20
2.6130758E+001
 11
1.5504096E+002
 21
2.6130758E+001
  0
LINE
  8
105
  6
HIDDEN
 62
1
 10
1.5504096E+002
 20
2.6130758E+001
 11
1.5504096E+002
 21
2.3130773E+001
  0
LINE
  8
105
  6
HIDDEN
 62
1
 10
1.5504096E+002
 20
2.3130773E+001
 11
1.4104096E+002
 21
2.3130773E+001
  0
LINE
  8
105
  6
HIDDEN
 62
1
 10
1.4104096E+002
 20
2.3130773E+001
 11
1.4104096E+002
 21
2.6130773E+001
  0
LINE
  8
105
  6
HIDDEN
 62
1
 10
1.4104096E+002
 20
2.6130773E+001
 11
1.4049064E+002
 21
2.6130773E+001
  0
LINE
  8
105
  6
HIDDEN
 62
1
 10
1.4104096E+002
 20
3.9180761E+001
 11
1.5504096E+002
 21
3.9180761E+001
  0
LINE
  8
105
  6
HIDDEN
 62
1
 10
1.4104096E+002
 20
2.6130773E+001
 11
1.5504096E+002
 21
2.6130773E+001
  0
LINE
  8
105
  6
HIDDEN
 62
1
 10
1.8804096E+002
 20
3.9180761E+001
 11
2.0204096E+002
 21
3.9180761E+001
  0
LINE
  8
105
  6
HIDDEN
 62
1
 10
1.8804096E+002
 20
2.6130773E+001
 11
2.0204096E+002
 21
2.6130773E+001
  0
CIRCLE
  8
104
  6
CONTINUOUS
 62
40
 10
1.7054096E+002
 20
3.2655767E+001
 40
9.5
  0
CIRCLE
  8
104
  6
CONTINUOUS
 62
40
 10
1.7054096E+002
 20
3.2655767E+001
 40
7.5
  0
LINE
  8
106
  6
CENTERLINE
 62
1
 10
6.7595986E+001
 20
9.0443731E+001
 11
6.7595986E+001
 21
8.2129277E+001
  0
LINE
  8
106
  6
CENTERLINE
 62
1
 10
7.9595986E+001
 20
9.063709E+001
 11
7.9595986E+001
 21
8.2129277E+001
  0
LINE
  8
104
  6
CONTINUOUS
 62
40
 10
6.1095986E+001
 20
8.8372441E+001
 11
8.6095986E+001
 21
8.8372441E+001
  0
LINE
  8
104
  6
CONTINUOUS
 62
40
 10
8.6095986E+001
 20
8.8372441E+001
 11
8.6095986E+001
 21
8.3372441E+001
  0
LINE
  8
104
  6
CONTINUOUS
 62
40
 10
8.6095986E+001
 20
8.3372441E+001
 11
6.1095986E+001
 21
8.3372441E+001
  0
LINE
  8
104
  6
CONTINUOUS
 62
40
 10
6.1095986E+001
 20
8.3372441E+001
 11
6.1095986E+001
 21
8.8372441E+001
  0
LINE
  8
104
  6
CONTINUOUS
 62
40
 10
6.5095986E+001
 20
8.3372441E+001
 11
6.5095986E+001
 21
8.0872441E+001
  0
LINE
  8
104
  6
CONTINUOUS
 62
40
 10
6.5095986E+001
 20
8.0872441E+001
 11
6.9095986E+001
 21
8.0872441E+001
  0
LINE
  8
104
  6
CONTINUOUS
 62
40
 10
6.9095986E+001
 20
8.0872441E+001
 11
6.9095986E+001
 21
8.3372441E+001
  0
LINE
  8
104
  6
CONTINUOUS
 62
40
 10
7.8095986E+001
 20
8.3372441E+001
 11
7.8095986E+001
 21
8.0872441E+001
  0
LINE
  8
104
  6
CONTINUOUS
 62
40
 10
7.8095986E+001
 20
8.0872441E+001
 11
8.2095986E+001
 21
8.0872441E+001
  0
LINE
  8
104
  6
CONTINUOUS
 62
40
 10
8.2095986E+001
 20
8.0872441E+001
 11
8.2095986E+001
 21
8.3372441E+001
  0
LINE
  8
104
  6
CONTINUOUS
 62
40
 10
7.6443154E+001
 20
7.9433812E+001
 11
6.9334603E+001
 21
7.2325277E+001
  0
LINE
  8
104
  6
CONTINUOUS
 62
40
 10
7.0748849E+001
 20
7.0911062E+001
 11
7.7857369E+001
 21
7.8019597E+001
  0
LINE
  8
106
  6
CENTERLINE
 62
1
 10
6.6774209E+001
 20
7.5172444E+001
 11
8.0502724E+001
 21
7.5172444E+001
  0
LINE
  8
104
  6
CONTINUOUS
 62
40
 10
7.0595986E+001
 20
6.9372441E+001
 11
7.0595986E+001
 21
7.1017247E+001
  0
LINE
  8
104
  6
CONTINUOUS
 62
40
 10
7.0595986E+001
 20
7.9327642E+001
 11
7.0595986E+001
 21
8.3372441E+001
  0
LINE
  8
104
  6
CONTINUOUS
 62
40
 10
7.6595986E+001
 20
8.3372441E+001
 11
7.6595986E+001
 21
7.9327642E+001
  0
LINE
  8
104
  6
CONTINUOUS
 62
40
 10
7.6595986E+001
 20
7.1017247E+001
 11
7.6595986E+001
 21
6.9372441E+001
  0
LINE
  8
104
  6
CONTINUOUS
 62
40
 10
7.0595986E+001
 20
6.9372441E+001
 11
7.6595986E+001
 21
6.9372441E+001
  0
CIRCLE
  8
104
  6
CONTINUOUS
 62
40
 10
7.3595986E+001
 20
7.5172444E+001
 40
5.125
  0
LINE
  8
104
  6
CONTINUOUS
 62
40
 10
6.2095986E+001
 20
6.6372426E+001
 11
8.5095986E+001
 21
6.6372426E+001
  0
LINE
  8
104
  6
CONTINUOUS
 62
40
 10
8.5095986E+001
 20
6.6372426E+001
 11
8.5095986E+001
 21
8.3372441E+001
  0
LINE
  8
104
  6
CONTINUOUS
 62
40
 10
8.5095986E+001
 20
8.3372441E+001
 11
6.2095986E+001
 21
8.3372441E+001
  0
LINE
  8
104
  6
CONTINUOUS
 62
40
 10
6.2095986E+001
 20
8.3372441E+001
 11
6.2095986E+001
 21
6.6372426E+001
  0
LINE
  8
104
  6
CONTINUOUS
 62
40
 10
7.0595986E+001
 20
6.9372411E+001
 11
7.0595986E+001
 21
6.6372426E+001
  0
LINE
  8
104
  6
CONTINUOUS
 62
40
 10
7.6595986E+001
 20
6.9372411E+001
 11
7.6595986E+001
 21
6.6372426E+001
  0
LINE
  8
106
  6
CENTERLINE
 62
1
 10
7.3595986E+001
 20
9.1176152E+001
 11
7.3595986E+001
 21
6.4422704E+001
  0
INSERT
  2
*XH37
  8
108
 10
1.3802924E+002
 20
8.57901E+001
  0
LINE
  8
104
  6
CONTINUOUS
 62
40
 10
1.2651804E+002
 20
8.8372457E+001
 11
1.2651804E+002
 21
8.5872457E+001
  0
LINE
  8
104
  6
CONTINUOUS
 62
40
 10
1.2651804E+002
 20
8.5872457E+001
 11
1.3051804E+002
 21
8.5872457E+001
  0
LINE
  8
104
  6
CONTINUOUS
 62
40
 10
1.3051804E+002
 20
8.5872457E+001
 11
1.3051804E+002
 21
8.8372457E+001
  0
LINE
  8
104
  6
CONTINUOUS
 62
40
 10
1.1201804E+002
 20
8.8372457E+001
 11
1.1501804E+002
 21
8.8372457E+001
  0
LINE
  8
104
  6
CONTINUOUS
 62
40
 10
1.1501804E+002
 20
8.8372457E+001
 11
1.1501804E+002
 21
8.8122457E+001
  0
LINE
  8
104
  6
CONTINUOUS
 62
40
 10
1.1501804E+002
 20
8.8122457E+001
 11
1.1736805E+002
 21
8.5772451E+001
  0
LINE
  8
104
  6
CONTINUOUS
 62
40
 10
1.1736805E+002
 20
8.5772451E+001
 11
1.1736805E+002
 21
8.3372457E+001
  0
LINE
  8
104
  6
CONTINUOUS
 62
40
 10
1.1736805E+002
 20
8.3372457E+001
 11
1.1201804E+002
 21
8.3372457E+001
  0
LINE
  8
104
  6
CONTINUOUS
 62
40
 10
1.1201804E+002
 20
8.3372457E+001
 11
1.1201804E+002
 21
8.8372457E+001
  0
INSERT
  2
*XH38
  8
108
 10
1.1407459E+002
 20
8.611279E+001
  0
LINE
  8
104
  6
CONTINUOUS
 62
40
 10
1.2501804E+002
 20
8.8372457E+001
 11
1.2501804E+002
 21
8.8122457E+001
  0
LINE
  8
104
  6
CONTINUOUS
 62
40
 10
1.2501804E+002
 20
8.8122457E+001
 11
1.2266804E+002
 21
8.5772451E+001
  0
LINE
  8
104
  6
CONTINUOUS
 62
40
 10
1.2266804E+002
 20
8.5772451E+001
 11
1.2266804E+002
 21
8.3372457E+001
  0
LINE
  8
104
  6
CONTINUOUS
 62
40
 10
1.2266804E+002
 20
8.3372457E+001
 11
1.2651804E+002
 21
8.3372457E+001
  0
LINE
  8
104
  6
CONTINUOUS
 62
40
 10
1.2651804E+002
 20
8.3372457E+001
 11
1.2651804E+002
 21
8.0872457E+001
  0
LINE
  8
104
  6
CONTINUOUS
 62
40
 10
1.2651804E+002
 20
8.0872457E+001
 11
1.3051804E+002
 21
8.0872457E+001
  0
LINE
  8
104
  6
CONTINUOUS
 62
40
 10
1.3051804E+002
 20
8.0872457E+001
 11
1.3051804E+002
 21
8.3372457E+001
  0
LINE
  8
104
  6
CONTINUOUS
 62
40
 10
1.3051804E+002
 20
8.3372457E+001
 11
1.5551804E+002
 21
8.3372457E+001
  0
LINE
  8
104
  6
CONTINUOUS
 62
40
 10
1.5551804E+002
 20
8.3372457E+001
 11
1.5551804E+002
 21
8.8372457E+001
  0
LINE
  8
104
  6
CONTINUOUS
 62
40
 10
1.5551804E+002
 20
8.8372457E+001
 11
1.2501804E+002
 21
8.8372457E+001
  0
LINE
  8
104
  6
CONTINUOUS
 62
40
 10
1.8451804E+002
 20
8.8372457E+001
 11
2.2501804E+002
 21
8.8372457E+001
  0
LINE
  8
104
  6
CONTINUOUS
 62
40
 10
2.2501804E+002
 20
8.8372457E+001
 11
2.2501804E+002
 21
8.8122457E+001
  0
LINE
  8
104
  6
CONTINUOUS
 62
40
 10
2.2501804E+002
 20
8.8122457E+001
 11
2.2736805E+002
 21
8.5772451E+001
  0
LINE
  8
104
  6
CONTINUOUS
 62
40
 10
2.2736805E+002
 20
8.5772451E+001
 11
2.2736805E+002
 21
8.3372457E+001
  0
LINE
  8
104
  6
CONTINUOUS
 62
40
 10
2.2736805E+002
 20
8.3372457E+001
 11
1.8451804E+002
 21
8.3372457E+001
  0
LINE
  8
104
  6
CONTINUOUS
 62
40
 10
1.8451804E+002
 20
8.3372457E+001
 11
1.8451804E+002
 21
8.8372457E+001
  0
INSERT
  2
*XH39
  8
108
 10
2.0510477E+002
 20
8.5926188E+001
  0
LINE
  8
104
  6
CONTINUOUS
 62
40
 10
2.3701804E+002
 20
8.8372457E+001
 11
2.3501804E+002
 21
8.8372457E+001
  0
LINE
  8
104
  6
CONTINUOUS
 62
40
 10
2.3501804E+002
 20
8.8372457E+001
 11
2.3501804E+002
 21
8.8122457E+001
  0
LINE
  8
104
  6
CONTINUOUS
 62
40
 10
2.3501804E+002
 20
8.8122457E+001
 11
2.3266804E+002
 21
8.5772451E+001
  0
LINE
  8
104
  6
CONTINUOUS
 62
40
 10
2.3266804E+002
 20
8.5772451E+001
 11
2.3266804E+002
 21
8.3372457E+001
  0
LINE
  8
104
  6
CONTINUOUS
 62
40
 10
2.3266804E+002
 20
8.3372457E+001
 11
2.3701804E+002
 21
8.3372457E+001
  0
LINE
  8
104
  6
CONTINUOUS
 62
40
 10
2.3701804E+002
 20
8.3372457E+001
 11
2.3701804E+002
 21
8.8372457E+001
  0
INSERT
  2
*XH40
  8
108
 10
2.3579907E+002
 20
8.4800687E+001
  0
LINE
  8
104
  6
CONTINUOUS
 62
40
 10
1.5551804E+002
 20
8.8372457E+001
 11
1.8451804E+002
 21
8.8372457E+001
  0
LINE
  8
104
  6
CONTINUOUS
 62
40
 10
1.8451804E+002
 20
8.3372457E+001
 11
1.7951804E+002
 21
8.3372457E+001
  0
LINE
  8
104
  6
CONTINUOUS
 62
40
 10
1.6051804E+002
 20
8.3372457E+001
 11
1.5551804E+002
 21
8.3372457E+001
  0
LINE
  8
104
  6
CONTINUOUS
 62
40
 10
1.1501804E+002
 20
8.8372457E+001
 11
1.2501804E+002
 21
8.8372457E+001
  0
LINE
  8
104
  6
CONTINUOUS
 62
40
 10
1.1736805E+002
 20
8.5772451E+001
 11
1.2266804E+002
 21
8.5772451E+001
  0
LINE
  8
104
  6
CONTINUOUS
 62
40
 10
1.1736805E+002
 20
8.3372457E+001
 11
1.2266804E+002
 21
8.3372457E+001
  0
LINE
  8
104
  6
CONTINUOUS
 62
40
 10
2.2501804E+002
 20
8.8372457E+001
 11
2.3501804E+002
 21
8.8372457E+001
  0
LINE
  8
104
  6
CONTINUOUS
 62
40
 10
2.2736805E+002
 20
8.5772451E+001
 11
2.3266804E+002
 21
8.5772451E+001
  0
LINE
  8
104
  6
CONTINUOUS
 62
40
 10
2.2736805E+002
 20
8.3372457E+001
 11
2.3266804E+002
 21
8.3372457E+001
  0
LINE
  8
99
  6
CONTINUOUS
 62
1
 10
1.1501804E+002
 20
8.8122457E+001
 11
1.2501804E+002
 21
8.8122457E+001
  0
LINE
  8
99
  6
CONTINUOUS
 62
1
 10
2.2501804E+002
 20
8.8122457E+001
 11
2.3501804E+002
 21
8.8122457E+001
  0
LINE
  8
106
  6
CENTERLINE
 62
1
 10
1.7054099E+002
 20
9.1261556E+001
 11
1.7054099E+002
 21
6.4821645E+001
  0
LINE
  8
106
  6
CENTERLINE
 62
1
 10
1.2001804E+002
 20
9.0684194E+001
 11
1.2001804E+002
 21
8.13308E+001
  0
LINE
  8
106
  6
CENTERLINE
 62
1
 10
2.3001804E+002
 20
9.0568715E+001
 11
2.3001804E+002
 21
8.1561757E+001
  0
LINE
  8
104
  6
CONTINUOUS
 62
40
 10
2.0151804E+002
 20
6.9372457E+001
 11
2.0151804E+002
 21
8.3372457E+001
  0
INSERT
  2
*XH41
  8
108
 10
1.6900228E+002
 20
6.7873149E+001
  0
LINE
  8
104
  6
CONTINUOUS
 62
40
 10
1.3651804E+002
 20
6.9372457E+001
 11
1.3651804E+002
 21
6.6372457E+001
  0
LINE
  8
104
  6
CONTINUOUS
 62
40
 10
1.3051804E+002
 20
8.3372457E+001
 11
1.3051804E+002
 21
7.0372457E+001
  0
ARC
  8
104
  6
CONTINUOUS
 62
40
 10
1.3451805E+002
 20
7.0372461E+001
 40
4.0000039
 50
1.8000006E+002
 51
2.6999994E+002
  0
LINE
  8
104
  6
CONTINUOUS
 62
40
 10
1.3451804E+002
 20
6.6372457E+001
 11
2.0151804E+002
 21
6.6372457E+001
  0
LINE
  8
104
  6
CONTINUOUS
 62
40
 10
2.0151804E+002
 20
6.6372457E+001
 11
2.0151804E+002
 21
6.9372457E+001
  0
LINE
  8
104
  6
CONTINUOUS
 62
40
 10
1.8751804E+002
 20
6.9372457E+001
 11
1.5451804E+002
 21
6.9372457E+001
  0
LINE
  8
104
  6
CONTINUOUS
 62
40
 10
1.4051804E+002
 20
6.9372457E+001
 11
1.3451804E+002
 21
6.9372457E+001
  0
ARC
  8
104
  6
CONTINUOUS
 62
40
 10
1.3451803E+002
 20
7.0372468E+001
 40
1.0000117
 50
1.8000067E+002
 51
2.7000105E+002
  0
LINE
  8
104
  6
CONTINUOUS
 62
40
 10
1.3351801E+002
 20
7.0372457E+001
 11
1.3351801E+002
 21
7.242246E+001
  0
LINE
  8
104
  6
CONTINUOUS
 62
40
 10
1.3351801E+002
 20
7.792246E+001
 11
1.3351801E+002
 21
8.3372457E+001
  0
LINE
  8
104
  6
CONTINUOUS
 62
40
 10
1.3351801E+002
 20
8.3372457E+001
 11
1.3051804E+002
 21
8.3372457E+001
  0
LINE
  8
104
  6
CONTINUOUS
 62
40
 10
1.4051804E+002
 20
6.9372457E+001
 11
1.5451804E+002
 21
6.9372457E+001
  0
LINE
  8
104
  6
CONTINUOUS
 62
40
 10
1.8751804E+002
 20
6.9372457E+001
 11
2.0151804E+002
 21
6.9372457E+001
  0
LINE
  8
99
  6
CONTINUOUS
 62
1
 10
1.5051804E+002
 20
7.8206441E+001
 11
1.3951804E+002
 21
7.8206441E+001
  0
LINE
  8
99
  6
CONTINUOUS
 62
1
 10
1.5051804E+002
 20
7.2138479E+001
 11
1.3951804E+002
 21
7.2138479E+001
  0
ARC
  8
104
  6
CONTINUOUS
 62
40
 10
1.3808831E+002
 20
7.9671575E+001
 40
1.5702699
 50
1.799677E+002
 51
2.5865766E+002
  0
ARC
  8
104
  6
CONTINUOUS
 62
40
 10
1.3808345E+002
 20
7.964725E+001
 40
1.5454631
 50
2.5865716E+002
 51
3.3816562E+002
  0
LINE
  8
104
  6
CONTINUOUS
 62
40
 10
1.3951804E+002
 20
7.9072454E+001
 11
1.4901804E+002
 21
7.9072454E+001
  0
LINE
  8
104
  6
CONTINUOUS
 62
40
 10
1.4901804E+002
 20
7.9072454E+001
 11
1.5051804E+002
 21
7.8206441E+001
  0
LINE
  8
104
  6
CONTINUOUS
 62
40
 10
1.5051804E+002
 20
7.8206441E+001
 11
1.5051804E+002
 21
7.2138479E+001
  0
LINE
  8
104
  6
CONTINUOUS
 62
40
 10
1.5051804E+002
 20
7.2138479E+001
 11
1.4901804E+002
 21
7.1272466E+001
  0
LINE
  8
104
  6
CONTINUOUS
 62
40
 10
1.4901804E+002
 20
7.1272466E+001
 11
1.3951804E+002
 21
7.1272466E+001
  0
ARC
  8
104
  6
CONTINUOUS
 62
40
 10
1.3808345E+002
 20
7.069767E+001
 40
1.5454631
 50
2.1834365E+001
 51
1.0134283E+002
  0
ARC
  8
104
  6
CONTINUOUS
 62
40
 10
1.3808831E+002
 20
7.0673345E+001
 40
1.5702701
 50
1.0134235E+002
 51
1.800323E+002
  0
LINE
  8
104
  6
CONTINUOUS
 62
40
 10
1.4901804E+002
 20
7.9072454E+001
 11
1.4901804E+002
 21
7.1272466E+001
  0
LINE
  8
104
  6
CONTINUOUS
 62
40
 10
1.3951804E+002
 20
7.9072454E+001
 11
1.3951804E+002
 21
7.1272466E+001
  0
LINE
  8
104
  6
CONTINUOUS
 62
40
 10
1.3051804E+002
 20
7.004746E+001
 11
1.2701804E+002
 21
7.004746E+001
  0
LINE
  8
104
  6
CONTINUOUS
 62
40
 10
1.2701804E+002
 20
7.004746E+001
 11
1.2701804E+002
 21
7.417246E+001
  0
LINE
  8
104
  6
CONTINUOUS
 62
40
 10
1.2701804E+002
 20
7.417246E+001
 11
1.2901804E+002
 21
7.417246E+001
  0
LINE
  8
104
  6
CONTINUOUS
 62
40
 10
1.2901804E+002
 20
7.417246E+001
 11
1.2901804E+002
 21
7.617246E+001
  0
LINE
  8
104
  6
CONTINUOUS
 62
40
 10
1.2901804E+002
 20
7.617246E+001
 11
1.2701804E+002
 21
7.617246E+001
  0
LINE
  8
104
  6
CONTINUOUS
 62
40
 10
1.2701804E+002
 20
7.617246E+001
 11
1.2701804E+002
 21
8.029746E+001
  0
LINE
  8
104
  6
CONTINUOUS
 62
40
 10
1.2701804E+002
 20
8.029746E+001
 11
1.3051804E+002
 21
8.029746E+001
  0
LINE
  8
104
  6
CONTINUOUS
 62
40
 10
1.3051804E+002
 20
8.029746E+001
 11
1.3051804E+002
 21
7.792246E+001
  0
LINE
  8
104
  6
CONTINUOUS
 62
40
 10
1.3051804E+002
 20
7.792246E+001
 11
1.3401804E+002
 21
7.792246E+001
  0
LINE
  8
104
  6
CONTINUOUS
 62
40
 10
1.3401804E+002
 20
7.792246E+001
 11
1.3401804E+002
 21
8.029746E+001
  0
LINE
  8
104
  6
CONTINUOUS
 62
40
 10
1.3401804E+002
 20
8.029746E+001
 11
1.3651804E+002
 21
8.029746E+001
  0
LINE
  8
104
  6
CONTINUOUS
 62
40
 10
1.3651804E+002
 20
8.029746E+001
 11
1.3651804E+002
 21
7.004746E+001
  0
LINE
  8
104
  6
CONTINUOUS
 62
40
 10
1.3651804E+002
 20
7.004746E+001
 11
1.3401804E+002
 21
7.004746E+001
  0
LINE
  8
104
  6
CONTINUOUS
 62
40
 10
1.3401804E+002
 20
7.004746E+001
 11
1.3401804E+002
 21
7.242246E+001
  0
LINE
  8
104
  6
CONTINUOUS
 62
40
 10
1.3401804E+002
 20
7.242246E+001
 11
1.3051804E+002
 21
7.242246E+001
  0
LINE
  8
104
  6
CONTINUOUS
 62
40
 10
1.3051804E+002
 20
7.242246E+001
 11
1.3051804E+002
 21
7.004746E+001
  0
LINE
  8
104
  6
CONTINUOUS
 62
40
 10
1.3051804E+002
 20
7.792246E+001
 11
1.3051804E+002
 21
7.242246E+001
  0
LINE
  8
104
  6
CONTINUOUS
 62
40
 10
1.3401804E+002
 20
7.792246E+001
 11
1.3401804E+002
 21
7.242246E+001
  0
LINE
  8
99
  6
CONTINUOUS
 62
1
 10
1.6218308E+002
 20
7.6372457E+001
 11
1.6301801E+002
 21
7.5537526E+001
  0
INSERT
  2
*XH42
  8
108
 10
1.9014206E+002
 20
7.6697758E+001
  0
INSERT
  2
*XH43
  8
108
 10
1.516639E+002
 20
7.6116687E+001
  0
LINE
  8
104
  6
CONTINUOUS
 62
40
 10
1.6301801E+002
 20
7.6372457E+001
 11
1.6301801E+002
 21
6.9572454E+001
  0
LINE
  8
104
  6
CONTINUOUS
 62
40
 10
1.7801801E+002
 20
7.6372457E+001
 11
1.7801801E+002
 21
6.9572454E+001
  0
LINE
  8
99
  6
CONTINUOUS
 62
1
 10
1.5651801E+002
 20
7.917246E+001
 11
1.4051801E+002
 21
7.917246E+001
  0
LINE
  8
99
  6
CONTINUOUS
 62
1
 10
1.5651801E+002
 20
7.117246E+001
 11
1.4051801E+002
 21
7.117246E+001
  0
LINE
  8
104
  6
CONTINUOUS
 62
40
 10
1.5651801E+002
 20
7.917246E+001
 11
1.5651801E+002
 21
7.117246E+001
  0
LINE
  8
104
  6
CONTINUOUS
 62
40
 10
1.5051804E+002
 20
7.217246E+001
 11
1.5951801E+002
 21
7.217246E+001
  0
LINE
  8
104
  6
CONTINUOUS
 62
40
 10
1.5951801E+002
 20
7.217246E+001
 11
1.5951801E+002
 21
7.817246E+001
  0
LINE
  8
104
  6
CONTINUOUS
 62
40
 10
1.5951801E+002
 20
7.817246E+001
 11
1.5051804E+002
 21
7.817246E+001
  0
LINE
  8
104
  6
CONTINUOUS
 62
40
 10
1.5951801E+002
 20
7.817246E+001
 11
1.6111314E+002
 21
7.517246E+001
  0
LINE
  8
104
  6
CONTINUOUS
 62
40
 10
1.6111314E+002
 20
7.517246E+001
 11
1.5951801E+002
 21
7.217246E+001
  0
LINE
  8
106
  6
CENTERLINE
 62
1
 10
1.2638767E+002
 20
7.517246E+001
 11
1.6277558E+002
 21
7.517246E+001
  0
LINE
  8
104
  6
CONTINUOUS
 62
40
 10
1.6101801E+002
 20
8.3372457E+001
 11
1.4051801E+002
 21
8.3372457E+001
  0
LINE
  8
104
  6
CONTINUOUS
 62
40
 10
1.4051801E+002
 20
8.3372457E+001
 11
1.4051801E+002
 21
7.9072454E+001
  0
LINE
  8
104
  6
CONTINUOUS
 62
40
 10
1.4051801E+002
 20
7.1272466E+001
 11
1.4051801E+002
 21
6.9572454E+001
  0
LINE
  8
104
  6
CONTINUOUS
 62
40
 10
1.4051801E+002
 20
6.9572454E+001
 11
2.0051801E+002
 21
6.9572454E+001
  0
LINE
  8
104
  6
CONTINUOUS
 62
40
 10
2.0051801E+002
 20
6.9572454E+001
 11
2.0051801E+002
 21
8.3372457E+001
  0
LINE
  8
104
  6
CONTINUOUS
 62
40
 10
2.0051801E+002
 20
8.3372457E+001
 11
1.8001801E+002
 21
8.3372457E+001
  0
LINE
  8
106
  6
CENTERLINE
 62
1
 10
1.6304096E+002
 20
8.5793904E+001
 11
1.6304096E+002
 21
7.9102514E+001
  0
LINE
  8
106
  6
CENTERLINE
 62
1
 10
1.7804096E+002
 20
8.5739721E+001
 11
1.7804096E+002
 21
7.8912877E+001
  0
LINE
  8
104
  6
CONTINUOUS
 62
40
 10
1.6365858E+002
 20
7.7883443E+001
 11
1.6365858E+002
 21
7.9043264E+001
  0
LINE
  8
104
  6
CONTINUOUS
 62
40
 10
1.6365858E+002
 20
7.9043264E+001
 11
1.6311677E+002
 21
7.9043264E+001
  0
LINE
  8
104
  6
CONTINUOUS
 62
40
 10
1.6311677E+002
 20
7.9043264E+001
 11
1.6311677E+002
 21
7.8366017E+001
  0
LINE
  8
104
  6
CONTINUOUS
 62
40
 10
1.6311677E+002
 20
7.8366017E+001
 11
1.6227695E+002
 21
7.8366017E+001
  0
LINE
  8
104
  6
CONTINUOUS
 62
40
 10
1.6227695E+002
 20
7.8366017E+001
 11
1.6227695E+002
 21
7.7883443E+001
  0
LINE
  8
104
  6
CONTINUOUS
 62
40
 10
1.6227695E+002
 20
7.7883443E+001
 11
1.6365858E+002
 21
7.7883443E+001
  0
INSERT
  2
*XH44
  8
108
 10
1.6307949E+002
 20
7.8351651E+001
  0
LINE
  8
104
  6
CONTINUOUS
 62
40
 10
1.7742063E+002
 20
7.7872457E+001
 11
1.7742063E+002
 21
7.9032277E+001
  0
LINE
  8
104
  6
CONTINUOUS
 62
40
 10
1.7742063E+002
 20
7.9032277E+001
 11
1.7796244E+002
 21
7.9032277E+001
  0
LINE
  8
104
  6
CONTINUOUS
 62
40
 10
1.7796244E+002
 20
7.9032277E+001
 11
1.7796244E+002
 21
7.8355016E+001
  0
LINE
  8
104
  6
CONTINUOUS
 62
40
 10
1.7796244E+002
 20
7.8355016E+001
 11
1.7880225E+002
 21
7.8355016E+001
  0
LINE
  8
104
  6
CONTINUOUS
 62
40
 10
1.7880225E+002
 20
7.8355016E+001
 11
1.7880225E+002
 21
7.7872457E+001
  0
LINE
  8
104
  6
CONTINUOUS
 62
40
 10
1.7880225E+002
 20
7.7872457E+001
 11
1.7742063E+002
 21
7.7872457E+001
  0
INSERT
  2
*XH45
  8
108
 10
1.7799888E+002
 20
7.8341829E+001
  0
LINE
  8
104
  6
CONTINUOUS
 62
40
 10
1.6365858E+002
 20
8.6877523E+001
 11
1.6365858E+002
 21
8.5717702E+001
  0
LINE
  8
104
  6
CONTINUOUS
 62
40
 10
1.6365858E+002
 20
8.5717702E+001
 11
1.6311677E+002
 21
8.5717702E+001
  0
LINE
  8
104
  6
CONTINUOUS
 62
40
 10
1.6311677E+002
 20
8.5717702E+001
 11
1.6311677E+002
 21
8.6394979E+001
  0
LINE
  8
104
  6
CONTINUOUS
 62
40
 10
1.6311677E+002
 20
8.6394979E+001
 11
1.6227695E+002
 21
8.6394979E+001
  0
LINE
  8
104
  6
CONTINUOUS
 62
40
 10
1.6227695E+002
 20
8.6394979E+001
 11
1.6227695E+002
 21
8.6877523E+001
  0
LINE
  8
104
  6
CONTINUOUS
 62
40
 10
1.6227695E+002
 20
8.6877523E+001
 11
1.6365858E+002
 21
8.6877523E+001
  0
INSERT
  2
*XH46
  8
108
 10
1.6308029E+002
 20
8.6408119E+001
  0
LINE
  8
104
  6
CONTINUOUS
 62
40
 10
1.6204096E+002
 20
8.5380483E+001
 11
1.6404096E+002
 21
8.5380483E+001
  0
LINE
  8
104
  6
CONTINUOUS
 62
40
 10
1.6404096E+002
 20
8.5380483E+001
 11
1.6404096E+002
 21
7.9380483E+001
  0
LINE
  8
104
  6
CONTINUOUS
 62
40
 10
1.6404096E+002
 20
7.9380483E+001
 11
1.6204096E+002
 21
7.9380483E+001
  0
LINE
  8
104
  6
CONTINUOUS
 62
40
 10
1.7904096E+002
 20
8.5380483E+001
 11
1.7704096E+002
 21
8.5380483E+001
  0
LINE
  8
104
  6
CONTINUOUS
 62
40
 10
1.7704096E+002
 20
8.5380483E+001
 11
1.7704096E+002
 21
7.9380483E+001
  0
LINE
  8
104
  6
CONTINUOUS
 62
40
 10
1.7704096E+002
 20
7.9380483E+001
 11
1.7904096E+002
 21
7.9380483E+001
  0
LINE
  8
104
  6
CONTINUOUS
 62
40
 10
1.7742063E+002
 20
8.6872457E+001
 11
1.7742063E+002
 21
8.5712636E+001
  0
LINE
  8
104
  6
CONTINUOUS
 62
40
 10
1.7742063E+002
 20
8.5712636E+001
 11
1.7796244E+002
 21
8.5712636E+001
  0
LINE
  8
104
  6
CONTINUOUS
 62
40
 10
1.7796244E+002
 20
8.5712636E+001
 11
1.7796244E+002
 21
8.6389913E+001
  0
LINE
  8
104
  6
CONTINUOUS
 62
40
 10
1.7796244E+002
 20
8.6389913E+001
 11
1.7880225E+002
 21
8.6389913E+001
  0
LINE
  8
104
  6
CONTINUOUS
 62
40
 10
1.7880225E+002
 20
8.6389913E+001
 11
1.7880225E+002
 21
8.6872457E+001
  0
LINE
  8
104
  6
CONTINUOUS
 62
40
 10
1.7880225E+002
 20
8.6872457E+001
 11
1.7742063E+002
 21
8.6872457E+001
  0
INSERT
  2
*XH47
  8
108
 10
1.7799967E+002
 20
8.6405376E+001
  0
LINE
  8
104
  6
CONTINUOUS
 62
40
 10
1.6348594E+002
 20
7.7372457E+001
 11
1.7754096E+002
 21
7.7372457E+001
  0
LINE
  8
104
  6
CONTINUOUS
 62
40
 10
1.7754096E+002
 20
7.6372457E+001
 11
1.6354096E+002
 21
7.6372457E+001
  0
LINE
  8
104
  6
CONTINUOUS
 62
40
 10
1.7754096E+002
 20
8.8372457E+001
 11
1.6354096E+002
 21
8.8372457E+001
  0
LINE
  8
104
  6
CONTINUOUS
 62
40
 10
1.6354096E+002
 20
8.7372457E+001
 11
1.7754096E+002
 21
8.7372457E+001
  0
LINE
  8
104
  6
CONTINUOUS
 62
40
 10
1.7754096E+002
 20
8.8372457E+001
 11
1.7924097E+002
 21
8.8372457E+001
  0
ARC
  8
104
  6
CONTINUOUS
 62
40
 10
1.7924096E+002
 20
8.7572451E+001
 40
8.0000561E-001
 50
1.2757379E-003
 51
8.9998739E+001
  0
LINE
  8
104
  6
CONTINUOUS
 62
40
 10
1.8004096E+002
 20
8.7572469E+001
 11
1.8004096E+002
 21
7.717246E+001
  0
ARC
  8
104
  6
CONTINUOUS
 62
40
 10
1.7924097E+002
 20
7.7172451E+001
 40
7.9999399E-001
 50
2.7000043E+002
 51
3.6000065E+002
  0
LINE
  8
104
  6
CONTINUOUS
 62
40
 10
1.7924097E+002
 20
7.6372457E+001
 11
1.7754096E+002
 21
7.6372457E+001
  0
LINE
  8
104
  6
CONTINUOUS
 62
40
 10
1.7754096E+002
 20
7.6372457E+001
 11
1.7754096E+002
 21
7.7372457E+001
  0
LINE
  8
104
  6
CONTINUOUS
 62
40
 10
1.7754096E+002
 20
7.7372457E+001
 11
1.7884095E+002
 21
7.7372457E+001
  0
ARC
  8
104
  6
CONTINUOUS
 62
40
 10
1.7884096E+002
 20
7.7572458E+001
 40
2.0000157E-001
 50
2.6999701E+002
 51
3.5999869E+002
  0
LINE
  8
104
  6
CONTINUOUS
 62
40
 10
1.7904096E+002
 20
7.7572454E+001
 11
1.7904096E+002
 21
8.7172475E+001
  0
ARC
  8
104
  6
CONTINUOUS
 62
40
 10
1.7884095E+002
 20
8.7172459E+001
 40
2.000132E-001
 50
4.6395758E-003
 51
8.9999658E+001
  0
LINE
  8
104
  6
CONTINUOUS
 62
40
 10
1.7884095E+002
 20
8.7372472E+001
 11
1.7754096E+002
 21
8.7372472E+001
  0
LINE
  8
104
  6
CONTINUOUS
 62
40
 10
1.7754096E+002
 20
8.7372472E+001
 11
1.7754096E+002
 21
8.8372457E+001
  0
INSERT
  2
*XH48
  8
108
 10
1.7895104E+002
 20
8.2872447E+001
  0
LINE
  8
104
  6
CONTINUOUS
 62
40
 10
1.6354096E+002
 20
8.8372457E+001
 11
1.6354096E+002
 21
8.7372457E+001
  0
LINE
  8
104
  6
CONTINUOUS
 62
40
 10
1.6354096E+002
 20
8.7372457E+001
 11
1.6224097E+002
 21
8.7372457E+001
  0
ARC
  8
104
  6
CONTINUOUS
 62
40
 10
1.6224097E+002
 20
8.7172453E+001
 40
2.0000382E-001
 50
8.9997657E+001
 51
1.7999366E+002
  0
LINE
  8
104
  6
CONTINUOUS
 62
40
 10
1.6204096E+002
 20
8.7172475E+001
 11
1.6204096E+002
 21
7.7572454E+001
  0
ARC
  8
104
  6
CONTINUOUS
 62
40
 10
1.6224096E+002
 20
7.7572449E+001
 40
1.999922E-001
 50
1.7999862E+002
 51
2.7000567E+002
  0
LINE
  8
104
  6
CONTINUOUS
 62
40
 10
1.6224097E+002
 20
7.7372457E+001
 11
1.6354096E+002
 21
7.7372457E+001
  0
LINE
  8
104
  6
CONTINUOUS
 62
40
 10
1.6354096E+002
 20
7.7372457E+001
 11
1.6354096E+002
 21
7.6372457E+001
  0
LINE
  8
104
  6
CONTINUOUS
 62
40
 10
1.6354096E+002
 20
7.6372457E+001
 11
1.6184095E+002
 21
7.6372457E+001
  0
ARC
  8
104
  6
CONTINUOUS
 62
40
 10
1.6184095E+002
 20
7.7172441E+001
 40
7.9998391E-001
 50
1.7999863E+002
 51
2.7000029E+002
  0
LINE
  8
104
  6
CONTINUOUS
 62
40
 10
1.6104096E+002
 20
7.717246E+001
 11
1.6104096E+002
 21
8.7572469E+001
  0
ARC
  8
104
  6
CONTINUOUS
 62
40
 10
1.6184096E+002
 20
8.7572476E+001
 40
7.9999553E-001
 50
9.0000539E+001
 51
1.8000054E+002
  0
LINE
  8
104
  6
CONTINUOUS
 62
40
 10
1.6184095E+002
 20
8.8372472E+001
 11
1.6354096E+002
 21
8.8372457E+001
  0
INSERT
  2
*XH49
  8
108
 10
1.6209517E+002
 20
8.2044322E+001
  0
TEXT
  8
103
  6
CONTINUOUS
 62
40
 10
2.9199146E+002
 20
6.858785E+001
 40
5.0
  1
Unterteil 7463B
 41
6.6E-001
 72
1
 11
2.6724146E+002
 21
6.608785E+001
 73
2
  0
TEXT
  8
103
  6
CONTINUOUS
 62
40
 10
2.9275993E+002
 20
1.5081034E+002
 40
5.0
  1
Unterteil 7461A
 41
6.6E-001
 72
1
 11
2.6800993E+002
 21
1.4831034E+002
 73
2
  0
TEXT
  8
103
  6
CONTINUOUS
 62
40
 10
1.9797175E+002
 20
2.4021505E+002
 40
5.0
  1
%%c13
 41
6.0E-001
 72
1
 11
1.9347175E+002
 21
2.3771505E+002
 73
2
  0
LINE
  8
106
  6
CENTERLINE
 62
1
 10
1.7054096E+002
 20
2.2491787E+002
 11
1.7054096E+002
 21
2.0640305E+002
  0
LINE
  8
106
  6
CENTERLINE
 62
1
 10
1.6404096E+002
 20
2.3102474E+002
 11
1.6404093E+002
 21
2.1006161E+002
  0
LINE
  8
106
  6
CENTERLINE
 62
1
 10
1.6404093E+002
 20
2.1006161E+002
 11
1.6504093E+002
 21
2.0906161E+002
  0
LINE
  8
106
  6
CENTERLINE
 62
1
 10
1.6504093E+002
 20
2.0906161E+002
 11
1.7604093E+002
 21
2.0906161E+002
  0
LINE
  8
106
  6
CENTERLINE
 62
1
 10
1.7604093E+002
 20
2.0906161E+002
 11
1.7704096E+002
 21
2.1006161E+002
  0
LINE
  8
106
  6
CENTERLINE
 62
1
 10
1.7704096E+002
 20
2.1006161E+002
 11
1.7704096E+002
 21
2.3145419E+002
  0
LINE
  8
106
  6
CENTERLINE
 62
1
 10
1.7704096E+002
 20
2.1906161E+002
 11
1.6404093E+002
 21
2.1906162E+002
  0
LINE
  8
106
  6
CENTERLINE
 62
1
 10
1.7704096E+002
 20
2.1006161E+002
 11
1.6404093E+002
 21
2.1006162E+002
  0
ARC
  8
99
  6
CONTINUOUS
 62
1
 10
1.7586911E+002
 20
2.5771553E+002
 40
4.5206199
 50
6.1286352E+001
 51
1.0572421E+002
  0
ARC
  8
99
  6
CONTINUOUS
 62
1
 10
1.7539045E+002
 20
2.5943293E+002
 40
2.7377785
 50
1.058222E+002
 51
1.1137081E+002
  0
ARC
  8
99
  6
CONTINUOUS
 62
1
 10
1.756351E+002
 20
2.5880656E+002
 40
3.4102309
 50
1.1136356E+002
 51
1.1615671E+002
  0
ARC
  8
99
  6
CONTINUOUS
 62
1
 10
1.7627205E+002
 20
2.5754922E+002
 40
4.8196235
 50
1.1636418E+002
 51
1.2398816E+002
  0
ARC
  8
99
  6
CONTINUOUS
 62
1
 10
1.7787265E+002
 20
2.5515525E+002
 40
7.6993682
 50
1.2390529E+002
 51
1.2948394E+002
  0
ARC
  8
99
  6
CONTINUOUS
 62
1
 10
1.806789E+002
 20
2.5172803E+002
 40
1.2128906E+001
 50
1.294208E+002
 51
1.3354061E+002
  0
ARC
  8
99
  6
CONTINUOUS
 62
1
 10
2.2542659E+002
 20
2.0434227E+002
 40
7.730374E+001
 50
1.3338825E+002
 51
1.3789924E+002
  0
ARC
  8
99
  6
CONTINUOUS
 62
1
 10
2.5714643E+002
 20
1.748155E+002
 40
1.2063635E+002
 50
1.3759444E+002
 51
1.386863E+002
  0
ARC
  8
99
  6
CONTINUOUS
 62
1
 10
1.7258489E+002
 20
2.4911083E+002
 40
8.0732881
 50
1.3852839E+002
 51
1.4154251E+002
  0
ARC
  8
99
  6
CONTINUOUS
 62
1
 10
1.6783869E+002
 20
2.5288798E+002
 40
2.007547
 50
1.4171243E+002
 51
1.4543012E+002
  0
ARC
  8
99
  6
CONTINUOUS
 62
1
 10
1.6700723E+002
 20
2.5346467E+002
 40
9.9568051E-001
 50
1.4560747E+002
 51
1.4855543E+002
  0
ARC
  8
99
  6
CONTINUOUS
 62
1
 10
1.6669196E+002
 20
2.5365697E+002
 40
6.2639639E-001
 50
1.4851824E+002
 51
1.5253293E+002
  0
ARC
  8
99
  6
CONTINUOUS
 62
1
 10
1.6903967E+002
 20
2.5243644E+002
 40
3.2724159
 50
1.5253131E+002
 51
1.6258291E+002
  0
ARC
  8
99
  6
CONTINUOUS
 62
1
 10
1.6854229E+002
 20
2.5259292E+002
 40
2.7509956
 50
1.6259192E+002
 51
1.7387546E+002
  0
ARC
  8
99
  6
CONTINUOUS
 62
1
 10
1.6821037E+002
 20
2.526305E+002
 40
2.4169685
 50
1.7392164E+002
 51
1.8622049E+002
  0
ARC
  8
99
  6
CONTINUOUS
 62
1
 10
1.6807054E+002
 20
2.5261849E+002
 40
2.276662
 50
1.8630143E+002
 51
1.9909939E+002
  0
ARC
  8
99
  6
CONTINUOUS
 62
1
 10
1.6812043E+002
 20
2.526396E+002
 40
2.3307149
 50
1.9918828E+002
 51
2.1178806E+002
  0
ARC
  8
99
  6
CONTINUOUS
 62
1
 10
1.6833001E+002
 20
2.5277283E+002
 40
2.5790392
 50
2.1185147E+002
 51
2.2363043E+002
  0
ARC
  8
99
  6
CONTINUOUS
 62
1
 10
1.6864742E+002
 20
2.5307719E+002
 40
3.0187932
 50
2.2365482E+002
 51
2.3426144E+002
  0
ARC
  8
99
  6
CONTINUOUS
 62
1
 10
1.6900871E+002
 20
2.535786E+002
 40
3.6368096
 50
2.3425524E+002
 51
2.4362386E+002
  0
ARC
  8
99
  6
CONTINUOUS
 62
1
 10
1.6971188E+002
 20
2.5310033E+002
 40
3.6201057
 50
2.3016703E+002
 51
2.4236979E+002
  0
ARC
  8
99
  6
CONTINUOUS
 62
1
 10
1.700644E+002
 20
2.5376814E+002
 40
4.375246
 50
2.4233558E+002
 51
2.5308998E+002
  0
ARC
  8
99
  6
CONTINUOUS
 62
1
 10
1.7029702E+002
 20
2.5451935E+002
 40
5.1616423
 50
2.5304497E+002
 51
2.6267622E+002
  0
ARC
  8
99
  6
CONTINUOUS
 62
1
 10
1.7038801E+002
 20
2.5519167E+002
 40
5.8400729
 50
2.6263166E+002
 51
2.715008E+002
  0
LINE
  8
99
  6
CONTINUOUS
 62
1
 10
1.7054096E+002
 20
2.493536E+002
 11
1.724687E+002
 21
2.4916024E+002
  0
ARC
  8
99
  6
CONTINUOUS
 62
1
 10
1.7356653E+002
 20
2.4575069E+002
 40
3.5819374
 50
1.0298475E+002
 51
1.0784799E+002
  0
ARC
  8
99
  6
CONTINUOUS
 62
1
 10
1.7338707E+002
 20
2.4653268E+002
 40
2.7796141
 50
9.7242891E+001
 51
1.030018E+002
  0
ARC
  8
99
  6
CONTINUOUS
 62
1
 10
1.733117E+002
 20
2.4712942E+002
 40
2.1781365
 50
9.0480191E+001
 51
9.7255187E+001
  0
ARC
  8
99
  6
CONTINUOUS
 62
1
 10
1.7330808E+002
 20
2.4755929E+002
 40
1.7482504
 50
8.2636418E+001
 51
9.0479846E+001
  0
ARC
  8
99
  6
CONTINUOUS
 62
1
 10
1.7334389E+002
 20
2.4784081E+002
 40
1.4644701
 50
7.3789036E+001
 51
8.2613993E+001
  0
ARC
  8
99
  6
CONTINUOUS
 62
1
 10
1.7338684E+002
 20
2.4799254E+002
 40
1.3067764
 50
6.4220038E+001
 51
7.3739933E+001
  0
ARC
  8
99
  6
CONTINUOUS
 62
1
 10
1.7338766E+002
 20
2.4800574E+002
 40
1.2945443
 50
4.4838622E+001
 51
6.399864E+001
  0
ARC
  8
99
  6
CONTINUOUS
 62
1
 10
1.7776239E+002
 20
2.6441193E+002
 40
1.5874336E+001
 50
2.5742254E+002
 51
2.631593E+002
  0
ARC
  8
99
  6
CONTINUOUS
 62
1
 10
1.8107292E+002
 20
2.8999082E+002
 40
4.1666139E+001
 50
2.6282889E+002
 51
2.6582702E+002
  0
INSERT
  2
*XH51
  8
108
 10
1.7245554E+002
 20
2.5544201E+002
  0
LINE
  8
104
  6
CONTINUOUS
 62
40
 10
1.6404096E+002
 20
2.4801162E+002
 11
1.7704096E+002
 21
2.4801162E+002
  0
ARC
  8
105
  6
HIDDEN
 62
1
 10
1.6728283E+002
 20
2.7084388E+002
 40
2.6700986
 50
1.0061518E+002
 51
1.1284004E+002
  0
ARC
  8
105
  6
HIDDEN
 62
1
 10
1.6735041E+002
 20
2.7068888E+002
 40
2.8391796
 50
1.1288272E+002
 51
1.2461788E+002
  0
ARC
  8
105
  6
HIDDEN
 62
1
 10
1.6751956E+002
 20
2.7044596E+002
 40
3.1351896
 50
1.2463984E+002
 51
1.3562481E+002
  0
ARC
  8
105
  6
HIDDEN
 62
1
 10
1.6780531E+002
 20
2.7016655E+002
 40
3.5348458
 50
1.3562692E+002
 51
1.4576773E+002
  0
ARC
  8
105
  6
HIDDEN
 62
1
 10
1.6819008E+002
 20
2.6990378E+002
 40
4.0007728
 50
1.4575634E+002
 51
1.5509362E+002
  0
ARC
  8
105
  6
HIDDEN
 62
1
 10
1.6862639E+002
 20
2.6969961E+002
 40
4.4824938
 50
1.5507526E+002
 51
1.6373069E+002
  0
ARC
  8
105
  6
HIDDEN
 62
1
 10
1.6920946E+002
 20
2.6953877E+002
 40
5.0872812
 50
1.6383152E+002
 51
1.7974285E+002
  0
ARC
  8
105
  6
HIDDEN
 62
1
 10
1.6920199E+002
 20
2.6950769E+002
 40
5.0800463
 50
1.7939184E+002
 51
1.9551974E+002
  0
ARC
  8
105
  6
HIDDEN
 62
1
 10
1.6862614E+002
 20
2.693558E+002
 40
4.4845606
 50
1.9561852E+002
 51
2.0438079E+002
  0
ARC
  8
105
  6
HIDDEN
 62
1
 10
1.6819056E+002
 20
2.6915695E+002
 40
4.0057357
 50
2.0436211E+002
 51
2.1380974E+002
  0
ARC
  8
105
  6
HIDDEN
 62
1
 10
1.6780518E+002
 20
2.6889801E+002
 40
3.5414451
 50
2.1379827E+002
 51
2.2405466E+002
  0
ARC
  8
105
  6
HIDDEN
 62
1
 10
1.6751897E+002
 20
2.6862128E+002
 40
3.1433258
 50
2.240571E+002
 51
2.3516189E+002
  0
ARC
  8
105
  6
HIDDEN
 62
1
 10
1.6735027E+002
 20
2.6838089E+002
 40
2.849658
 50
2.3518467E+002
 51
2.4703919E+002
  0
ARC
  8
105
  6
HIDDEN
 62
1
 10
1.6728386E+002
 20
2.682294E+002
 40
2.6842561
 50
2.4708292E+002
 51
2.5941892E+002
  0
ARC
  8
105
  6
HIDDEN
 62
1
 10
1.6730946E+002
 20
2.6837541E+002
 40
2.8324852
 50
2.5945234E+002
 51
2.7420809E+002
  0
ARC
  8
105
  6
HIDDEN
 62
1
 10
1.6730121E+002
 20
2.6844283E+002
 40
2.9003389
 50
2.742729E+002
 51
2.8879794E+002
  0
ARC
  8
105
  6
HIDDEN
 62
1
 10
1.672302E+002
 20
2.6864419E+002
 40
3.1138391
 50
2.8884097E+002
 51
3.0269498E+002
  0
ARC
  8
105
  6
HIDDEN
 62
1
 10
1.6705263E+002
 20
2.6891945E+002
 40
3.4413987
 50
3.0270747E+002
 51
3.1566824E+002
  0
ARC
  8
105
  6
HIDDEN
 62
1
 10
1.6677627E+002
 20
2.6919058E+002
 40
3.828554
 50
3.1565596E+002
 51
3.2772746E+002
  0
ARC
  8
105
  6
HIDDEN
 62
1
 10
1.6646062E+002
 20
2.6939223E+002
 40
4.203113
 50
3.2770078E+002
 51
3.390436E+002
  0
ARC
  8
105
  6
HIDDEN
 62
1
 10
1.6613096E+002
 20
2.6951605E+002
 40
4.5552493
 50
3.3907225E+002
 51
3.6057303E+002
  0
ARC
  8
105
  6
HIDDEN
 62
1
 10
1.6612354E+002
 20
2.6953321E+002
 40
4.5625352
 50
3.5659261E-001
 51
2.1616684E+001
  0
ARC
  8
105
  6
HIDDEN
 62
1
 10
1.6645957E+002
 20
2.6966381E+002
 40
4.2020233
 50
2.1649087E+001
 51
3.2878814E+001
  0
ARC
  8
105
  6
HIDDEN
 62
1
 10
1.6677597E+002
 20
2.6987043E+002
 40
3.8241365
 50
3.2852467E+001
 51
4.4810742E+001
  0
ARC
  8
105
  6
HIDDEN
 62
1
 10
1.6705175E+002
 20
2.7014543E+002
 40
3.4346788
 50
4.4798449E+001
 51
5.7644513E+001
  0
ARC
  8
105
  6
HIDDEN
 62
1
 10
1.6722878E+002
 20
2.7042365E+002
 40
3.1049085
 50
5.7656509E+001
 51
7.1396307E+001
  0
ARC
  8
105
  6
HIDDEN
 62
1
 10
1.6729982E+002
 20
2.7062802E+002
 40
2.8885613
 50
7.1438504E+001
 51
8.5855296E+001
  0
ARC
  8
105
  6
HIDDEN
 62
1
 10
1.6730814E+002
 20
2.7069922E+002
 40
2.8169423
 50
8.5919442E+001
 51
1.005792E+002
  0
ARC
  8
99
  6
CONTINUOUS
 62
1
 10
1.6728284E+002
 20
2.6334386E+002
 40
2.6701194
 50
1.0061547E+002
 51
1.1284025E+002
  0
ARC
  8
99
  6
CONTINUOUS
 62
1
 10
1.6735042E+002
 20
2.6318886E+002
 40
2.839204
 50
1.1288292E+002
 51
1.24618E+002
  0
ARC
  8
99
  6
CONTINUOUS
 62
1
 10
1.6751958E+002
 20
2.6294594E+002
 40
3.1352136
 50
1.2463996E+002
 51
1.3562486E+002
  0
ARC
  8
99
  6
CONTINUOUS
 62
1
 10
1.6780533E+002
 20
2.6266653E+002
 40
3.534865
 50
1.3562696E+002
 51
1.4576773E+002
  0
ARC
  8
99
  6
CONTINUOUS
 62
1
 10
1.6819009E+002
 20
2.6240377E+002
 40
4.0007827
 50
1.4575634E+002
 51
1.5509359E+002
  0
ARC
  8
99
  6
CONTINUOUS
 62
1
 10
1.6862639E+002
 20
2.6219961E+002
 40
4.4824906
 50
1.5507523E+002
 51
1.6373066E+002
  0
ARC
  8
99
  6
CONTINUOUS
 62
1
 10
1.6920943E+002
 20
2.6203877E+002
 40
5.0872547
 50
1.6383147E+002
 51
1.7974284E+002
  0
ARC
  8
99
  6
CONTINUOUS
 62
1
 10
1.6920198E+002
 20
2.6200769E+002
 40
5.0800362
 50
1.7939184E+002
 51
1.9551975E+002
  0
ARC
  8
99
  6
CONTINUOUS
 62
1
 10
1.6862614E+002
 20
2.618558E+002
 40
4.4845592
 50
1.9561853E+002
 51
2.043808E+002
  0
ARC
  8
99
  6
CONTINUOUS
 62
1
 10
1.6819056E+002
 20
2.6165696E+002
 40
4.0057392
 50
2.0436212E+002
 51
2.1380974E+002
  0
ARC
  8
99
  6
CONTINUOUS
 62
1
 10
1.6780518E+002
 20
2.6139802E+002
 40
3.5414521
 50
2.1379827E+002
 51
2.2405464E+002
  0
ARC
  8
99
  6
CONTINUOUS
 62
1
 10
1.6751897E+002
 20
2.6112129E+002
 40
3.1433347
 50
2.2405709E+002
 51
2.3516184E+002
  0
ARC
  8
99
  6
CONTINUOUS
 62
1
 10
1.6735028E+002
 20
2.608809E+002
 40
2.8496671
 50
2.3518462E+002
 51
2.4703911E+002
  0
ARC
  8
99
  6
CONTINUOUS
 62
1
 10
1.6728387E+002
 20
2.607294E+002
 40
2.6842638
 50
2.4708285E+002
 51
2.5941882E+002
  0
ARC
  8
99
  6
CONTINUOUS
 62
1
 10
1.6730947E+002
 20
2.608754E+002
 40
2.8324796
 50
2.5945218E+002
 51
2.7420796E+002
  0
ARC
  8
99
  6
CONTINUOUS
 62
1
 10
1.6730122E+002
 20
2.6094282E+002
 40
2.9003285
 50
2.7427276E+002
 51
2.8879785E+002
  0
ARC
  8
99
  6
CONTINUOUS
 62
1
 10
1.6723021E+002
 20
2.6114418E+002
 40
3.1138267
 50
2.8884089E+002
 51
3.0269495E+002
  0
ARC
  8
99
  6
CONTINUOUS
 62
1
 10
1.6705264E+002
 20
2.6141944E+002
 40
3.4413878
 50
3.0270743E+002
 51
3.1566824E+002
  0
ARC
  8
99
  6
CONTINUOUS
 62
1
 10
1.6677627E+002
 20
2.6169057E+002
 40
3.828548
 50
3.1565597E+002
 51
3.2772748E+002
  0
ARC
  8
99
  6
CONTINUOUS
 62
1
 10
1.6646062E+002
 20
2.6189223E+002
 40
4.2031148
 50
3.2770081E+002
 51
3.3904363E+002
  0
ARC
  8
99
  6
CONTINUOUS
 62
1
 10
1.6613095E+002
 20
2.6201605E+002
 40
4.5552645
 50
3.3907229E+002
 51
3.6057304E+002
  0
ARC
  8
99
  6
CONTINUOUS
 62
1
 10
1.6612354E+002
 20
2.6203321E+002
 40
4.5625275
 50
3.5659645E-001
 51
2.1616703E+001
  0
ARC
  8
99
  6
CONTINUOUS
 62
1
 10
1.6645957E+002
 20
2.6216381E+002
 40
4.2020225
 50
2.1649104E+001
 51
3.2878826E+001
  0
ARC
  8
99
  6
CONTINUOUS
 62
1
 10
1.6677597E+002
 20
2.6237043E+002
 40
3.8241397
 50
3.285248E+001
 51
4.4810743E+001
  0
ARC
  8
99
  6
CONTINUOUS
 62
1
 10
1.6705174E+002
 20
2.6264542E+002
 40
3.4346846
 50
4.479845E+001
 51
5.7644494E+001
  0
ARC
  8
99
  6
CONTINUOUS
 62
1
 10
1.6722878E+002
 20
2.6292365E+002
 40
3.104915
 50
5.765649E+001
 51
7.1396262E+001
  0
ARC
  8
99
  6
CONTINUOUS
 62
1
 10
1.6729981E+002
 20
2.6312801E+002
 40
2.8885667
 50
7.1438459E+001
 51
8.5855226E+001
  0
ARC
  8
99
  6
CONTINUOUS
 62
1
 10
1.6730813E+002
 20
2.6319922E+002
 40
2.8169452
 50
8.5919371E+001
 51
1.0057911E+002
  0
ARC
  8
105
  6
HIDDEN
 62
1
 10
1.67327E+002
 20
2.7052645E+002
 40
2.3471869
 50
1.0320132E+002
 51
1.1480196E+002
  0
ARC
  8
105
  6
HIDDEN
 62
1
 10
1.6738501E+002
 20
2.704043E+002
 40
2.4824062
 50
1.1483467E+002
 51
1.2601054E+002
  0
ARC
  8
105
  6
HIDDEN
 62
1
 10
1.675177E+002
 20
2.7022313E+002
 40
2.7069718
 50
1.2602794E+002
 51
1.3657726E+002
  0
ARC
  8
105
  6
HIDDEN
 62
1
 10
1.6773272E+002
 20
2.7001981E+002
 40
3.0028965
 50
1.3657977E+002
 51
1.464243E+002
  0
ARC
  8
105
  6
HIDDEN
 62
1
 10
1.6801576E+002
 20
2.6983136E+002
 40
3.3429284
 50
1.4641605E+002
 51
1.5558111E+002
  0
ARC
  8
105
  6
HIDDEN
 62
1
 10
1.6833289E+002
 20
2.6968635E+002
 40
3.6916415
 50
1.555667E+002
 51
1.641449E+002
  0
ARC
  8
105
  6
HIDDEN
 62
1
 10
1.6875629E+002
 20
2.6957305E+002
 40
4.129889
 50
1.6423754E+002
 51
1.801587E+002
  0
ARC
  8
105
  6
HIDDEN
 62
1
 10
1.6875621E+002
 20
2.6955017E+002
 40
4.129813
 50
1.7984133E+002
 51
1.9576261E+002
  0
ARC
  8
105
  6
HIDDEN
 62
1
 10
1.6833288E+002
 20
2.6943688E+002
 40
3.691632
 50
1.9585522E+002
 51
2.0443341E+002
  0
ARC
  8
105
  6
HIDDEN
 62
1
 10
1.6801578E+002
 20
2.6929189E+002
 40
3.3429571
 50
2.04419E+002
 51
2.1358396E+002
  0
ARC
  8
105
  6
HIDDEN
 62
1
 10
1.6773277E+002
 20
2.6910345E+002
 40
3.0029531
 50
2.1357571E+002
 51
2.2342007E+002
  0
ARC
  8
105
  6
HIDDEN
 62
1
 10
1.6751776E+002
 20
2.6890015E+002
 40
2.7070441
 50
2.2342258E+002
 51
2.3397166E+002
  0
ARC
  8
105
  6
HIDDEN
 62
1
 10
1.6738507E+002
 20
2.6871898E+002
 40
2.4824818
 50
2.3398906E+002
 51
2.4516465E+002
  0
ARC
  8
105
  6
HIDDEN
 62
1
 10
1.6732705E+002
 20
2.6859682E+002
 40
2.3472541
 50
2.4519735E+002
 51
2.5679771E+002
  0
ARC
  8
105
  6
HIDDEN
 62
1
 10
1.6735823E+002
 20
2.6875313E+002
 40
2.5065614
 50
2.569199E+002
 51
2.8609992E+002
  0
ARC
  8
105
  6
HIDDEN
 62
1
 10
1.6731013E+002
 20
2.6891973E+002
 40
2.6799636
 50
2.8610024E+002
 51
3.0005497E+002
  0
ARC
  8
105
  6
HIDDEN
 62
1
 10
1.6719288E+002
 20
2.6912106E+002
 40
2.9129443
 50
3.000679E+002
 51
3.1326861E+002
  0
ARC
  8
105
  6
HIDDEN
 62
1
 10
1.6700585E+002
 20
2.6932048E+002
 40
3.1863427
 50
3.1325961E+002
 51
3.2569392E+002
  0
ARC
  8
105
  6
HIDDEN
 62
1
 10
1.6679169E+002
 20
2.6946827E+002
 40
3.4465469
 50
3.2567089E+002
 51
3.374709E+002
  0
ARC
  8
105
  6
HIDDEN
 62
1
 10
1.6657694E+002
 20
2.6955627E+002
 40
3.6786239
 50
3.3748647E+002
 51
3.6008309E+002
  0
ARC
  8
105
  6
HIDDEN
 62
1
 10
1.6657696E+002
 20
2.6956694E+002
 40
3.6786035
 50
3.5991692E+002
 51
3.8251359E+002
  0
ARC
  8
105
  6
HIDDEN
 62
1
 10
1.6679169E+002
 20
2.6965493E+002
 40
3.4465449
 50
2.2529158E+001
 51
3.4329158E+001
  0
ARC
  8
105
  6
HIDDEN
 62
1
 10
1.6700584E+002
 20
2.6980273E+002
 40
3.1863514
 50
3.4306124E+001
 51
4.6740397E+001
  0
ARC
  8
105
  6
HIDDEN
 62
1
 10
1.6719287E+002
 20
2.7000214E+002
 40
2.9129598
 50
4.6731389E+001
 51
5.9932033E+001
  0
ARC
  8
105
  6
HIDDEN
 62
1
 10
1.6731012E+002
 20
2.7020346E+002
 40
2.6799808
 50
5.9944961E+001
 51
7.389962E+001
  0
ARC
  8
105
  6
HIDDEN
 62
1
 10
1.6735822E+002
 20
2.7037007E+002
 40
2.5065719
 50
7.3899926E+001
 51
1.0307982E+002
  0
ARC
  8
104
  6
CONTINUOUS
 62
40
 10
1.6732698E+002
 20
2.6302646E+002
 40
2.3471696
 50
1.0320108E+002
 51
1.1480178E+002
  0
ARC
  8
104
  6
CONTINUOUS
 62
40
 10
1.6738499E+002
 20
2.6290431E+002
 40
2.4823867
 50
1.1483449E+002
 51
1.2601044E+002
  0
ARC
  8
104
  6
CONTINUOUS
 62
40
 10
1.6751769E+002
 20
2.6272314E+002
 40
2.7069531
 50
1.2602784E+002
 51
1.3657722E+002
  0
ARC
  8
104
  6
CONTINUOUS
 62
40
 10
1.6773271E+002
 20
2.6251982E+002
 40
3.0028819
 50
1.3657973E+002
 51
1.464243E+002
  0
ARC
  8
104
  6
CONTINUOUS
 62
40
 10
1.6801575E+002
 20
2.6233137E+002
 40
3.342921
 50
1.4641606E+002
 51
1.5558114E+002
  0
ARC
  8
104
  6
CONTINUOUS
 62
40
 10
1.6833289E+002
 20
2.6218636E+002
 40
3.6916439
 50
1.5556672E+002
 51
1.6414494E+002
  0
ARC
  8
104
  6
CONTINUOUS
 62
40
 10
1.687563E+002
 20
2.6207305E+002
 40
4.1299086
 50
1.6423757E+002
 51
1.801587E+002
  0
ARC
  8
104
  6
CONTINUOUS
 62
40
 10
1.6875619E+002
 20
2.6205017E+002
 40
4.1297934
 50
1.7984133E+002
 51
1.9576265E+002
  0
ARC
  8
104
  6
CONTINUOUS
 62
40
 10
1.6833288E+002
 20
2.6193688E+002
 40
3.6916295
 50
1.9585526E+002
 51
2.0443343E+002
  0
ARC
  8
104
  6
CONTINUOUS
 62
40
 10
1.6801579E+002
 20
2.617919E+002
 40
3.3429645
 50
2.0441902E+002
 51
2.1358396E+002
  0
ARC
  8
104
  6
CONTINUOUS
 62
40
 10
1.6773278E+002
 20
2.6160347E+002
 40
3.0029677
 50
2.1357571E+002
 51
2.2342003E+002
  0
ARC
  8
104
  6
CONTINUOUS
 62
40
 10
1.6751777E+002
 20
2.6140016E+002
 40
2.7070628
 50
2.2342254E+002
 51
2.3397156E+002
  0
ARC
  8
104
  6
CONTINUOUS
 62
40
 10
1.6738508E+002
 20
2.61219E+002
 40
2.4825013
 50
2.3398895E+002
 51
2.4516447E+002
  0
ARC
  8
104
  6
CONTINUOUS
 62
40
 10
1.6732707E+002
 20
2.6109684E+002
 40
2.3472714
 50
2.4519718E+002
 51
2.5679746E+002
  0
ARC
  8
104
  6
CONTINUOUS
 62
40
 10
1.6735822E+002
 20
2.6125314E+002
 40
2.5065685
 50
2.5692009E+002
 51
2.8610002E+002
  0
ARC
  8
104
  6
CONTINUOUS
 62
40
 10
1.6731012E+002
 20
2.6141975E+002
 40
2.6799753
 50
2.8610033E+002
 51
3.0005502E+002
  0
ARC
  8
104
  6
CONTINUOUS
 62
40
 10
1.6719287E+002
 20
2.6162107E+002
 40
2.9129548
 50
3.0006795E+002
 51
3.1326861E+002
  0
ARC
  8
104
  6
CONTINUOUS
 62
40
 10
1.6700584E+002
 20
2.6182048E+002
 40
3.1863486
 50
3.132596E+002
 51
3.2569389E+002
  0
ARC
  8
104
  6
CONTINUOUS
 62
40
 10
1.6679169E+002
 20
2.6196828E+002
 40
3.4465456
 50
3.2567086E+002
 51
3.3747086E+002
  0
ARC
  8
104
  6
CONTINUOUS
 62
40
 10
1.6657696E+002
 20
2.6205627E+002
 40
3.67861
 50
3.3748643E+002
 51
3.6008309E+002
  0
ARC
  8
104
  6
CONTINUOUS
 62
40
 10
1.6657698E+002
 20
2.6206694E+002
 40
3.6785885
 50
3.5991693E+002
 51
3.8251364E+002
  0
ARC
  8
104
  6
CONTINUOUS
 62
40
 10
1.667917E+002
 20
2.6215493E+002
 40
3.4465434
 50
2.2529199E+001
 51
3.4329189E+001
  0
ARC
  8
104
  6
CONTINUOUS
 62
40
 10
1.6700584E+002
 20
2.6230272E+002
 40
3.1863578
 50
3.4306156E+001
 51
4.6740399E+001
  0
ARC
  8
104
  6
CONTINUOUS
 62
40
 10
1.6719286E+002
 20
2.6250213E+002
 40
2.912971
 50
4.6731391E+001
 51
5.9931987E+001
  0
ARC
  8
104
  6
CONTINUOUS
 62
40
 10
1.6731011E+002
 20
2.6270345E+002
 40
2.6799934
 50
5.9944914E+001
 51
7.3899515E+001
  0
ARC
  8
104
  6
CONTINUOUS
 62
40
 10
1.6735821E+002
 20
2.6287006E+002
 40
2.5065796
 50
7.3899811E+001
 51
1.0307961E+002
  0
LINE
  8
104
  6
CONTINUOUS
 62
40
 10
1.7804096E+002
 20
2.5911163E+002
 11
1.7674097E+002
 21
2.5781161E+002
  0
LINE
  8
104
  6
CONTINUOUS
 62
40
 10
1.7674097E+002
 20
2.5781161E+002
 11
1.7154096E+002
 21
2.5781161E+002
  0
LINE
  8
104
  6
CONTINUOUS
 62
40
 10
1.7154096E+002
 20
2.5781161E+002
 11
1.6966459E+002
 21
2.5456161E+002
  0
LINE
  8
104
  6
CONTINUOUS
 62
40
 10
1.6966459E+002
 20
2.5456161E+002
 11
1.7154096E+002
 21
2.5131161E+002
  0
LINE
  8
104
  6
CONTINUOUS
 62
40
 10
1.7154096E+002
 20
2.5131161E+002
 11
1.7674097E+002
 21
2.5131161E+002
  0
LINE
  8
104
  6
CONTINUOUS
 62
40
 10
1.7674097E+002
 20
2.5131161E+002
 11
1.7804096E+002
 21
2.5001162E+002
  0
LINE
  8
104
  6
CONTINUOUS
 62
40
 10
1.7674097E+002
 20
2.5131161E+002
 11
1.7674097E+002
 21
2.5269637E+002
  0
LINE
  8
104
  6
CONTINUOUS
 62
40
 10
1.7674097E+002
 20
2.5683846E+002
 11
1.7674097E+002
 21
2.5781161E+002
  0
LINE
  8
104
  6
CONTINUOUS
 62
40
 10
1.7154096E+002
 20
2.5131161E+002
 11
1.7154096E+002
 21
2.5781161E+002
  0
LINE
  8
106
  6
CENTERLINE
 62
1
 10
1.6038813E+002
 20
2.6956161E+002
 11
1.7054096E+002
 21
2.6956161E+002
  0
LINE
  8
106
  6
CENTERLINE
 62
1
 10
1.6048481E+002
 20
2.6206161E+002
 11
1.7054096E+002
 21
2.6206161E+002
  0
LINE
  8
106
  6
CENTERLINE
 62
1
 10
1.6841254E+002
 20
2.5456161E+002
 11
1.8117426E+002
 21
2.5456161E+002
  0
ARC
  8
104
  6
CONTINUOUS
 62
40
 10
1.7926321E+002
 20
2.5648505E+002
 40
2.1505619
 50
1.6361828E+002
 51
1.6745312E+002
  0
ARC
  8
104
  6
CONTINUOUS
 62
40
 10
1.8071062E+002
 20
2.5606275E+002
 40
3.6583149
 50
1.6097499E+002
 51
1.6366631E+002
  0
ARC
  8
104
  6
CONTINUOUS
 62
40
 10
1.8489021E+002
 20
2.5459714E+002
 40
8.087392
 50
1.5761406E+002
 51
1.6081141E+002
  0
ARC
  8
104
  6
CONTINUOUS
 62
40
 10
2.1297965E+002
 20
2.4294412E+002
 40
3.8498056E+001
 50
1.5516816E+002
 51
1.5749922E+002
  0
LINE
  8
104
  6
CONTINUOUS
 62
40
 10
1.7804096E+002
 20
2.5911163E+002
 11
1.7804096E+002
 21
2.7856161E+002
  0
LINE
  8
104
  6
CONTINUOUS
 62
40
 10
1.7804096E+002
 20
2.7856161E+002
 11
1.7704096E+002
 21
2.7956161E+002
  0
LINE
  8
104
  6
CONTINUOUS
 62
40
 10
1.7704096E+002
 20
2.7956161E+002
 11
1.6404096E+002
 21
2.7956161E+002
  0
LINE
  8
104
  6
CONTINUOUS
 62
40
 10
1.6404096E+002
 20
2.7956161E+002
 11
1.6304096E+002
 21
2.7856161E+002
  0
LINE
  8
104
  6
CONTINUOUS
 62
40
 10
1.6304096E+002
 20
2.7856161E+002
 11
1.6304096E+002
 21
2.4801162E+002
  0
LINE
  8
104
  6
CONTINUOUS
 62
40
 10
1.6304096E+002
 20
2.4801162E+002
 11
1.6404096E+002
 21
2.4801162E+002
  0
LINE
  8
104
  6
CONTINUOUS
 62
40
 10
1.6404096E+002
 20
2.4801162E+002
 11
1.6404096E+002
 21
2.2901162E+002
  0
LINE
  8
104
  6
CONTINUOUS
 62
40
 10
1.6404096E+002
 20
2.2901162E+002
 11
1.6504096E+002
 21
2.2801162E+002
  0
LINE
  8
104
  6
CONTINUOUS
 62
40
 10
1.6504096E+002
 20
2.2801162E+002
 11
1.7604096E+002
 21
2.2801162E+002
  0
LINE
  8
104
  6
CONTINUOUS
 62
40
 10
1.7604096E+002
 20
2.2801162E+002
 11
1.7704096E+002
 21
2.2901162E+002
  0
LINE
  8
104
  6
CONTINUOUS
 62
40
 10
1.7704096E+002
 20
2.2901162E+002
 11
1.7704096E+002
 21
2.4801162E+002
  0
LINE
  8
104
  6
CONTINUOUS
 62
40
 10
1.7704096E+002
 20
2.4801162E+002
 11
1.7804096E+002
 21
2.4801162E+002
  0
LINE
  8
104
  6
CONTINUOUS
 62
40
 10
1.7804096E+002
 20
2.4801162E+002
 11
1.7804096E+002
 21
2.5001162E+002
  0
LINE
  8
104
  6
CONTINUOUS
 62
40
 10
1.7804096E+002
 20
2.5001162E+002
 11
1.7728001E+002
 21
2.5284133E+002
  0
LINE
  8
104
  6
CONTINUOUS
 62
40
 10
1.6304096E+002
 20
2.7856161E+002
 11
1.7804096E+002
 21
2.7856161E+002
  0
LINE
  8
104
  6
CONTINUOUS
 62
40
 10
1.6404096E+002
 20
2.2901162E+002
 11
1.7704096E+002
 21
2.2901162E+002
  0
LINE
  8
106
  6
CENTERLINE
 62
1
 10
1.7054096E+002
 20
2.8174129E+002
 11
1.7054096E+002
 21
2.4553475E+002
  0
LINE
  8
106
  6
CENTERLINE
 62
1
 10
1.7054096E+002
 20
2.4553475E+002
 11
1.7054096E+002
 21
2.4147421E+002
  0
LINE
  8
106
  6
CENTERLINE
 62
1
 10
1.7054096E+002
 20
2.4147421E+002
 11
1.7054096E+002
 21
2.3693026E+002
  0
LINE
  8
106
  6
CENTERLINE
 62
1
 10
1.7054096E+002
 20
2.3693026E+002
 11
1.7054096E+002
 21
2.3209627E+002
  0
LINE
  8
106
  6
CENTERLINE
 62
1
 10
1.7054096E+002
 20
2.3209627E+002
 11
1.7054096E+002
 21
2.2491787E+002
  0
LINE
  8
106
  6
CENTERLINE
 62
1
 10
1.6679096E+002
 20
2.562662E+002
 11
1.6679096E+002
 21
2.7598885E+002
  0
LINE
  8
104
  6
CONTINUOUS
 62
40
 10
1.6304096E+002
 20
2.4737173E+002
 11
1.6404096E+002
 21
2.4737173E+002
  0
LINE
  8
104
  6
CONTINUOUS
 62
40
 10
1.7704096E+002
 20
2.4737173E+002
 11
1.7804096E+002
 21
2.4737173E+002
  0
LINE
  8
104
  6
CONTINUOUS
 62
40
 10
2.3524097E+002
 20
2.4737173E+002
 11
2.3554096E+002
 21
2.4737173E+002
  0
LINE
  8
104
  6
CONTINUOUS
 62
40
 10
2.5154096E+002
 20
2.4737173E+002
 11
2.5184098E+002
 21
2.4737173E+002
  0
LINE
  8
105
  6
HIDDEN
 62
1
 10
2.2054096E+002
 20
2.5237173E+002
 11
2.2056403E+002
 21
2.5387173E+002
  0
LINE
  8
105
  6
HIDDEN
 62
1
 10
2.2056403E+002
 20
2.5387173E+002
 11
2.2854096E+002
 21
2.5387173E+002
  0
LINE
  8
105
  6
HIDDEN
 62
1
 10
2.2854096E+002
 20
2.5387173E+002
 11
2.2854096E+002
 21
2.5237173E+002
  0
LINE
  8
104
  6
CONTINUOUS
 62
40
 10
2.2054096E+002
 20
2.4737173E+002
 11
2.2854096E+002
 21
2.4737173E+002
  0
LINE
  8
106
  6
CENTERLINE
 62
1
 10
1.3554099E+002
 20
2.5743978E+002
 11
1.3554099E+002
 21
2.4203912E+002
  0
LINE
  8
106
  6
CENTERLINE
 62
1
 10
1.4804096E+002
 20
2.4203912E+002
 11
1.4804096E+002
 21
2.553633E+002
  0
LINE
  8
106
  6
CENTERLINE
 62
1
 10
1.5504096E+002
 20
2.5813195E+002
 11
1.5504096E+002
 21
2.4152001E+002
  0
LINE
  8
106
  6
CENTERLINE
 62
1
 10
1.6229096E+002
 20
2.4965295E+002
 11
1.6229096E+002
 21
2.5847805E+002
  0
LINE
  8
106
  6
CENTERLINE
 62
1
 10
1.7879096E+002
 20
2.4896078E+002
 11
1.7879096E+002
 21
2.5324764E+002
  0
LINE
  8
106
  6
CENTERLINE
 62
1
 10
1.7879096E+002
 20
2.5738976E+002
 11
1.7879096E+002
 21
2.5882412E+002
  0
LINE
  8
106
  6
CENTERLINE
 62
1
 10
2.4354096E+002
 20
2.4134695E+002
 11
2.4354096E+002
 21
2.4737173E+002
  0
LINE
  8
106
  6
CENTERLINE
 62
1
 10
2.6504096E+002
 20
2.5968932E+002
 11
2.6504096E+002
 21
2.4152001E+002
  0
LINE
  8
106
  6
CENTERLINE
 62
1
 10
2.7304096E+002
 20
2.4463476E+002
 11
2.7304096E+002
 21
2.5692068E+002
  0
LINE
  8
106
  6
CENTERLINE
 62
1
 10
2.8554096E+002
 20
2.5917019E+002
 11
2.8554096E+002
 21
2.4203912E+002
  0
LINE
  8
105
  6
HIDDEN
 62
1
 10
1.6004096E+002
 20
2.5237173E+002
 11
1.6004096E+002
 21
2.5387173E+002
  0
LINE
  8
105
  6
HIDDEN
 62
1
 10
1.6004096E+002
 20
2.5387173E+002
 11
1.6304096E+002
 21
2.5387173E+002
  0
LINE
  8
105
  6
HIDDEN
 62
1
 10
1.7654096E+002
 20
2.5237173E+002
 11
1.7654096E+002
 21
2.5264257E+002
  0
LINE
  8
105
  6
HIDDEN
 62
1
 10
1.8104096E+002
 20
2.5385271E+002
 11
1.8104096E+002
 21
2.5237173E+002
  0
LINE
  8
104
  6
CONTINUOUS
 62
40
 10
1.7804096E+002
 20
2.4737173E+002
 11
2.2054096E+002
 21
2.4737173E+002
  0
LINE
  8
104
  6
CONTINUOUS
 62
40
 10
2.2054096E+002
 20
2.4737173E+002
 11
2.2054096E+002
 21
2.4887173E+002
  0
LINE
  8
104
  6
CONTINUOUS
 62
40
 10
2.2054096E+002
 20
2.4887173E+002
 11
2.2854096E+002
 21
2.4887173E+002
  0
LINE
  8
104
  6
CONTINUOUS
 62
40
 10
2.2854096E+002
 20
2.4887173E+002
 11
2.2854096E+002
 21
2.4737173E+002
  0
LINE
  8
104
  6
CONTINUOUS
 62
40
 10
2.2854096E+002
 20
2.4737173E+002
 11
2.3524097E+002
 21
2.4737173E+002
  0
LINE
  8
104
  6
CONTINUOUS
 62
40
 10
2.3524097E+002
 20
2.4737173E+002
 11
2.3524097E+002
 21
2.5237173E+002
  0
LINE
  8
104
  6
CONTINUOUS
 62
40
 10
2.3524097E+002
 20
2.5237173E+002
 11
2.2854096E+002
 21
2.5237173E+002
  0
LINE
  8
104
  6
CONTINUOUS
 62
40
 10
2.2854096E+002
 20
2.5237173E+002
 11
2.2054096E+002
 21
2.5237173E+002
  0
LINE
  8
104
  6
CONTINUOUS
 62
40
 10
2.2054096E+002
 20
2.5237173E+002
 11
1.7804096E+002
 21
2.5237173E+002
  0
LINE
  8
104
  6
CONTINUOUS
 62
40
 10
1.7804096E+002
 20
2.5237173E+002
 11
1.7804096E+002
 21
2.4737173E+002
  0
INSERT
  2
*XH52
  8
108
 10
2.0789786E+002
 20
2.5004438E+002
  0
LINE
  8
104
  6
CONTINUOUS
 62
40
 10
1.3289097E+002
 20
2.5237173E+002
 11
1.3819099E+002
 21
2.5237173E+002
  0
LINE
  8
104
  6
CONTINUOUS
 62
40
 10
1.3819099E+002
 20
2.4997173E+002
 11
1.3289097E+002
 21
2.4997173E+002
  0
LINE
  8
104
  6
CONTINUOUS
 62
40
 10
1.4054099E+002
 20
2.4737173E+002
 11
1.3054099E+002
 21
2.4737173E+002
  0
LINE
  8
104
  6
CONTINUOUS
 62
40
 10
1.3819099E+002
 20
2.5237173E+002
 11
1.3819099E+002
 21
2.4997173E+002
  0
LINE
  8
104
  6
CONTINUOUS
 62
40
 10
1.3819099E+002
 20
2.4997173E+002
 11
1.4054099E+002
 21
2.4737173E+002
  0
LINE
  8
104
  6
CONTINUOUS
 62
40
 10
1.4054099E+002
 20
2.4737173E+002
 11
1.5154096E+002
 21
2.4737173E+002
  0
LINE
  8
104
  6
CONTINUOUS
 62
40
 10
1.5154096E+002
 20
2.4737173E+002
 11
1.5344099E+002
 21
2.4927172E+002
  0
LINE
  8
104
  6
CONTINUOUS
 62
40
 10
1.5344099E+002
 20
2.4927172E+002
 11
1.5344099E+002
 21
2.5237173E+002
  0
LINE
  8
104
  6
CONTINUOUS
 62
40
 10
1.5344099E+002
 20
2.5237173E+002
 11
1.3819099E+002
 21
2.5237173E+002
  0
INSERT
  2
*XH53
  8
108
 10
1.4479384E+002
 20
2.502264E+002
  0
LINE
  8
104
  6
CONTINUOUS
 62
40
 10
2.8289097E+002
 20
2.5237173E+002
 11
2.8289097E+002
 21
2.4997173E+002
  0
LINE
  8
104
  6
CONTINUOUS
 62
40
 10
2.8289097E+002
 20
2.4997173E+002
 11
2.8054096E+002
 21
2.4737173E+002
  0
LINE
  8
104
  6
CONTINUOUS
 62
40
 10
2.8054096E+002
 20
2.4737173E+002
 11
2.6854096E+002
 21
2.4737173E+002
  0
LINE
  8
104
  6
CONTINUOUS
 62
40
 10
2.6854096E+002
 20
2.4737173E+002
 11
2.6664097E+002
 21
2.4927172E+002
  0
LINE
  8
104
  6
CONTINUOUS
 62
40
 10
2.6664097E+002
 20
2.4927172E+002
 11
2.6664097E+002
 21
2.5237173E+002
  0
LINE
  8
104
  6
CONTINUOUS
 62
40
 10
2.6664097E+002
 20
2.5237173E+002
 11
2.8289097E+002
 21
2.5237173E+002
  0
INSERT
  2
*XH54
  8
108
 10
2.7351957E+002
 20
2.5025871E+002
  0
LINE
  8
104
  6
CONTINUOUS
 62
40
 10
1.5664097E+002
 20
2.5237173E+002
 11
1.5664097E+002
 21
2.4927172E+002
  0
LINE
  8
104
  6
CONTINUOUS
 62
40
 10
1.5664097E+002
 20
2.4927172E+002
 11
1.5854096E+002
 21
2.4737173E+002
  0
LINE
  8
104
  6
CONTINUOUS
 62
40
 10
1.5854096E+002
 20
2.4737173E+002
 11
1.6304096E+002
 21
2.4737173E+002
  0
LINE
  8
104
  6
CONTINUOUS
 62
40
 10
1.6304096E+002
 20
2.4737173E+002
 11
1.6304096E+002
 21
2.5237173E+002
  0
LINE
  8
104
  6
CONTINUOUS
 62
40
 10
1.6304096E+002
 20
2.5237173E+002
 11
1.5664097E+002
 21
2.5237173E+002
  0
INSERT
  2
*XH55
  8
108
 10
1.5920829E+002
 20
2.5049872E+002
  0
LINE
  8
104
  6
CONTINUOUS
 62
40
 10
2.6344096E+002
 20
2.5237173E+002
 11
2.6344096E+002
 21
2.4927172E+002
  0
LINE
  8
104
  6
CONTINUOUS
 62
40
 10
2.6344096E+002
 20
2.4927172E+002
 11
2.6154096E+002
 21
2.4737173E+002
  0
LINE
  8
104
  6
CONTINUOUS
 62
40
 10
2.6154096E+002
 20
2.4737173E+002
 11
2.5184098E+002
 21
2.4737173E+002
  0
LINE
  8
104
  6
CONTINUOUS
 62
40
 10
2.5184098E+002
 20
2.4737173E+002
 11
2.5184098E+002
 21
2.5237173E+002
  0
LINE
  8
104
  6
CONTINUOUS
 62
40
 10
2.5184098E+002
 20
2.5237173E+002
 11
2.6344096E+002
 21
2.5237173E+002
  0
INSERT
  2
*XH56
  8
108
 10
2.5655855E+002
 20
2.5026825E+002
  0
LINE
  8
104
  6
CONTINUOUS
 62
40
 10
2.6154096E+002
 20
2.4737173E+002
 11
2.6854096E+002
 21
2.4737173E+002
  0
LINE
  8
104
  6
CONTINUOUS
 62
40
 10
2.6344096E+002
 20
2.4927172E+002
 11
2.6664097E+002
 21
2.4927172E+002
  0
LINE
  8
104
  6
CONTINUOUS
 62
40
 10
2.6344096E+002
 20
2.5237173E+002
 11
2.6664097E+002
 21
2.5237173E+002
  0
LINE
  8
104
  6
CONTINUOUS
 62
40
 10
2.8289097E+002
 20
2.5237173E+002
 11
2.8819096E+002
 21
2.5237173E+002
  0
LINE
  8
104
  6
CONTINUOUS
 62
40
 10
2.8289097E+002
 20
2.4997173E+002
 11
2.8819096E+002
 21
2.4997173E+002
  0
LINE
  8
104
  6
CONTINUOUS
 62
40
 10
2.8054096E+002
 20
2.4737173E+002
 11
2.9054096E+002
 21
2.4737173E+002
  0
LINE
  8
104
  6
CONTINUOUS
 62
40
 10
1.5344099E+002
 20
2.5237173E+002
 11
1.5664097E+002
 21
2.5237173E+002
  0
LINE
  8
104
  6
CONTINUOUS
 62
40
 10
1.5664097E+002
 20
2.4927172E+002
 11
1.5344099E+002
 21
2.4927172E+002
  0
LINE
  8
104
  6
CONTINUOUS
 62
40
 10
1.5854096E+002
 20
2.4737173E+002
 11
1.5154099E+002
 21
2.4737173E+002
  0
LINE
  8
99
  6
CONTINUOUS
 62
1
 10
1.5304096E+002
 20
2.5237173E+002
 11
1.5304096E+002
 21
2.4887173E+002
  0
LINE
  8
99
  6
CONTINUOUS
 62
1
 10
1.5704096E+002
 20
2.4887173E+002
 11
1.5704096E+002
 21
2.5237173E+002
  0
LINE
  8
99
  6
CONTINUOUS
 62
1
 10
2.6304096E+002
 20
2.5237173E+002
 11
2.6304096E+002
 21
2.4887173E+002
  0
LINE
  8
99
  6
CONTINUOUS
 62
1
 10
2.6704096E+002
 20
2.4887173E+002
 11
2.6704096E+002
 21
2.5237173E+002
  0
LINE
  8
104
  6
CONTINUOUS
 62
40
 10
1.2804099E+002
 20
2.4737173E+002
 11
1.2804099E+002
 21
2.5237173E+002
  0
LINE
  8
104
  6
CONTINUOUS
 62
40
 10
1.2804099E+002
 20
2.5237173E+002
 11
1.3289097E+002
 21
2.5237173E+002
  0
LINE
  8
104
  6
CONTINUOUS
 62
40
 10
1.3289097E+002
 20
2.5237173E+002
 11
1.3289097E+002
 21
2.4997173E+002
  0
LINE
  8
104
  6
CONTINUOUS
 62
40
 10
1.3289097E+002
 20
2.4997173E+002
 11
1.3054099E+002
 21
2.4737173E+002
  0
LINE
  8
104
  6
CONTINUOUS
 62
40
 10
1.3054099E+002
 20
2.4737173E+002
 11
1.2804099E+002
 21
2.4737173E+002
  0
INSERT
  2
*XH57
  8
108
 10
1.296869E+002
 20
2.5067581E+002
  0
LINE
  8
104
  6
CONTINUOUS
 62
40
 10
2.9304096E+002
 20
2.4737173E+002
 11
2.9304096E+002
 21
2.5237173E+002
  0
LINE
  8
104
  6
CONTINUOUS
 62
40
 10
2.9304096E+002
 20
2.5237173E+002
 11
2.8819096E+002
 21
2.5237173E+002
  0
LINE
  8
104
  6
CONTINUOUS
 62
40
 10
2.8819096E+002
 20
2.5237173E+002
 11
2.8819096E+002
 21
2.4997173E+002
  0
LINE
  8
104
  6
CONTINUOUS
 62
40
 10
2.8819096E+002
 20
2.4997173E+002
 11
2.9054096E+002
 21
2.4737173E+002
  0
LINE
  8
104
  6
CONTINUOUS
 62
40
 10
2.9054096E+002
 20
2.4737173E+002
 11
2.9304096E+002
 21
2.4737173E+002
  0
INSERT
  2
*XH58
  8
108
 10
2.9054085E+002
 20
2.5030942E+002
  0
LINE
  8
104
  6
CONTINUOUS
 62
40
 10
1.5879368E+002
 20
2.7537173E+002
 11
1.6304096E+002
 21
2.7537173E+002
  0
LINE
  8
104
  6
CONTINUOUS
 62
40
 10
1.6304096E+002
 20
2.7537173E+002
 11
1.6304096E+002
 21
2.5237173E+002
  0
LINE
  8
104
  6
CONTINUOUS
 62
40
 10
1.6304096E+002
 20
2.5237173E+002
 11
1.5879368E+002
 21
2.5237173E+002
  0
LINE
  8
104
  6
CONTINUOUS
 62
40
 10
1.5879368E+002
 20
2.5237173E+002
 11
1.5879368E+002
 21
2.7537173E+002
  0
INSERT
  2
*XH59
  8
108
 10
1.6086615E+002
 20
2.6359883E+002
  0
LINE
  8
104
  6
CONTINUOUS
 62
40
 10
1.7804096E+002
 20
2.5718807E+002
 11
1.7804096E+002
 21
2.7537173E+002
  0
LINE
  8
104
  6
CONTINUOUS
 62
40
 10
1.7804096E+002
 20
2.7537173E+002
 11
1.814586E+002
 21
2.7537173E+002
  0
LINE
  8
104
  6
CONTINUOUS
 62
40
 10
1.814586E+002
 20
2.7537173E+002
 11
1.814586E+002
 21
2.5810714E+002
  0
LINE
  8
104
  6
CONTINUOUS
 62
40
 10
1.814586E+002
 20
2.5396502E+002
 11
1.814586E+002
 21
2.5237173E+002
  0
LINE
  8
104
  6
CONTINUOUS
 62
40
 10
1.814586E+002
 20
2.5237173E+002
 11
1.7804096E+002
 21
2.5237173E+002
  0
LINE
  8
104
  6
CONTINUOUS
 62
40
 10
1.7804096E+002
 20
2.5237173E+002
 11
1.7804096E+002
 21
2.5304595E+002
  0
ARC
  8
104
  6
CONTINUOUS
 62
40
 10
1.8337575E+002
 20
2.5396283E+002
 40
4.9998714E-001
 50
1.5047915E+001
 51
1.0505015E+002
  0
LINE
  8
104
  6
CONTINUOUS
 62
40
 10
1.8385859E+002
 20
2.5409264E+002
 11
1.8386668E+002
 21
2.5406268E+002
  0
ARC
  8
104
  6
CONTINUOUS
 62
40
 10
1.8434954E+002
 20
2.5419255E+002
 40
5.0002264E-001
 50
1.9505426E+002
 51
2.8137859E+002
  0
LINE
  8
104
  6
CONTINUOUS
 62
40
 10
1.8444819E+002
 20
2.5370235E+002
 11
2.2570631E+002
 21
2.6173595E+002
  0
ARC
  8
104
  6
CONTINUOUS
 62
40
 10
2.2454093E+002
 20
2.676217E+002
 40
6.0000052
 50
2.8119973E+002
 51
3.1022057E+002
  0
LINE
  8
104
  6
CONTINUOUS
 62
40
 10
2.2841532E+002
 20
2.6304031E+002
 11
2.3439298E+002
 21
2.6809536E+002
  0
ARC
  8
104
  6
CONTINUOUS
 62
40
 10
2.3527906E+002
 20
2.6688503E+002
 40
1.5000084
 50
7.149538E+001
 51
1.2620777E+002
  0
ARC
  8
104
  6
CONTINUOUS
 62
40
 10
2.3661211E+002
 20
2.7086786E+002
 40
2.6999853
 50
2.5149435E+002
 51
5.07257E+002
  0
ARC
  8
104
  6
CONTINUOUS
 62
40
 10
2.337872E+002
 20
2.7315911E+002
 40
9.9861974E-001
 50
2.9641241E+002
 51
3.036898E+002
  0
ARC
  8
104
  6
CONTINUOUS
 62
40
 10
2.3373289E+002
 20
2.7326871E+002
 40
1.1209379
 50
2.8966854E+002
 51
2.9640666E+002
  0
ARC
  8
104
  6
CONTINUOUS
 62
40
 10
2.3365473E+002
 20
2.7350159E+002
 40
1.3665386
 50
2.7765262E+002
 51
2.8946811E+002
  0
ARC
  8
104
  6
CONTINUOUS
 62
40
 10
2.3359572E+002
 20
2.7392906E+002
 40
1.7980644
 50
2.6786266E+002
 51
2.7770241E+002
  0
ARC
  8
104
  6
CONTINUOUS
 62
40
 10
2.3361275E+002
 20
2.7444798E+002
 40
2.3172603
 50
2.5961305E+002
 51
2.6792051E+002
  0
LINE
  8
104
  6
CONTINUOUS
 62
40
 10
2.3319495E+002
 20
2.7216869E+002
 11
2.2556626E+002
 21
2.7353347E+002
  0
ARC
  8
104
  6
CONTINUOUS
 62
40
 10
2.2454096E+002
 20
2.6762173E+002
 40
5.9999965
 50
8.0160774E+001
 51
1.0890435E+002
  0
LINE
  8
104
  6
CONTINUOUS
 62
40
 10
2.2259702E+002
 20
2.7329809E+002
 11
1.8287129E+002
 21
2.5955602E+002
  0
ARC
  8
104
  6
CONTINUOUS
 62
40
 10
1.8303429E+002
 20
2.5908333E+002
 40
5.0001377E-001
 50
1.0902637E+002
 51
1.9505085E+002
  0
LINE
  8
104
  6
CONTINUOUS
 62
40
 10
1.8255143E+002
 20
2.5895348E+002
 11
1.8256016E+002
 21
2.589211E+002
  0
ARC
  8
104
  6
CONTINUOUS
 62
40
 10
1.820773E+002
 20
2.5879129E+002
 40
5.0000735E-001
 50
2.8505026E+002
 51
3.7504773E+002
  0
LINE
  8
104
  6
CONTINUOUS
 62
40
 10
1.8220713E+002
 20
2.5830843E+002
 11
1.7496445E+002
 21
2.5636074E+002
  0
ARC
  8
104
  6
CONTINUOUS
 62
40
 10
1.7548383E+002
 20
2.5442935E+002
 40
2.0000012
 50
1.0505154E+002
 51
2.8505261E+002
  0
LINE
  8
104
  6
CONTINUOUS
 62
40
 10
1.7600324E+002
 20
2.5249798E+002
 11
1.8324592E+002
 21
2.5444567E+002
  0
LINE
  8
106
  6
CENTERLINE
 62
1
 10
1.7132313E+002
 20
2.5331045E+002
 11
1.8766883E+002
 21
2.5770611E+002
  0
LINE
  8
106
  6
CENTERLINE
 62
1
 10
1.8766883E+002
 20
2.5770611E+002
 11
1.9601713E+002
 21
2.5995113E+002
  0
LINE
  8
106
  6
CENTERLINE
 62
1
 10
1.9601713E+002
 20
2.5995113E+002
 11
2.2724491E+002
 21
2.6834887E+002
  0
LINE
  8
106
  6
CENTERLINE
 62
1
 10
2.3242497E+002
 20
2.6974187E+002
 11
2.4144883E+002
 21
2.7216854E+002
  0
LINE
  8
106
  6
CENTERLINE
 62
1
 10
2.3526511E+002
 20
2.7587685E+002
 11
2.3780946E+002
 21
2.6641543E+002
  0
LINE
  8
106
  6
CENTERLINE
 62
1
 10
2.2688575E+002
 20
2.589024E+002
 11
2.2229597E+002
 21
2.7597002E+002
  0
LINE
  8
106
  6
CENTERLINE
 62
1
 10
1.7428651E+002
 20
2.5888177E+002
 11
1.7663129E+002
 21
2.5016244E+002
  0
CIRCLE
  8
104
  6
CONTINUOUS
 62
40
 10
2.2454096E+002
 20
2.6762173E+002
 40
2.8000135
  0
INSERT
  2
*XH60
  8
108
 10
2.244192E+002
 20
2.6774349E+002
  0
INSERT
  2
*XH61
  8
108
 10
2.2434847E+002
 20
2.5385663E+002
  0
LINE
  8
104
  6
CONTINUOUS
 62
40
 10
2.1854096E+002
 20
2.5537173E+002
 11
2.3054096E+002
 21
2.5537173E+002
  0
LINE
  8
106
  6
CENTERLINE
 62
1
 10
2.2454096E+002
 20
2.7583099E+002
 11
2.2454096E+002
 21
2.734522E+002
  0
LINE
  8
106
  6
CENTERLINE
 62
1
 10
2.2454096E+002
 20
2.6150906E+002
 11
2.2454096E+002
 21
2.5045815E+002
  0
LINE
  8
104
  6
CONTINUOUS
 62
40
 10
2.3054096E+002
 20
2.6483788E+002
 11
2.3054096E+002
 21
2.5237173E+002
  0
LINE
  8
104
  6
CONTINUOUS
 62
40
 10
2.3054096E+002
 20
2.5237173E+002
 11
2.1854096E+002
 21
2.5237173E+002
  0
LINE
  8
104
  6
CONTINUOUS
 62
40
 10
2.1854096E+002
 20
2.5237173E+002
 11
2.1854096E+002
 21
2.6034075E+002
  0
LINE
  8
104
  6
CONTINUOUS
 62
40
 10
2.1854096E+002
 20
2.7189501E+002
 11
2.1854096E+002
 21
2.7337173E+002
  0
LINE
  8
104
  6
CONTINUOUS
 62
40
 10
2.1854096E+002
 20
2.7337173E+002
 11
2.2280988E+002
 21
2.7337173E+002
  0
LINE
  8
104
  6
CONTINUOUS
 62
40
 10
2.2280988E+002
 20
2.7337173E+002
 11
2.2352583E+002
 21
2.7337173E+002
  0
LINE
  8
104
  6
CONTINUOUS
 62
40
 10
2.2647047E+002
 20
2.7337173E+002
 11
2.3054096E+002
 21
2.7337173E+002
  0
LINE
  8
104
  6
CONTINUOUS
 62
40
 10
2.3054096E+002
 20
2.7337173E+002
 11
2.3054096E+002
 21
2.7264349E+002
  0
LINE
  8
104
  6
CONTINUOUS
 62
40
 10
2.4454096E+002
 20
2.4814284E+002
 11
2.4454096E+002
 21
2.5214284E+002
  0
LINE
  8
104
  6
CONTINUOUS
 62
40
 10
2.4454096E+002
 20
2.5214284E+002
 11
2.4254096E+002
 21
2.5214284E+002
  0
LINE
  8
104
  6
CONTINUOUS
 62
40
 10
2.4254096E+002
 20
2.5214284E+002
 11
2.4254096E+002
 21
2.4814284E+002
  0
LINE
  8
104
  6
CONTINUOUS
 62
40
 10
2.4254096E+002
 20
2.4814284E+002
 11
2.3861597E+002
 21
2.4814284E+002
  0
LINE
  8
104
  6
CONTINUOUS
 62
40
 10
2.3861597E+002
 20
2.4814284E+002
 11
2.3754096E+002
 21
2.4921786E+002
  0
LINE
  8
104
  6
CONTINUOUS
 62
40
 10
2.3754096E+002
 20
2.4921786E+002
 11
2.3754096E+002
 21
2.6214285E+002
  0
LINE
  8
104
  6
CONTINUOUS
 62
40
 10
2.3754096E+002
 20
2.6214285E+002
 11
2.3784098E+002
 21
2.6214285E+002
  0
ARC
  8
104
  6
CONTINUOUS
 62
40
 10
2.3784097E+002
 20
2.6314283E+002
 40
9.9998034E-001
 50
2.7000059E+002
 51
3.6000113E+002
  0
LINE
  8
104
  6
CONTINUOUS
 62
40
 10
2.3884095E+002
 20
2.6314285E+002
 11
2.3884095E+002
 21
2.6464288E+002
  0
ARC
  8
104
  6
CONTINUOUS
 62
40
 10
2.3784097E+002
 20
2.646429E+002
 40
9.9997613E-001
 50
3.5999863E+002
 51
4.4999965E+002
  0
LINE
  8
104
  6
CONTINUOUS
 62
40
 10
2.3784098E+002
 20
2.6564288E+002
 11
2.3604096E+002
 21
2.6564288E+002
  0
LINE
  8
104
  6
CONTINUOUS
 62
40
 10
2.3604096E+002
 20
2.6564288E+002
 11
2.3604096E+002
 21
2.6814285E+002
  0
LINE
  8
104
  6
CONTINUOUS
 62
40
 10
2.3604096E+002
 20
2.6814285E+002
 11
2.3879096E+002
 21
2.6814285E+002
  0
ARC
  8
104
  6
CONTINUOUS
 62
40
 10
2.3879095E+002
 20
2.7014286E+002
 40
2.0000143
 50
2.7000041E+002
 51
3.6000048E+002
  0
LINE
  8
104
  6
CONTINUOUS
 62
40
 10
2.4079096E+002
 20
2.7014288E+002
 11
2.4079096E+002
 21
2.7159286E+002
  0
ARC
  8
104
  6
CONTINUOUS
 62
40
 10
2.3879096E+002
 20
2.7159286E+002
 40
2.0000017
 50
4.75002E-005
 51
8.9999952E+001
  0
LINE
  8
104
  6
CONTINUOUS
 62
40
 10
2.3879096E+002
 20
2.7359286E+002
 11
2.3604096E+002
 21
2.7359286E+002
  0
LINE
  8
104
  6
CONTINUOUS
 62
40
 10
2.3604096E+002
 20
2.7359286E+002
 11
2.3604096E+002
 21
2.7614288E+002
  0
LINE
  8
104
  6
CONTINUOUS
 62
40
 10
2.3604096E+002
 20
2.7614288E+002
 11
2.5104096E+002
 21
2.7614288E+002
  0
LINE
  8
104
  6
CONTINUOUS
 62
40
 10
2.5104096E+002
 20
2.7614288E+002
 11
2.5104096E+002
 21
2.7359286E+002
  0
LINE
  8
104
  6
CONTINUOUS
 62
40
 10
2.5104096E+002
 20
2.7359286E+002
 11
2.4829096E+002
 21
2.7359286E+002
  0
ARC
  8
104
  6
CONTINUOUS
 62
40
 10
2.4829097E+002
 20
2.7159285E+002
 40
2.0000066
 50
9.000019E+001
 51
1.7999981E+002
  0
LINE
  8
104
  6
CONTINUOUS
 62
40
 10
2.4629096E+002
 20
2.7159286E+002
 11
2.4629096E+002
 21
2.7014288E+002
  0
ARC
  8
104
  6
CONTINUOUS
 62
40
 10
2.4829098E+002
 20
2.701429E+002
 40
2.0000193
 50
1.8000055E+002
 51
2.6999945E+002
  0
LINE
  8
104
  6
CONTINUOUS
 62
40
 10
2.4829096E+002
 20
2.6814288E+002
 11
2.5104096E+002
 21
2.6814288E+002
  0
LINE
  8
104
  6
CONTINUOUS
 62
40
 10
2.5104096E+002
 20
2.6814288E+002
 11
2.5104096E+002
 21
2.6564288E+002
  0
LINE
  8
104
  6
CONTINUOUS
 62
40
 10
2.5104096E+002
 20
2.6564288E+002
 11
2.4924097E+002
 21
2.6564288E+002
  0
ARC
  8
104
  6
CONTINUOUS
 62
40
 10
2.4924097E+002
 20
2.6464288E+002
 40
9.9999681E-001
 50
8.9999817E+001
 51
1.8000018E+002
  0
LINE
  8
104
  6
CONTINUOUS
 62
40
 10
2.4824097E+002
 20
2.6464288E+002
 11
2.4824097E+002
 21
2.6314285E+002
  0
ARC
  8
104
  6
CONTINUOUS
 62
40
 10
2.4924098E+002
 20
2.6314285E+002
 40
1.000001
 50
1.8000006E+002
 51
2.6999994E+002
  0
LINE
  8
104
  6
CONTINUOUS
 62
40
 10
2.4924097E+002
 20
2.6214285E+002
 11
2.4954096E+002
 21
2.6214285E+002
  0
LINE
  8
104
  6
CONTINUOUS
 62
40
 10
2.4954096E+002
 20
2.6214285E+002
 11
2.4954096E+002
 21
2.4928643E+002
  0
LINE
  8
104
  6
CONTINUOUS
 62
40
 10
2.4954096E+002
 20
2.4928643E+002
 11
2.4954096E+002
 21
2.4921786E+002
  0
LINE
  8
104
  6
CONTINUOUS
 62
40
 10
2.4954096E+002
 20
2.4921786E+002
 11
2.4846598E+002
 21
2.4814284E+002
  0
LINE
  8
104
  6
CONTINUOUS
 62
40
 10
2.4846598E+002
 20
2.4814284E+002
 11
2.4454096E+002
 21
2.4814284E+002
  0
LINE
  8
104
  6
CONTINUOUS
 62
40
 10
2.3879096E+002
 20
2.7359286E+002
 11
2.4829096E+002
 21
2.7359286E+002
  0
LINE
  8
104
  6
CONTINUOUS
 62
40
 10
2.4829096E+002
 20
2.6814285E+002
 11
2.3879096E+002
 21
2.6814285E+002
  0
LINE
  8
104
  6
CONTINUOUS
 62
40
 10
2.3784098E+002
 20
2.6564288E+002
 11
2.4924097E+002
 21
2.6564288E+002
  0
LINE
  8
104
  6
CONTINUOUS
 62
40
 10
2.4954096E+002
 20
2.6214288E+002
 11
2.3784098E+002
 21
2.6214288E+002
  0
LINE
  8
104
  6
CONTINUOUS
 62
40
 10
2.3754096E+002
 20
2.4921786E+002
 11
2.4254096E+002
 21
2.4921786E+002
  0
LINE
  8
104
  6
CONTINUOUS
 62
40
 10
2.4454096E+002
 20
2.4921786E+002
 11
2.4954096E+002
 21
2.4921786E+002
  0
LINE
  8
99
  6
CONTINUOUS
 62
1
 10
2.3861597E+002
 20
2.6214285E+002
 11
2.3861597E+002
 21
2.4814284E+002
  0
LINE
  8
99
  6
CONTINUOUS
 62
1
 10
2.4846598E+002
 20
2.4814284E+002
 11
2.4846598E+002
 21
2.6214285E+002
  0
LINE
  8
106
  6
CENTERLINE
 62
1
 10
2.4354096E+002
 20
2.7868267E+002
 11
2.4354096E+002
 21
2.455346E+002
  0
LINE
  8
104
  6
CONTINUOUS
 62
40
 10
2.3754096E+002
 20
2.4737173E+002
 11
2.4954096E+002
 21
2.4737173E+002
  0
LINE
  8
104
  6
CONTINUOUS
 62
40
 10
2.3754096E+002
 20
2.5737173E+002
 11
2.3204096E+002
 21
2.5737173E+002
  0
LINE
  8
104
  6
CONTINUOUS
 62
40
 10
2.3204096E+002
 20
2.5737173E+002
 11
2.3154096E+002
 21
2.5687173E+002
  0
LINE
  8
104
  6
CONTINUOUS
 62
40
 10
2.3154096E+002
 20
2.5687173E+002
 11
2.3154096E+002
 21
2.5237173E+002
  0
LINE
  8
104
  6
CONTINUOUS
 62
40
 10
2.3154096E+002
 20
2.5237173E+002
 11
2.3554096E+002
 21
2.5237173E+002
  0
LINE
  8
104
  6
CONTINUOUS
 62
40
 10
2.3554096E+002
 20
2.5237173E+002
 11
2.3554096E+002
 21
2.4737173E+002
  0
LINE
  8
104
  6
CONTINUOUS
 62
40
 10
2.3554096E+002
 20
2.4737173E+002
 11
2.3754096E+002
 21
2.4737173E+002
  0
LINE
  8
104
  6
CONTINUOUS
 62
40
 10
2.3754096E+002
 20
2.4737173E+002
 11
2.3846403E+002
 21
2.4829479E+002
  0
LINE
  8
104
  6
CONTINUOUS
 62
40
 10
2.3846403E+002
 20
2.4829479E+002
 11
2.3754096E+002
 21
2.4921786E+002
  0
LINE
  8
104
  6
CONTINUOUS
 62
40
 10
2.3754096E+002
 20
2.4921786E+002
 11
2.3754096E+002
 21
2.5737173E+002
  0
INSERT
  2
*XH62
  8
108
 10
2.3530355E+002
 20
2.5227381E+002
  0
LINE
  8
105
  6
HIDDEN
 62
1
 10
2.3204096E+002
 20
2.5237173E+002
 11
2.3304096E+002
 21
2.5137173E+002
  0
LINE
  8
105
  6
HIDDEN
 62
1
 10
2.3304096E+002
 20
2.5137173E+002
 11
2.3404096E+002
 21
2.5237173E+002
  0
LINE
  8
105
  6
HIDDEN
 62
1
 10
2.5304096E+002
 20
2.5237173E+002
 11
2.5404096E+002
 21
2.5137173E+002
  0
LINE
  8
105
  6
HIDDEN
 62
1
 10
2.5404096E+002
 20
2.5137173E+002
 11
2.5504096E+002
 21
2.5237173E+002
  0
LINE
  8
104
  6
CONTINUOUS
 62
40
 10
2.3204096E+002
 20
2.5237173E+002
 11
2.3524097E+002
 21
2.5237173E+002
  0
LINE
  8
106
  6
CENTERLINE
 62
1
 10
2.3304096E+002
 20
2.5314291E+002
 11
2.3304096E+002
 21
2.4876659E+002
  0
LINE
  8
106
  6
CENTERLINE
 62
1
 10
2.5404096E+002
 20
2.4876659E+002
 11
2.5404096E+002
 21
2.5329043E+002
  0
LINE
  8
104
  6
CONTINUOUS
 62
40
 10
2.5504096E+002
 20
2.5737173E+002
 11
2.5554096E+002
 21
2.5687173E+002
  0
LINE
  8
104
  6
CONTINUOUS
 62
40
 10
2.5554096E+002
 20
2.5687173E+002
 11
2.5554096E+002
 21
2.5237173E+002
  0
LINE
  8
104
  6
CONTINUOUS
 62
40
 10
2.5554096E+002
 20
2.5237173E+002
 11
2.5154096E+002
 21
2.5237173E+002
  0
LINE
  8
104
  6
CONTINUOUS
 62
40
 10
2.5154096E+002
 20
2.5237173E+002
 11
2.5154096E+002
 21
2.4737173E+002
  0
LINE
  8
104
  6
CONTINUOUS
 62
40
 10
2.5154096E+002
 20
2.4737173E+002
 11
2.4954096E+002
 21
2.4737173E+002
  0
LINE
  8
104
  6
CONTINUOUS
 62
40
 10
2.4954096E+002
 20
2.4737173E+002
 11
2.486179E+002
 21
2.4829479E+002
  0
LINE
  8
104
  6
CONTINUOUS
 62
40
 10
2.486179E+002
 20
2.4829479E+002
 11
2.4954096E+002
 21
2.4921786E+002
  0
LINE
  8
104
  6
CONTINUOUS
 62
40
 10
2.4954096E+002
 20
2.4921786E+002
 11
2.4954096E+002
 21
2.5737173E+002
  0
LINE
  8
104
  6
CONTINUOUS
 62
40
 10
2.4954096E+002
 20
2.5737173E+002
 11
2.5504096E+002
 21
2.5737173E+002
  0
INSERT
  2
*XH63
  8
108
 10
2.518601E+002
 20
2.5297066E+002
  0
LINE
  8
104
  6
CONTINUOUS
 62
40
 10
2.4954096E+002
 20
2.4737173E+002
 11
2.486179E+002
 21
2.4829479E+002
  0
LINE
  8
104
  6
CONTINUOUS
 62
40
 10
2.4846598E+002
 20
2.4814284E+002
 11
2.4846598E+002
 21
2.4737173E+002
  0
LINE
  8
104
  6
CONTINUOUS
 62
40
 10
2.3861597E+002
 20
2.4814284E+002
 11
2.3861597E+002
 21
2.4737173E+002
  0
LINE
  8
104
  6
CONTINUOUS
 62
40
 10
2.3754096E+002
 20
2.4737173E+002
 11
2.3846403E+002
 21
2.4829479E+002
  0
LINE
  8
99
  6
CONTINUOUS
 62
1
 10
2.4954096E+002
 20
2.4737173E+002
 11
2.4954096E+002
 21
2.4851528E+002
  0
LINE
  8
99
  6
CONTINUOUS
 62
1
 10
2.4954096E+002
 20
2.4851528E+002
 11
2.4954096E+002
 21
2.4928643E+002
  0
LINE
  8
99
  6
CONTINUOUS
 62
1
 10
2.3754096E+002
 20
2.4921786E+002
 11
2.3754096E+002
 21
2.4737173E+002
  0
TEXT
  8
103
  6
CONTINUOUS
 62
40
 10
1.1494209E+002
 20
2.2258979E+002
 40
5.0
  1
Zapfenband 7461
 41
6.6E-001
 72
1
 11
9.0192086E+001
 21
2.2008979E+002
 73
2
  0
LINE
  8
104
  6
CONTINUOUS
 62
40
 10
6.1226418E+001
 20
2.5237173E+002
 11
6.1226418E+001
 21
2.4737173E+002
  0
LINE
  8
104
  6
CONTINUOUS
 62
40
 10
6.1226418E+001
 20
2.4737173E+002
 11
6.2726418E+001
 21
2.4737173E+002
  0
LINE
  8
104
  6
CONTINUOUS
 62
40
 10
6.2726418E+001
 20
2.4737173E+002
 11
6.5226418E+001
 21
2.4987173E+002
  0
LINE
  8
104
  6
CONTINUOUS
 62
40
 10
6.5226418E+001
 20
2.4987173E+002
 11
6.5226418E+001
 21
2.5237173E+002
  0
LINE
  8
104
  6
CONTINUOUS
 62
40
 10
6.5226418E+001
 20
2.5237173E+002
 11
6.1226418E+001
 21
2.5237173E+002
  0
LINE
  8
104
  6
CONTINUOUS
 62
40
 10
8.4726418E+001
 20
2.4737173E+002
 11
8.6226418E+001
 21
2.4737173E+002
  0
LINE
  8
104
  6
CONTINUOUS
 62
40
 10
8.6226418E+001
 20
2.4737173E+002
 11
8.6226418E+001
 21
2.5237173E+002
  0
LINE
  8
104
  6
CONTINUOUS
 62
40
 10
8.6226418E+001
 20
2.5237173E+002
 11
8.2226418E+001
 21
2.5237173E+002
  0
LINE
  8
104
  6
CONTINUOUS
 62
40
 10
8.2226418E+001
 20
2.5237173E+002
 11
8.2226418E+001
 21
2.4987173E+002
  0
LINE
  8
104
  6
CONTINUOUS
 62
40
 10
8.2226418E+001
 20
2.4987173E+002
 11
8.4726418E+001
 21
2.4737173E+002
  0
LINE
  8
104
  6
CONTINUOUS
 62
40
 10
7.0226418E+001
 20
2.5237173E+002
 11
7.7226418E+001
 21
2.5237173E+002
  0
LINE
  8
104
  6
CONTINUOUS
 62
40
 10
7.7226418E+001
 20
2.5237173E+002
 11
7.7226418E+001
 21
2.4987173E+002
  0
LINE
  8
104
  6
CONTINUOUS
 62
40
 10
7.7226418E+001
 20
2.4987173E+002
 11
7.4726418E+001
 21
2.4737173E+002
  0
LINE
  8
104
  6
CONTINUOUS
 62
40
 10
7.4726418E+001
 20
2.4737173E+002
 11
7.2726418E+001
 21
2.4737173E+002
  0
LINE
  8
104
  6
CONTINUOUS
 62
40
 10
7.2726418E+001
 20
2.4737173E+002
 11
7.0226418E+001
 21
2.4987173E+002
  0
LINE
  8
104
  6
CONTINUOUS
 62
40
 10
7.0226418E+001
 20
2.4987173E+002
 11
7.0226418E+001
 21
2.5237173E+002
  0
LINE
  8
104
  6
CONTINUOUS
 62
40
 10
6.1226418E+001
 20
2.5237173E+002
 11
6.1226418E+001
 21
2.7537173E+002
  0
LINE
  8
104
  6
CONTINUOUS
 62
40
 10
6.1226418E+001
 20
2.7537173E+002
 11
8.6226418E+001
 21
2.7537173E+002
  0
LINE
  8
104
  6
CONTINUOUS
 62
40
 10
8.6226418E+001
 20
2.7537173E+002
 11
8.6226418E+001
 21
2.5237173E+002
  0
LINE
  8
106
  6
CENTERLINE
 62
1
 10
7.3726418E+001
 20
2.8465746E+002
 11
7.3726418E+001
 21
2.3900835E+002
  0
INSERT
  2
*XH64
  8
108
 10
7.2827241E+001
 20
2.5071124E+002
  0
INSERT
  2
*XH65
  8
108
 10
8.4596922E+001
 20
2.4975301E+002
  0
INSERT
  2
*XH66
  8
108
 10
6.274066E+001
 20
2.5052416E+002
  0
LINE
  8
MED-0
  6
CENTERLINE
 62
150
 10
8.2226418E+001
 20
2.7237173E+002
 11
7.7226418E+001
 21
2.7237173E+002
  0
LINE
  8
MED-0
  6
CENTERLINE
 62
150
 10
7.7226418E+001
 20
2.7237173E+002
 11
7.7226418E+001
 21
2.4987173E+002
  0
LINE
  8
MED-0
  6
CENTERLINE
 62
150
 10
7.7226418E+001
 20
2.4987173E+002
 11
8.2226418E+001
 21
2.4987173E+002
  0
LINE
  8
MED-0
  6
CENTERLINE
 62
150
 10
8.2226418E+001
 20
2.4987173E+002
 11
8.2226418E+001
 21
2.7237173E+002
  0
LINE
  8
99
  6
CONTINUOUS
 62
1
 10
7.792643E+001
 20
2.7237173E+002
 11
7.792643E+001
 21
2.4987173E+002
  0
LINE
  8
99
  6
CONTINUOUS
 62
1
 10
8.1526406E+001
 20
2.4987173E+002
 11
8.1526406E+001
 21
2.7237173E+002
  0
LINE
  8
104
  6
CONTINUOUS
 62
40
 10
7.4726418E+001
 20
2.4737173E+002
 11
7.7226418E+001
 21
2.4987173E+002
  0
LINE
  8
104
  6
CONTINUOUS
 62
40
 10
7.7226418E+001
 20
2.4987173E+002
 11
7.7226418E+001
 21
2.7237173E+002
  0
LINE
  8
104
  6
CONTINUOUS
 62
40
 10
7.7226418E+001
 20
2.7237173E+002
 11
8.2226418E+001
 21
2.7237173E+002
  0
LINE
  8
104
  6
CONTINUOUS
 62
40
 10
8.2226418E+001
 20
2.7237173E+002
 11
8.2226418E+001
 21
2.4987173E+002
  0
LINE
  8
104
  6
CONTINUOUS
 62
40
 10
8.2226418E+001
 20
2.4987173E+002
 11
8.4726418E+001
 21
2.4737173E+002
  0
LINE
  8
104
  6
CONTINUOUS
 62
40
 10
8.4726418E+001
 20
2.4737173E+002
 11
7.4726418E+001
 21
2.4737173E+002
  0
LINE
  8
104
  6
CONTINUOUS
 62
40
 10
7.7226418E+001
 20
2.4987173E+002
 11
8.2226418E+001
 21
2.4987173E+002
  0
LINE
  8
106
  6
CENTERLINE
 62
1
 10
7.9726418E+001
 20
2.745349E+002
 11
7.9726418E+001
 21
2.4737173E+002
  0
LINE
  8
MED-0
  6
CENTERLINE
 62
150
 10
2.8804096E+002
 20
2.7237173E+002
 11
2.8304096E+002
 21
2.7237173E+002
  0
LINE
  8
MED-0
  6
CENTERLINE
 62
150
 10
2.8304096E+002
 20
2.7237173E+002
 11
2.8304096E+002
 21
2.4987173E+002
  0
LINE
  8
MED-0
  6
CENTERLINE
 62
150
 10
2.8304096E+002
 20
2.4987173E+002
 11
2.8804096E+002
 21
2.4987173E+002
  0
LINE
  8
MED-0
  6
CENTERLINE
 62
150
 10
2.8804096E+002
 20
2.4987173E+002
 11
2.8804096E+002
 21
2.7237173E+002
  0
LINE
  8
99
  6
CONTINUOUS
 62
1
 10
2.8374097E+002
 20
2.7237173E+002
 11
2.8374097E+002
 21
2.4987173E+002
  0
LINE
  8
99
  6
CONTINUOUS
 62
1
 10
2.8734095E+002
 20
2.4987173E+002
 11
2.8734095E+002
 21
2.7237173E+002
  0
LINE
  8
104
  6
CONTINUOUS
 62
40
 10
2.8054096E+002
 20
2.4737173E+002
 11
2.8304096E+002
 21
2.4987173E+002
  0
LINE
  8
104
  6
CONTINUOUS
 62
40
 10
2.8304096E+002
 20
2.4987173E+002
 11
2.8304096E+002
 21
2.7237173E+002
  0
LINE
  8
104
  6
CONTINUOUS
 62
40
 10
2.8304096E+002
 20
2.7237173E+002
 11
2.8804096E+002
 21
2.7237173E+002
  0
LINE
  8
104
  6
CONTINUOUS
 62
40
 10
2.8804096E+002
 20
2.7237173E+002
 11
2.8804096E+002
 21
2.4987173E+002
  0
LINE
  8
104
  6
CONTINUOUS
 62
40
 10
2.8804096E+002
 20
2.4987173E+002
 11
2.9054096E+002
 21
2.4737173E+002
  0
LINE
  8
104
  6
CONTINUOUS
 62
40
 10
2.9054096E+002
 20
2.4737173E+002
 11
2.8054096E+002
 21
2.4737173E+002
  0
LINE
  8
104
  6
CONTINUOUS
 62
40
 10
2.8304096E+002
 20
2.4987173E+002
 11
2.8804096E+002
 21
2.4987173E+002
  0
LINE
  8
106
  6
CENTERLINE
 62
1
 10
2.8554096E+002
 20
2.745349E+002
 11
2.8554096E+002
 21
2.4737173E+002
  0
LINE
  8
MED-0
  6
CENTERLINE
 62
150
 10
1.3804099E+002
 20
2.7237173E+002
 11
1.3304099E+002
 21
2.7237173E+002
  0
LINE
  8
MED-0
  6
CENTERLINE
 62
150
 10
1.3304099E+002
 20
2.7237173E+002
 11
1.3304099E+002
 21
2.4987173E+002
  0
LINE
  8
MED-0
  6
CENTERLINE
 62
150
 10
1.3304099E+002
 20
2.4987173E+002
 11
1.3804099E+002
 21
2.4987173E+002
  0
LINE
  8
MED-0
  6
CENTERLINE
 62
150
 10
1.3804099E+002
 20
2.4987173E+002
 11
1.3804099E+002
 21
2.7237173E+002
  0
LINE
  8
99
  6
CONTINUOUS
 62
1
 10
1.3374101E+002
 20
2.7237173E+002
 11
1.3374101E+002
 21
2.4987173E+002
  0
LINE
  8
99
  6
CONTINUOUS
 62
1
 10
1.3734098E+002
 20
2.4987173E+002
 11
1.3734098E+002
 21
2.7237173E+002
  0
LINE
  8
104
  6
CONTINUOUS
 62
40
 10
1.3054099E+002
 20
2.4737173E+002
 11
1.3304099E+002
 21
2.4987173E+002
  0
LINE
  8
104
  6
CONTINUOUS
 62
40
 10
1.3304099E+002
 20
2.4987173E+002
 11
1.3304099E+002
 21
2.7237173E+002
  0
LINE
  8
104
  6
CONTINUOUS
 62
40
 10
1.3304099E+002
 20
2.7237173E+002
 11
1.3804099E+002
 21
2.7237173E+002
  0
LINE
  8
104
  6
CONTINUOUS
 62
40
 10
1.3804099E+002
 20
2.7237173E+002
 11
1.3804099E+002
 21
2.4987173E+002
  0
LINE
  8
104
  6
CONTINUOUS
 62
40
 10
1.3804099E+002
 20
2.4987173E+002
 11
1.4054099E+002
 21
2.4737173E+002
  0
LINE
  8
104
  6
CONTINUOUS
 62
40
 10
1.4054099E+002
 20
2.4737173E+002
 11
1.3054099E+002
 21
2.4737173E+002
  0
LINE
  8
104
  6
CONTINUOUS
 62
40
 10
1.3304099E+002
 20
2.4987173E+002
 11
1.3804099E+002
 21
2.4987173E+002
  0
LINE
  8
106
  6
CENTERLINE
 62
1
 10
1.3554099E+002
 20
2.745349E+002
 11
1.3554099E+002
 21
2.4737173E+002
  0
LINE
  8
MED-0
  6
CENTERLINE
 62
150
 10
7.0226418E+001
 20
2.7237173E+002
 11
6.5226418E+001
 21
2.7237173E+002
  0
LINE
  8
MED-0
  6
CENTERLINE
 62
150
 10
6.5226418E+001
 20
2.7237173E+002
 11
6.5226418E+001
 21
2.4987173E+002
  0
LINE
  8
MED-0
  6
CENTERLINE
 62
150
 10
6.5226418E+001
 20
2.4987173E+002
 11
7.0226418E+001
 21
2.4987173E+002
  0
LINE
  8
MED-0
  6
CENTERLINE
 62
150
 10
7.0226418E+001
 20
2.4987173E+002
 11
7.0226418E+001
 21
2.7237173E+002
  0
LINE
  8
99
  6
CONTINUOUS
 62
1
 10
6.592643E+001
 20
2.7237173E+002
 11
6.592643E+001
 21
2.4987173E+002
  0
LINE
  8
99
  6
CONTINUOUS
 62
1
 10
6.9526406E+001
 20
2.4987173E+002
 11
6.9526406E+001
 21
2.7237173E+002
  0
LINE
  8
104
  6
CONTINUOUS
 62
40
 10
6.2726418E+001
 20
2.4737173E+002
 11
6.5226418E+001
 21
2.4987173E+002
  0
LINE
  8
104
  6
CONTINUOUS
 62
40
 10
6.5226418E+001
 20
2.4987173E+002
 11
6.5226418E+001
 21
2.7237173E+002
  0
LINE
  8
104
  6
CONTINUOUS
 62
40
 10
6.5226418E+001
 20
2.7237173E+002
 11
7.0226418E+001
 21
2.7237173E+002
  0
LINE
  8
104
  6
CONTINUOUS
 62
40
 10
7.0226418E+001
 20
2.7237173E+002
 11
7.0226418E+001
 21
2.4987173E+002
  0
LINE
  8
104
  6
CONTINUOUS
 62
40
 10
7.0226418E+001
 20
2.4987173E+002
 11
7.2726418E+001
 21
2.4737173E+002
  0
LINE
  8
104
  6
CONTINUOUS
 62
40
 10
7.2726418E+001
 20
2.4737173E+002
 11
6.2726418E+001
 21
2.4737173E+002
  0
LINE
  8
104
  6
CONTINUOUS
 62
40
 10
6.5226418E+001
 20
2.4987173E+002
 11
7.0226418E+001
 21
2.4987173E+002
  0
LINE
  8
106
  6
CENTERLINE
 62
1
 10
6.7726418E+001
 20
2.745349E+002
 11
6.7726418E+001
 21
2.4737173E+002
  0
LINE
  8
104
  6
CONTINUOUS
 62
40
 10
6.6226418E+001
 20
2.7281216E+002
 11
8.1226418E+001
 21
2.7281216E+002
  0
LINE
  8
104
  6
CONTINUOUS
 62
40
 10
7.7226418E+001
 20
2.6736217E+002
 11
7.0226418E+001
 21
2.6736217E+002
  0
LINE
  8
104
  6
CONTINUOUS
 62
40
 10
7.7226418E+001
 20
2.6486217E+002
 11
7.0226418E+001
 21
2.6486217E+002
  0
ARC
  8
104
  6
CONTINUOUS
 62
40
 10
6.8976378E+001
 20
2.6936215E+002
 40
1.9999791
 50
2.7000115E+002
 51
3.600006E+002
  0
LINE
  8
104
  6
CONTINUOUS
 62
40
 10
7.0976357E+001
 20
2.6936217E+002
 11
7.0976357E+001
 21
2.7081219E+002
  0
ARC
  8
104
  6
CONTINUOUS
 62
40
 10
6.8976397E+001
 20
2.708122E+002
 40
1.9999601
 50
3.5999972E+002
 51
4.4999939E+002
  0
LINE
  8
104
  6
CONTINUOUS
 62
40
 10
6.8976418E+001
 20
2.7281216E+002
 11
6.6226418E+001
 21
2.7281216E+002
  0
LINE
  8
104
  6
CONTINUOUS
 62
40
 10
6.6226418E+001
 20
2.7281216E+002
 11
6.6226418E+001
 21
2.7536217E+002
  0
LINE
  8
104
  6
CONTINUOUS
 62
40
 10
6.6226418E+001
 20
2.7536217E+002
 11
8.1226418E+001
 21
2.7536217E+002
  0
LINE
  8
104
  6
CONTINUOUS
 62
40
 10
8.1226418E+001
 20
2.7536217E+002
 11
8.1226418E+001
 21
2.7281216E+002
  0
LINE
  8
104
  6
CONTINUOUS
 62
40
 10
8.1226418E+001
 20
2.7281216E+002
 11
7.8476418E+001
 21
2.7281216E+002
  0
ARC
  8
104
  6
CONTINUOUS
 62
40
 10
7.8476392E+001
 20
2.7081215E+002
 40
2.0000042
 50
8.9999261E+001
 51
1.7999902E+002
  0
LINE
  8
104
  6
CONTINUOUS
 62
40
 10
7.6476388E+001
 20
2.7081219E+002
 11
7.6476388E+001
 21
2.6936217E+002
  0
ARC
  8
104
  6
CONTINUOUS
 62
40
 10
7.8476411E+001
 20
2.693622E+002
 40
2.0000232
 50
1.8000066E+002
 51
2.7000019E+002
  0
LINE
  8
105
  6
HIDDEN
 62
1
 10
6.6226418E+001
 20
2.6736217E+002
 11
6.6226418E+001
 21
2.6486217E+002
  0
LINE
  8
105
  6
HIDDEN
 62
1
 10
6.6226418E+001
 20
2.6486217E+002
 11
7.0226418E+001
 21
2.6486217E+002
  0
LINE
  8
105
  6
HIDDEN
 62
1
 10
7.7226418E+001
 20
2.6486217E+002
 11
8.1226418E+001
 21
2.6486217E+002
  0
LINE
  8
105
  6
HIDDEN
 62
1
 10
8.1226418E+001
 20
2.6486217E+002
 11
8.1226418E+001
 21
2.6736217E+002
  0
LINE
  8
105
  6
HIDDEN
 62
1
 10
8.1226418E+001
 20
2.6736217E+002
 11
7.7226418E+001
 21
2.6736217E+002
  0
LINE
  8
105
  6
HIDDEN
 62
1
 10
6.6226418E+001
 20
2.6736217E+002
 11
7.0226418E+001
 21
2.6736217E+002
  0
LINE
  8
98
  6
CONTINUOUS
 62
1
 10
5.0
 20
5.0
 11
4.15E+002
 21
5.0
  0
LINE
  8
98
  6
CONTINUOUS
 62
1
 10
4.15E+002
 20
5.0
 11
4.15E+002
 21
2.92E+002
  0
LINE
  8
98
  6
CONTINUOUS
 62
1
 10
4.15E+002
 20
2.92E+002
 11
5.0
 21
2.92E+002
  0
LINE
  8
98
  6
CONTINUOUS
 62
1
 10
5.0
 20
2.92E+002
 11
5.0
 21
5.0
  0
TEXT
  8
103
  6
CONTINUOUS
 62
40
 10
2.9172291E+001
 20
2.875738E+002
 40
5.0
  1
M 1:1
 41
6.3E-001
 72
1
 11
2.1297291E+001
 21
2.850738E+002
 73
2
  0
ENDSEC
  0
EOF
