  0
SECTION
  2
HEADER
  9
$ACADVER
  1
AC1009
999
I-DEAS 8 Not Encoded
  9
$EXTMIN
 10
0.0
 20
0.0
  9
$EXTMAX
 10
4.2E+002
 20
2.97E+002
  9
$TEXTSIZE
 40
1.25E-001
  9
$LTSCALE
 40
1.0
  9
$CLAYER
  8
104
  9
$CECOLOR
 62
40
  9
$DIMASZ
 40
1.25E-001
  9
$DIMEXO
 40
6.25E-002
  9
$DIMDLI
 40
2.5E-001
  9
$DIMEXE
 40
1.25E-001
  9
$DIMTP
 40
5.0E-003
  9
$DIMTM
 40
-5.0E-003
  9
$DIMTXT
 40
3.0
  9
$DIMLIM
 70
0
  9
$DIMTIH
 70
1
  9
$DIMTOH
 70
1
  9
$DIMSE1
 70
0
  9
$DIMSE2
 70
0
  9
$DIMTAD
 70
0
  9
$DIMASO
 70
1
  9
$DIMALT
 70
0
  9
$DIMALTD
 70
0
  9
$DIMTOFL
 70
1
  9
$DIMTIX
 70
0
  9
$DIMSAH
 70
0
  9
$DIMTFAC
 40
1.0
  9
$DIMGAP
 40
6.25E-002
  9
$LUNITS
 70
2
  9
$LUPREC
 70
3
  9
$FILLETRAD
 40
2.0
  9
$AUNITS
 70
0
  9
$AUPREC
 70
1
  9
$CHAMFERA
 40
1.0E+001
  9
$CHAMFERB
 40
1.0E+001
  9
$ANGBASE
 50
0.0
  9
$ANGDIR
 70
0
  9
$PDMODE
 70
2
  9
$PDSIZE
 40
-1.0E-002
  9
$SPLINETYPE
 70
6
  0
ENDSEC
  0
SECTION
  2
TABLES
  0
TABLE
  2
LTYPE
 70
7
  0
LTYPE
  2
HIDDENNEW00
  3
_ 
 70
64
 72
65
 73
3
 40
4.5
 49
1.5
 49
-1.5
 49
1.5
  0
LTYPE
  2
HIDDENNEW01
  3
_ 
 70
64
 72
65
 73
3
 40
4.5
 49
1.5
 49
-1.5
 49
1.5
  0
LTYPE
  2
HIDDEN
  3
_ 
 70
64
 72
65
 73
3
 40
4.5
 49
1.5
 49
-1.5
 49
1.5
  0
LTYPE
  2
CENTERLINE
  3
_ 
 70
64
 72
65
 73
5
 40
3.0E+001
 49
1.2E+001
 49
-1.5
 49
3.0
 49
-1.5
 49
1.2E+001
  0
LTYPE
  2
PHANTOM
  3
_ 
 70
64
 72
65
 73
7
 40
2.95E+001
 49
9.5
 49
-1.5
 49
3.0
 49
-1.5
 49
3.0
 49
-1.5
 49
9.5
  0
LTYPE
  2
SHORT_DASH
  3
_ 
 70
64
 72
65
 73
3
 40
3.0
 49
7.5E-001
 49
-1.5
 49
7.5E-001
  0
LTYPE
  2
LONG_DASH
  3
_ 
 70
64
 72
65
 73
3
 40
9.0
 49
2.25
 49
-4.5
 49
2.25
  0
ENDTAB
  0
TABLE
  2
LAYER
 70
258
  0
LAYER
  2
MED-1
 70
0
 62
3
  6
HIDDENNEW00
  0
LAYER
  2
2
 70
0
 62
7
  6
CONTINUOUS
  0
LAYER
  2
3
 70
0
 62
7
  6
CONTINUOUS
  0
LAYER
  2
4
 70
0
 62
7
  6
CONTINUOUS
  0
LAYER
  2
MED-5
 70
0
 62
5
  6
HIDDENNEW00
  0
LAYER
  2
MED-6
 70
0
 62
6
  6
HIDDENNEW00
  0
LAYER
  2
7
 70
0
 62
7
  6
CONTINUOUS
  0
LAYER
  2
8
 70
0
 62
7
  6
CONTINUOUS
  0
LAYER
  2
9
 70
0
 62
7
  6
CONTINUOUS
  0
LAYER
  2
10
 70
0
 62
7
  6
CONTINUOUS
  0
LAYER
  2
MED-11
 70
0
 62
70
  6
HIDDENNEW00
  0
LAYER
  2
12
 70
0
 62
7
  6
CONTINUOUS
  0
LAYER
  2
13
 70
0
 62
7
  6
CONTINUOUS
  0
LAYER
  2
14
 70
0
 62
7
  6
CONTINUOUS
  0
LAYER
  2
15
 70
0
 62
7
  6
CONTINUOUS
  0
LAYER
  2
16
 70
0
 62
7
  6
CONTINUOUS
  0
LAYER
  2
17
 70
0
 62
7
  6
CONTINUOUS
  0
LAYER
  2
18
 70
0
 62
7
  6
CONTINUOUS
  0
LAYER
  2
19
 70
0
 62
7
  6
CONTINUOUS
  0
LAYER
  2
20
 70
0
 62
7
  6
CONTINUOUS
  0
LAYER
  2
21
 70
0
 62
7
  6
CONTINUOUS
  0
LAYER
  2
22
 70
0
 62
7
  6
CONTINUOUS
  0
LAYER
  2
23
 70
0
 62
7
  6
CONTINUOUS
  0
LAYER
  2
24
 70
0
 62
7
  6
CONTINUOUS
  0
LAYER
  2
25
 70
0
 62
7
  6
CONTINUOUS
  0
LAYER
  2
26
 70
0
 62
7
  6
CONTINUOUS
  0
LAYER
  2
27
 70
0
 62
7
  6
CONTINUOUS
  0
LAYER
  2
28
 70
0
 62
7
  6
CONTINUOUS
  0
LAYER
  2
29
 70
0
 62
7
  6
CONTINUOUS
  0
LAYER
  2
30
 70
0
 62
7
  6
CONTINUOUS
  0
LAYER
  2
31
 70
0
 62
7
  6
CONTINUOUS
  0
LAYER
  2
32
 70
0
 62
7
  6
CONTINUOUS
  0
LAYER
  2
33
 70
0
 62
7
  6
CONTINUOUS
  0
LAYER
  2
34
 70
0
 62
7
  6
CONTINUOUS
  0
LAYER
  2
35
 70
0
 62
7
  6
CONTINUOUS
  0
LAYER
  2
36
 70
0
 62
7
  6
CONTINUOUS
  0
LAYER
  2
37
 70
0
 62
7
  6
CONTINUOUS
  0
LAYER
  2
38
 70
0
 62
7
  6
CONTINUOUS
  0
LAYER
  2
39
 70
0
 62
7
  6
CONTINUOUS
  0
LAYER
  2
40
 70
0
 62
7
  6
CONTINUOUS
  0
LAYER
  2
41
 70
0
 62
7
  6
CONTINUOUS
  0
LAYER
  2
42
 70
0
 62
7
  6
CONTINUOUS
  0
LAYER
  2
43
 70
0
 62
7
  6
CONTINUOUS
  0
LAYER
  2
44
 70
0
 62
7
  6
CONTINUOUS
  0
LAYER
  2
45
 70
0
 62
7
  6
CONTINUOUS
  0
LAYER
  2
46
 70
0
 62
7
  6
CONTINUOUS
  0
LAYER
  2
47
 70
0
 62
7
  6
CONTINUOUS
  0
LAYER
  2
48
 70
0
 62
7
  6
CONTINUOUS
  0
LAYER
  2
49
 70
0
 62
7
  6
CONTINUOUS
  0
LAYER
  2
50
 70
0
 62
7
  6
CONTINUOUS
  0
LAYER
  2
51
 70
0
 62
7
  6
CONTINUOUS
  0
LAYER
  2
52
 70
0
 62
7
  6
CONTINUOUS
  0
LAYER
  2
53
 70
0
 62
7
  6
CONTINUOUS
  0
LAYER
  2
54
 70
0
 62
7
  6
CONTINUOUS
  0
LAYER
  2
55
 70
0
 62
7
  6
CONTINUOUS
  0
LAYER
  2
56
 70
0
 62
7
  6
CONTINUOUS
  0
LAYER
  2
57
 70
0
 62
7
  6
CONTINUOUS
  0
LAYER
  2
58
 70
0
 62
7
  6
CONTINUOUS
  0
LAYER
  2
59
 70
0
 62
7
  6
CONTINUOUS
  0
LAYER
  2
60
 70
0
 62
7
  6
CONTINUOUS
  0
LAYER
  2
61
 70
0
 62
7
  6
CONTINUOUS
  0
LAYER
  2
62
 70
0
 62
7
  6
CONTINUOUS
  0
LAYER
  2
63
 70
0
 62
7
  6
CONTINUOUS
  0
LAYER
  2
64
 70
0
 62
7
  6
CONTINUOUS
  0
LAYER
  2
65
 70
0
 62
7
  6
CONTINUOUS
  0
LAYER
  2
66
 70
0
 62
7
  6
CONTINUOUS
  0
LAYER
  2
67
 70
0
 62
7
  6
CONTINUOUS
  0
LAYER
  2
68
 70
0
 62
7
  6
CONTINUOUS
  0
LAYER
  2
69
 70
0
 62
7
  6
CONTINUOUS
  0
LAYER
  2
70
 70
0
 62
7
  6
CONTINUOUS
  0
LAYER
  2
71
 70
0
 62
7
  6
CONTINUOUS
  0
LAYER
  2
72
 70
0
 62
7
  6
CONTINUOUS
  0
LAYER
  2
73
 70
0
 62
7
  6
CONTINUOUS
  0
LAYER
  2
74
 70
0
 62
7
  6
CONTINUOUS
  0
LAYER
  2
75
 70
0
 62
7
  6
CONTINUOUS
  0
LAYER
  2
76
 70
0
 62
7
  6
CONTINUOUS
  0
LAYER
  2
77
 70
0
 62
7
  6
CONTINUOUS
  0
LAYER
  2
78
 70
0
 62
7
  6
CONTINUOUS
  0
LAYER
  2
79
 70
0
 62
7
  6
CONTINUOUS
  0
LAYER
  2
80
 70
0
 62
7
  6
CONTINUOUS
  0
LAYER
  2
81
 70
0
 62
7
  6
CONTINUOUS
  0
LAYER
  2
82
 70
0
 62
7
  6
CONTINUOUS
  0
LAYER
  2
83
 70
0
 62
7
  6
CONTINUOUS
  0
LAYER
  2
84
 70
0
 62
7
  6
CONTINUOUS
  0
LAYER
  2
85
 70
0
 62
7
  6
CONTINUOUS
  0
LAYER
  2
86
 70
0
 62
7
  6
CONTINUOUS
  0
LAYER
  2
87
 70
0
 62
7
  6
CONTINUOUS
  0
LAYER
  2
88
 70
0
 62
7
  6
CONTINUOUS
  0
LAYER
  2
89
 70
0
 62
7
  6
CONTINUOUS
  0
LAYER
  2
90
 70
0
 62
7
  6
CONTINUOUS
  0
LAYER
  2
91
 70
0
 62
7
  6
CONTINUOUS
  0
LAYER
  2
92
 70
0
 62
7
  6
CONTINUOUS
  0
LAYER
  2
93
 70
0
 62
7
  6
CONTINUOUS
  0
LAYER
  2
94
 70
0
 62
7
  6
CONTINUOUS
  0
LAYER
  2
95
 70
0
 62
7
  6
CONTINUOUS
  0
LAYER
  2
96
 70
0
 62
7
  6
CONTINUOUS
  0
LAYER
  2
97
 70
0
 62
7
  6
CONTINUOUS
  0
LAYER
  2
98
 70
0
 62
7
  6
CONTINUOUS
  0
LAYER
  2
99
 70
0
 62
7
  6
CONTINUOUS
  0
LAYER
  2
MED-0
 70
0
 62
230
  6
HIDDENNEW00
  0
LAYER
  2
101
 70
0
 62
7
  6
CONTINUOUS
  0
LAYER
  2
102
 70
0
 62
7
  6
CONTINUOUS
  0
LAYER
  2
103
 70
0
 62
7
  6
CONTINUOUS
  0
LAYER
  2
104
 70
0
 62
7
  6
CONTINUOUS
  0
LAYER
  2
105
 70
0
 62
7
  6
CONTINUOUS
  0
LAYER
  2
106
 70
0
 62
7
  6
CONTINUOUS
  0
LAYER
  2
107
 70
0
 62
7
  6
CONTINUOUS
  0
LAYER
  2
108
 70
0
 62
7
  6
CONTINUOUS
  0
LAYER
  2
Drafting_Hidden_Entities
 70
1
 62
7
  6
CONTINUOUS
  0
ENDTAB
  0
TABLE
  2
STYLE
 70
1
  0
STYLE
  2
STANDARD
 70
64
 40
0.0
 41
1.0
 50
0.0
 71
0
 42
1.0
  3
monotxt.shx
  4

  0
ENDTAB
  0
TABLE
  2
VIEW
 70
0
  0
ENDTAB
  0
TABLE
  2
DIMSTYLE
 70
0
  0
ENDTAB
  0
ENDSEC
  0
SECTION
  2
BLOCKS
  0
BLOCK
  2
*XH27
  3
*XH
 10
0.0
 20
0.0
 70
65
  0
LINE
  8
108
  6
CONTINUOUS
 62
1
 10
3.2808112E-001
 20
-6.035881
 11
1.6957911
 21
-4.6681747
  0
LINE
  8
108
  6
CONTINUOUS
 62
1
 10
1.6957911
 20
-4.2552951E-001
 11
1.9579113E-001
 21
-1.9255295
  0
LINE
  8
108
  6
CONTINUOUS
 62
1
 10
-2.4071979
 20
-2.8588101E-001
 11
1.6957911
 21
3.8171158
  0
LINE
  8
108
  6
CONTINUOUS
 62
1
 10
-3.9983887E-001
 20
5.964119
 11
-2.8042089
 21
3.559761
  0
ENDBLK
  0
BLOCK
  2
*XH28
  3
*XH
 10
0.0
 20
0.0
 70
65
  0
LINE
  8
108
  6
CONTINUOUS
 62
1
 10
1.5449804E+001
 20
-5.7633979
 11
1.8913186E+001
 21
-2.300019
  0
LINE
  8
108
  6
CONTINUOUS
 62
1
 10
1.5707162E+001
 20
-1.2633979
 11
1.1207162E+001
 21
-5.7633979
  0
LINE
  8
108
  6
CONTINUOUS
 62
1
 10
6.964521
 20
-5.7633979
 11
1.4163186E+001
 21
1.4352562
  0
LINE
  8
108
  6
CONTINUOUS
 62
1
 10
1.4163186E+001
 20
5.6779015
 11
2.721883
 21
-5.7633979
  0
LINE
  8
108
  6
CONTINUOUS
 62
1
 10
-1.520758
 20
-5.7633979
 11
1.0479242E+001
 21
6.2366021
  0
LINE
  8
108
  6
CONTINUOUS
 62
1
 10
6.2366
 20
6.2366021
 11
-5.7634
 21
-5.7633979
  0
LINE
  8
108
  6
CONTINUOUS
 62
1
 10
-1.0006041E+001
 20
-5.7633979
 11
1.993959
 21
6.2366021
  0
LINE
  8
108
  6
CONTINUOUS
 62
1
 10
-2.248683
 20
6.2366021
 11
-1.4248683E+001
 21
-5.7633979
  0
LINE
  8
108
  6
CONTINUOUS
 62
1
 10
-1.7336814E+001
 20
-4.6089027
 11
-6.49132
 21
6.2366021
  0
LINE
  8
108
  6
CONTINUOUS
 62
1
 10
-1.0733962E+001
 20
6.2366021
 11
-1.7336814E+001
 21
-3.662574E-001
  0
LINE
  8
108
  6
CONTINUOUS
 62
1
 10
-1.7336814E+001
 20
3.8763878
 11
-1.4976603E+001
 21
6.2366021
  0
ENDBLK
  0
BLOCK
  2
*XH29
  3
*XH
 10
0.0
 20
0.0
 70
65
  0
LINE
  8
108
  6
CONTINUOUS
 62
1
 10
7.370265E-001
 20
-1.384285
 11
1.5092885
 21
-6.1203765E-001
  0
LINE
  8
108
  6
CONTINUOUS
 62
1
 10
9.943965E-001
 20
3.115715
 11
-3.2407115
 21
-1.1193925
  0
ENDBLK
  0
BLOCK
  2
*XH30
  3
*XH
 10
0.0
 20
0.0
 70
65
  0
LINE
  8
108
  6
CONTINUOUS
 62
1
 10
1.6318179
 20
6.0
 11
1.6318179
 21
-6.0
  0
LINE
  8
108
  6
CONTINUOUS
 62
1
 10
1.4818169
 20
-6.0
 11
1.4818169
 21
6.0
  0
LINE
  8
108
  6
CONTINUOUS
 62
1
 10
1.3318149
 20
6.0
 11
1.3318149
 21
-6.0
  0
LINE
  8
108
  6
CONTINUOUS
 62
1
 10
1.1818209
 20
-6.0
 11
1.1818209
 21
6.0
  0
LINE
  8
108
  6
CONTINUOUS
 62
1
 10
1.0318199
 20
6.0
 11
1.0318199
 21
-6.0
  0
LINE
  8
108
  6
CONTINUOUS
 62
1
 10
8.8181794E-001
 20
-6.0
 11
8.8181794E-001
 21
6.0
  0
LINE
  8
108
  6
CONTINUOUS
 62
1
 10
7.3181694E-001
 20
6.0
 11
7.3181694E-001
 21
-6.0
  0
LINE
  8
108
  6
CONTINUOUS
 62
1
 10
5.8181494E-001
 20
-6.0
 11
5.8181494E-001
 21
-5.0
  0
LINE
  8
108
  6
CONTINUOUS
 62
1
 10
5.8181494E-001
 20
5.0
 11
5.8181494E-001
 21
6.0
  0
LINE
  8
108
  6
CONTINUOUS
 62
1
 10
4.3182094E-001
 20
6.0
 11
4.3182094E-001
 21
5.0
  0
LINE
  8
108
  6
CONTINUOUS
 62
1
 10
4.3182094E-001
 20
-5.0
 11
4.3182094E-001
 21
-6.0
  0
LINE
  8
108
  6
CONTINUOUS
 62
1
 10
2.8181994E-001
 20
-6.0
 11
2.8181994E-001
 21
-5.0
  0
LINE
  8
108
  6
CONTINUOUS
 62
1
 10
2.8181994E-001
 20
5.0
 11
2.8181994E-001
 21
6.0
  0
LINE
  8
108
  6
CONTINUOUS
 62
1
 10
1.3181794E-001
 20
6.0
 11
1.3181794E-001
 21
5.0
  0
LINE
  8
108
  6
CONTINUOUS
 62
1
 10
1.3181794E-001
 20
-5.0
 11
1.3181794E-001
 21
-6.0
  0
LINE
  8
108
  6
CONTINUOUS
 62
1
 10
-1.8183061E-002
 20
-6.0
 11
-1.8183061E-002
 21
-5.0
  0
LINE
  8
108
  6
CONTINUOUS
 62
1
 10
-1.8183061E-002
 20
5.0
 11
-1.8183061E-002
 21
6.0
  0
LINE
  8
108
  6
CONTINUOUS
 62
1
 10
-1.6818506E-001
 20
6.0
 11
-1.6818506E-001
 21
5.0
  0
LINE
  8
108
  6
CONTINUOUS
 62
1
 10
-1.6818506E-001
 20
-5.0
 11
-1.6818506E-001
 21
-6.0
  0
LINE
  8
108
  6
CONTINUOUS
 62
1
 10
-3.1817906E-001
 20
-6.0
 11
-3.1817906E-001
 21
-5.0
  0
LINE
  8
108
  6
CONTINUOUS
 62
1
 10
-3.1817906E-001
 20
5.0
 11
-3.1817906E-001
 21
6.0
  0
LINE
  8
108
  6
CONTINUOUS
 62
1
 10
-4.6818006E-001
 20
6.0
 11
-4.6818006E-001
 21
5.0
  0
LINE
  8
108
  6
CONTINUOUS
 62
1
 10
-4.6818006E-001
 20
-5.0
 11
-4.6818006E-001
 21
-6.0
  0
LINE
  8
108
  6
CONTINUOUS
 62
1
 10
-6.1818206E-001
 20
-6.0
 11
-6.1818206E-001
 21
-5.0
  0
LINE
  8
108
  6
CONTINUOUS
 62
1
 10
-6.1818206E-001
 20
5.0
 11
-6.1818206E-001
 21
6.0
  0
LINE
  8
108
  6
CONTINUOUS
 62
1
 10
-7.6818306E-001
 20
6.0
 11
-7.6818306E-001
 21
5.0
  0
LINE
  8
108
  6
CONTINUOUS
 62
1
 10
-7.6818306E-001
 20
-5.0
 11
-7.6818306E-001
 21
-6.0
  0
LINE
  8
108
  6
CONTINUOUS
 62
1
 10
-9.1818506E-001
 20
-6.0
 11
-9.1818506E-001
 21
-5.0
  0
LINE
  8
108
  6
CONTINUOUS
 62
1
 10
-9.1818506E-001
 20
5.0
 11
-9.1818506E-001
 21
6.0
  0
LINE
  8
108
  6
CONTINUOUS
 62
1
 10
-1.0681791
 20
6.0
 11
-1.0681791
 21
5.0
  0
LINE
  8
108
  6
CONTINUOUS
 62
1
 10
-1.0681791
 20
-5.0
 11
-1.0681791
 21
-6.0
  0
LINE
  8
108
  6
CONTINUOUS
 62
1
 10
-1.2181801
 20
-6.0
 11
-1.2181801
 21
-5.0
  0
LINE
  8
108
  6
CONTINUOUS
 62
1
 10
-1.2181801
 20
5.0
 11
-1.2181801
 21
6.0
  0
ENDBLK
  0
BLOCK
  2
*XH31
  3
*XH
 10
0.0
 20
0.0
 70
65
  0
LINE
  8
108
  6
CONTINUOUS
 62
1
 10
1.2181818
 20
6.0
 11
1.2181818
 21
5.0
  0
LINE
  8
108
  6
CONTINUOUS
 62
1
 10
1.2181818
 20
-5.0
 11
1.2181818
 21
-6.0
  0
LINE
  8
108
  6
CONTINUOUS
 62
1
 10
1.0681808
 20
-6.0
 11
1.0681808
 21
-5.0
  0
LINE
  8
108
  6
CONTINUOUS
 62
1
 10
1.0681808
 20
5.0
 11
1.0681808
 21
6.0
  0
LINE
  8
108
  6
CONTINUOUS
 62
1
 10
9.1817876E-001
 20
6.0
 11
9.1817876E-001
 21
5.0
  0
LINE
  8
108
  6
CONTINUOUS
 62
1
 10
9.1817876E-001
 20
-5.0
 11
9.1817876E-001
 21
-6.0
  0
LINE
  8
108
  6
CONTINUOUS
 62
1
 10
7.6818476E-001
 20
-6.0
 11
7.6818476E-001
 21
-5.0
  0
LINE
  8
108
  6
CONTINUOUS
 62
1
 10
7.6818476E-001
 20
5.0
 11
7.6818476E-001
 21
6.0
  0
LINE
  8
108
  6
CONTINUOUS
 62
1
 10
6.1818376E-001
 20
6.0
 11
6.1818376E-001
 21
5.0
  0
LINE
  8
108
  6
CONTINUOUS
 62
1
 10
6.1818376E-001
 20
-5.0
 11
6.1818376E-001
 21
-6.0
  0
LINE
  8
108
  6
CONTINUOUS
 62
1
 10
4.6818176E-001
 20
-6.0
 11
4.6818176E-001
 21
-5.0
  0
LINE
  8
108
  6
CONTINUOUS
 62
1
 10
4.6818176E-001
 20
5.0
 11
4.6818176E-001
 21
6.0
  0
LINE
  8
108
  6
CONTINUOUS
 62
1
 10
3.1818076E-001
 20
6.0
 11
3.1818076E-001
 21
5.0
  0
LINE
  8
108
  6
CONTINUOUS
 62
1
 10
3.1818076E-001
 20
-5.0
 11
3.1818076E-001
 21
-6.0
  0
LINE
  8
108
  6
CONTINUOUS
 62
1
 10
1.6817876E-001
 20
-6.0
 11
1.6817876E-001
 21
-5.0
  0
LINE
  8
108
  6
CONTINUOUS
 62
1
 10
1.6817876E-001
 20
5.0
 11
1.6817876E-001
 21
6.0
  0
LINE
  8
108
  6
CONTINUOUS
 62
1
 10
1.8184758E-002
 20
6.0
 11
1.8184758E-002
 21
5.0
  0
LINE
  8
108
  6
CONTINUOUS
 62
1
 10
1.8184758E-002
 20
-5.0
 11
1.8184758E-002
 21
-6.0
  0
LINE
  8
108
  6
CONTINUOUS
 62
1
 10
-1.3181624E-001
 20
-6.0
 11
-1.3181624E-001
 21
-5.0
  0
LINE
  8
108
  6
CONTINUOUS
 62
1
 10
-1.3181624E-001
 20
5.0
 11
-1.3181624E-001
 21
6.0
  0
LINE
  8
108
  6
CONTINUOUS
 62
1
 10
-2.8181824E-001
 20
6.0
 11
-2.8181824E-001
 21
5.0
  0
LINE
  8
108
  6
CONTINUOUS
 62
1
 10
-2.8181824E-001
 20
-5.0
 11
-2.8181824E-001
 21
-6.0
  0
LINE
  8
108
  6
CONTINUOUS
 62
1
 10
-4.3181924E-001
 20
-6.0
 11
-4.3181924E-001
 21
-5.0
  0
LINE
  8
108
  6
CONTINUOUS
 62
1
 10
-4.3181924E-001
 20
5.0
 11
-4.3181924E-001
 21
6.0
  0
LINE
  8
108
  6
CONTINUOUS
 62
1
 10
-5.8182124E-001
 20
6.0
 11
-5.8182124E-001
 21
5.0
  0
LINE
  8
108
  6
CONTINUOUS
 62
1
 10
-5.8182124E-001
 20
-5.0
 11
-5.8182124E-001
 21
-6.0
  0
LINE
  8
108
  6
CONTINUOUS
 62
1
 10
-7.3181524E-001
 20
-6.0
 11
-7.3181524E-001
 21
6.0
  0
LINE
  8
108
  6
CONTINUOUS
 62
1
 10
-8.8181624E-001
 20
6.0
 11
-8.8181624E-001
 21
-6.0
  0
LINE
  8
108
  6
CONTINUOUS
 62
1
 10
-1.0318182
 20
-6.0
 11
-1.0318182
 21
6.0
  0
LINE
  8
108
  6
CONTINUOUS
 62
1
 10
-1.1818192
 20
6.0
 11
-1.1818192
 21
-6.0
  0
LINE
  8
108
  6
CONTINUOUS
 62
1
 10
-1.3318212
 20
-6.0
 11
-1.3318212
 21
6.0
  0
LINE
  8
108
  6
CONTINUOUS
 62
1
 10
-1.4818152
 20
6.0
 11
-1.4818152
 21
-6.0
  0
LINE
  8
108
  6
CONTINUOUS
 62
1
 10
-1.6318162
 20
-6.0
 11
-1.6318162
 21
6.0
  0
ENDBLK
  0
BLOCK
  2
*XH32
  3
*XH
 10
0.0
 20
0.0
 70
65
  0
LINE
  8
108
  6
CONTINUOUS
 62
1
 10
-3.0541026
 20
2.2569783E-001
 11
-2.3832957
 21
-4.4513957E-001
  0
LINE
  8
108
  6
CONTINUOUS
 62
1
 10
4.4513445E-001
 20
-4.4513957E-001
 11
-5.5486555E-001
 21
5.5486043E-001
  0
LINE
  8
108
  6
CONTINUOUS
 62
1
 10
2.2735647
 20
5.5486043E-001
 11
3.2735647
 21
-4.4513957E-001
  0
ENDBLK
  0
BLOCK
  2
*XH33
  3
*XH
 10
0.0
 20
0.0
 70
65
  0
LINE
  8
108
  6
CONTINUOUS
 62
1
 10
4.3329892
 20
-1.3238678
 11
5.6704832
 21
1.362602E-002
  0
LINE
  8
108
  6
CONTINUOUS
 62
1
 10
5.0045592
 20
2.1761322
 11
1.5045592
 21
-1.3238678
  0
LINE
  8
108
  6
CONTINUOUS
 62
1
 10
-1.3238708
 20
-1.3238678
 11
1.1761292
 21
1.1761322
  0
LINE
  8
108
  6
CONTINUOUS
 62
1
 10
-1.6523008
 20
1.1761322
 11
-4.1523008
 21
-1.3238678
  0
LINE
  8
108
  6
CONTINUOUS
 62
1
 10
-6.0795168
 20
-4.2268378E-001
 11
-4.4807308
 21
1.1761322
  0
ENDBLK
  0
BLOCK
  2
*XH34
  3
*XH
 10
0.0
 20
0.0
 70
65
  0
LINE
  8
108
  6
CONTINUOUS
 62
1
 10
4.2771054
 20
-1.3797577
 11
5.3940184
 21
-2.6281438E-001
  0
LINE
  8
108
  6
CONTINUOUS
 62
1
 10
3.9486754
 20
1.1202423
 11
1.4486754
 21
-1.3797577
  0
LINE
  8
108
  6
CONTINUOUS
 62
1
 10
-1.3797546
 20
-1.3797577
 11
1.1202454
 21
1.1202423
  0
LINE
  8
108
  6
CONTINUOUS
 62
1
 10
-1.7081846
 20
1.1202423
 11
-4.2081846
 21
-1.3797577
  0
LINE
  8
108
  6
CONTINUOUS
 62
1
 10
-5.3559816
 20
3.0087582E-001
 11
-3.5366146
 21
2.1202423
  0
ENDBLK
  0
BLOCK
  2
*XH35
  3
*XH
 10
0.0
 20
0.0
 70
65
  0
LINE
  8
108
  6
CONTINUOUS
 62
1
 10
5.9030869
 20
-1.1679738
 11
7.4188029
 21
3.4771217E-001
  0
LINE
  8
108
  6
CONTINUOUS
 62
1
 10
5.5746559
 20
1.3320262
 11
3.0746559
 21
-1.1679738
  0
LINE
  8
108
  6
CONTINUOUS
 62
1
 10
2.4622592E-001
 20
-1.1679738
 11
2.7462259
 21
1.3320262
  0
LINE
  8
108
  6
CONTINUOUS
 62
1
 10
-8.2173083E-002
 20
1.3320262
 11
-2.5822041
 21
-1.1679738
  0
LINE
  8
108
  6
CONTINUOUS
 62
1
 10
-5.4106041
 20
-1.1679738
 11
-2.9106041
 21
1.3320262
  0
LINE
  8
108
  6
CONTINUOUS
 62
1
 10
-5.7390341
 20
1.3320262
 11
-8.2390341
 21
-1.1679738
  0
ENDBLK
  0
BLOCK
  2
*XH36
  3
*XH
 10
0.0
 20
0.0
 70
65
  0
LINE
  8
108
  6
CONTINUOUS
 62
1
 10
1.3025031E+001
 20
-1.1171043
 11
1.3083075E+001
 21
-1.0590599
  0
LINE
  8
108
  6
CONTINUOUS
 62
1
 10
1.221482E+001
 20
9.0114523E-001
 11
1.0196601E+001
 21
-1.1171043
  0
LINE
  8
108
  6
CONTINUOUS
 62
1
 10
7.3681714
 20
-1.1171043
 11
9.8681714
 21
1.3828957
  0
LINE
  8
108
  6
CONTINUOUS
 62
1
 10
7.0397714
 20
1.3828957
 11
4.5397404
 21
-1.1171043
  0
LINE
  8
108
  6
CONTINUOUS
 62
1
 10
1.7113104
 20
-1.1171043
 11
4.2113414
 21
1.3828957
  0
LINE
  8
108
  6
CONTINUOUS
 62
1
 10
1.3829104
 20
1.3828957
 11
-1.1171196
 21
-1.1171043
  0
LINE
  8
108
  6
CONTINUOUS
 62
1
 10
-3.9455496
 20
-1.1171043
 11
-1.4455196
 21
1.3828957
  0
LINE
  8
108
  6
CONTINUOUS
 62
1
 10
-4.2739496
 20
1.3828957
 11
-6.7739496
 21
-1.1171043
  0
LINE
  8
108
  6
CONTINUOUS
 62
1
 10
-9.6023796
 20
-1.1171043
 11
-7.1023796
 21
1.3828957
  0
LINE
  8
108
  6
CONTINUOUS
 62
1
 10
-9.9308096
 20
1.3828957
 11
-1.243081E+001
 21
-1.1171043
  0
LINE
  8
108
  6
CONTINUOUS
 62
1
 10
-1.525924E+001
 20
-1.1171043
 11
-1.275924E+001
 21
1.3828957
  0
ENDBLK
  0
BLOCK
  2
*XH37
  3
*XH
 10
0.0
 20
0.0
 70
65
  0
LINE
  8
108
  6
CONTINUOUS
 62
1
 10
-3.32842
 20
5.0E-001
 11
-2.32842
 21
-5.0E-001
  0
LINE
  8
108
  6
CONTINUOUS
 62
1
 10
4.9997967E-001
 20
-5.0E-001
 11
-4.9998983E-001
 21
5.0E-001
  0
LINE
  8
108
  6
CONTINUOUS
 62
1
 10
2.3284404
 20
5.0E-001
 11
3.3284099
 21
-5.0E-001
  0
ENDBLK
  0
BLOCK
  2
*XH38
  3
*XH
 10
0.0
 20
0.0
 70
65
  0
LINE
  8
108
  6
CONTINUOUS
 62
1
 10
1.6242987
 20
-1.2041321
 11
3.8490907
 21
1.0206603
  0
LINE
  8
108
  6
CONTINUOUS
 62
1
 10
1.2958677
 20
1.2958679
 11
-1.2041323
 21
-1.2041321
  0
LINE
  8
108
  6
CONTINUOUS
 62
1
 10
-4.0325623
 20
-1.2041321
 11
-1.5325623
 21
1.2958679
  0
ENDBLK
  0
BLOCK
  2
*XH39
  3
*XH
 10
0.0
 20
0.0
 70
65
  0
LINE
  8
108
  6
CONTINUOUS
 62
1
 10
5.7959748
 20
-1.2751033
 11
6.2494965
 21
-8.2158157E-001
  0
LINE
  8
108
  6
CONTINUOUS
 62
1
 10
5.1827545
 20
9.4013722E-001
 11
2.9768219
 21
-1.2658259
  0
LINE
  8
108
  6
CONTINUOUS
 62
1
 10
1.5766907E-001
 20
-1.2565486
 11
2.637619
 21
1.2234014
  0
LINE
  8
108
  6
CONTINUOUS
 62
1
 10
-1.9081113E-001
 20
1.2234014
 11
-2.6614837
 21
-1.2472713
  0
LINE
  8
108
  6
CONTINUOUS
 62
1
 10
-5.4806366
 20
-1.2379939
 11
-2.3192291
 21
1.9234136
  0
LINE
  8
108
  6
CONTINUOUS
 62
1
 10
-5.8476715
 20
1.2234014
 11
-6.5005035
 21
5.7056933E-001
  0
ENDBLK
  0
BLOCK
  2
*XH40
  3
*XH
 10
0.0
 20
0.0
 70
65
  0
LINE
  8
108
  6
CONTINUOUS
 62
1
 10
-5.7521391
 20
-1.3189187
 11
-5.6288171
 21
-1.4422397
  0
LINE
  8
108
  6
CONTINUOUS
 62
1
 10
-4.2146331
 20
-1.4422397
 11
-5.7521391
 21
9.5296273E-002
  0
LINE
  8
108
  6
CONTINUOUS
 62
1
 10
-5.7521391
 20
1.5094813
 11
-2.8003871
 21
-1.4422397
  0
LINE
  8
108
  6
CONTINUOUS
 62
1
 10
-1.3862031
 20
-1.4422397
 11
-4.3832731
 21
1.5548303
  0
LINE
  8
108
  6
CONTINUOUS
 62
1
 10
-2.9690271
 20
1.5548303
 11
2.8042864E-002
 21
-1.4422397
  0
LINE
  8
108
  6
CONTINUOUS
 62
1
 10
1.4422279
 20
-1.4422397
 11
-1.5548431
 21
1.5548303
  0
LINE
  8
108
  6
CONTINUOUS
 62
1
 10
-1.4059714E-001
 20
1.5548303
 11
2.8564729
 21
-1.4422397
  0
LINE
  8
108
  6
CONTINUOUS
 62
1
 10
4.2706579
 20
-1.4422397
 11
1.2735869
 21
1.5548303
  0
LINE
  8
108
  6
CONTINUOUS
 62
1
 10
2.6878029
 20
1.5548303
 11
5.6848729
 21
-1.4422397
  0
LINE
  8
108
  6
CONTINUOUS
 62
1
 10
6.2361419
 20
-5.7926373E-001
 11
4.1020179
 21
1.5548303
  0
LINE
  8
108
  6
CONTINUOUS
 62
1
 10
5.5162329
 20
1.5548303
 11
6.2361419
 21
8.3492027E-001
  0
ENDBLK
  0
BLOCK
  2
*XH41
  3
*XH
 10
0.0
 20
0.0
 70
65
  0
LINE
  8
108
  6
CONTINUOUS
 62
1
 10
-5.4253895
 20
-2.3527956
 11
5.52925E-002
 21
-7.8334476
  0
LINE
  8
108
  6
CONTINUOUS
 62
1
 10
4.2756295
 20
-7.8111696
 11
1.1822455
 21
-4.7177866
  0
LINE
  8
108
  6
CONTINUOUS
 62
1
 10
-3.3566335
 20
-1.7890658E-001
 11
-4.7822925
 21
1.2467524
  0
LINE
  8
108
  6
CONTINUOUS
 62
1
 10
-2.3417105
 20
3.0488154
 11
-1.0751085
 21
1.7822134
  0
LINE
  8
108
  6
CONTINUOUS
 62
1
 10
3.0715585
 20
1.8781614
 11
6.979015E-001
 21
4.2518794
  0
LINE
  8
108
  6
CONTINUOUS
 62
1
 10
3.4228775
 20
5.7695184
 11
4.2756295
 21
4.9167654
  0
ENDBLK
  0
BLOCK
  2
*XH42
  3
*XH
 10
0.0
 20
0.0
 70
65
  0
LINE
  8
108
  6
CONTINUOUS
 62
1
 10
-2.1008419
 20
-1.0627073E+001
 11
-1.3533139
 21
-1.1374601E+001
  0
LINE
  8
108
  6
CONTINUOUS
 62
1
 10
7.6799412E-001
 20
-1.1374601E+001
 11
-2.1008419
 21
-8.5057659
  0
LINE
  8
108
  6
CONTINUOUS
 62
1
 10
-2.1008419
 20
-6.3844279
 11
2.1464421
 21
-1.0631742E+001
  0
LINE
  8
108
  6
CONTINUOUS
 62
1
 10
2.1464421
 20
-8.5104039
 11
-2.1008419
 21
-4.2630899
  0
LINE
  8
108
  6
CONTINUOUS
 62
1
 10
-2.1008419
 20
-2.1417819
 11
2.1464421
 21
-6.3890969
  0
LINE
  8
108
  6
CONTINUOUS
 62
1
 10
2.1464421
 20
-4.2677889
 11
-2.1008419
 21
-2.0474923E-002
  0
LINE
  8
108
  6
CONTINUOUS
 62
1
 10
-2.1008419
 20
2.1008631
 11
2.1464421
 21
-2.1464519
  0
LINE
  8
108
  6
CONTINUOUS
 62
1
 10
2.1464421
 20
-2.5113923E-002
 11
-2.1008419
 21
4.2221701
  0
LINE
  8
108
  6
CONTINUOUS
 62
1
 10
-2.1008419
 20
6.3434781
 11
2.1464421
 21
2.0961941
  0
LINE
  8
108
  6
CONTINUOUS
 62
1
 10
2.1464421
 20
4.2175011
 11
-2.1008419
 21
8.4648161
  0
LINE
  8
108
  6
CONTINUOUS
 62
1
 10
-2.1008419
 20
1.0586153E+001
 11
2.1464421
 21
6.3388391
  0
LINE
  8
108
  6
CONTINUOUS
 62
1
 10
2.1464421
 20
8.4601461
 11
-1.0188099
 21
1.1625399E+001
  0
LINE
  8
108
  6
CONTINUOUS
 62
1
 10
1.1025271
 20
1.1625399E+001
 11
2.1464421
 21
1.0581454E+001
  0
ENDBLK
  0
BLOCK
  2
*XH43
  3
*XH
 10
0.0
 20
0.0
 70
65
  0
LINE
  8
108
  6
CONTINUOUS
 62
1
 10
2.5959978E+001
 20
-2.6778628
 11
2.7337907E+001
 21
-1.2999328
  0
LINE
  8
108
  6
CONTINUOUS
 62
1
 10
2.7337907E+001
 20
1.5284972
 11
2.3131517E+001
 21
-2.6778628
  0
LINE
  8
108
  6
CONTINUOUS
 62
1
 10
2.0637895E+001
 20
-2.3430848
 11
2.5303117E+001
 21
2.3221372
  0
LINE
  8
108
  6
CONTINUOUS
 62
1
 10
2.2474657E+001
 20
2.3221372
 11
1.8974657E+001
 21
-1.1778628
  0
LINE
  8
108
  6
CONTINUOUS
 62
1
 10
1.6146257E+001
 20
-1.1778628
 11
1.9646227E+001
 21
2.3221372
  0
LINE
  8
108
  6
CONTINUOUS
 62
1
 10
1.6817827E+001
 20
2.3221372
 11
1.3317827E+001
 21
-1.1778628
  0
LINE
  8
108
  6
CONTINUOUS
 62
1
 10
1.2637895E+001
 20
-1.8577948
 11
1.1817827E+001
 21
-2.6778628
  0
LINE
  8
108
  6
CONTINUOUS
 62
1
 10
8.9893966
 20
-2.6778628
 11
1.3989397E+001
 21
2.3221372
  0
LINE
  8
108
  6
CONTINUOUS
 62
1
 10
1.2660967E+001
 20
3.8221372
 11
1.2637895E+001
 21
3.7990662
  0
LINE
  8
108
  6
CONTINUOUS
 62
1
 10
1.1160967E+001
 20
2.3221372
 11
6.1609666
 21
-2.6778628
  0
LINE
  8
108
  6
CONTINUOUS
 62
1
 10
3.3325356
 20
-2.6778628
 11
8.3325356
 21
2.3221372
  0
LINE
  8
108
  6
CONTINUOUS
 62
1
 10
5.5041366
 20
2.3221372
 11
5.0413665E-001
 21
-2.6778628
  0
LINE
  8
108
  6
CONTINUOUS
 62
1
 10
-2.3242934
 20
-2.6778628
 11
2.6757066
 21
2.3221372
  0
LINE
  8
108
  6
CONTINUOUS
 62
1
 10
-1.5272435E-001
 20
2.3221372
 11
-5.1527244
 21
-2.6778628
  0
LINE
  8
108
  6
CONTINUOUS
 62
1
 10
-7.9811544
 20
-2.6778628
 11
-2.9811544
 21
2.3221372
  0
LINE
  8
108
  6
CONTINUOUS
 62
1
 10
-5.8095844
 20
2.3221372
 11
-1.0809584E+001
 21
-2.6778628
  0
LINE
  8
108
  6
CONTINUOUS
 62
1
 10
-1.3638014E+001
 20
-2.6778628
 11
-8.6380144
 21
2.3221372
  0
LINE
  8
108
  6
CONTINUOUS
 62
1
 10
-1.1466444E+001
 20
2.3221372
 11
-1.6466444E+001
 21
-2.6778628
  0
LINE
  8
108
  6
CONTINUOUS
 62
1
 10
-1.9294874E+001
 20
-2.6778628
 11
-1.4294874E+001
 21
2.3221372
  0
LINE
  8
108
  6
CONTINUOUS
 62
1
 10
-1.7123305E+001
 20
2.3221372
 11
-2.2123305E+001
 21
-2.6778628
  0
LINE
  8
108
  6
CONTINUOUS
 62
1
 10
-2.4951735E+001
 20
-2.6778628
 11
-1.9951735E+001
 21
2.3221372
  0
LINE
  8
108
  6
CONTINUOUS
 62
1
 10
-2.2780165E+001
 20
2.3221372
 11
-2.7780165E+001
 21
-2.6778628
  0
LINE
  8
108
  6
CONTINUOUS
 62
1
 10
-2.9862105E+001
 20
-1.9314028
 11
-2.5608595E+001
 21
2.3221372
  0
LINE
  8
108
  6
CONTINUOUS
 62
1
 10
-2.8437025E+001
 20
2.3221372
 11
-2.9862105E+001
 21
8.9702719E-001
  0
ENDBLK
  0
BLOCK
  2
*XH44
  3
*XH
 10
0.0
 20
0.0
 70
65
  0
LINE
  8
108
  6
CONTINUOUS
 62
1
 10
1.229097E-001
 20
-1.9984053
 11
1.3073577
 21
-8.1395725E-001
  0
LINE
  8
108
  6
CONTINUOUS
 62
1
 10
1.23747E-002
 20
2.1336748
 11
-1.4426421
 21
6.7868775E-001
  0
ENDBLK
  0
BLOCK
  2
*XH45
  3
*XH
 10
0.0
 20
0.0
 70
65
  0
LINE
  8
108
  6
CONTINUOUS
 62
1
 10
2.6254962
 20
5.0415025E-001
 11
-4.9428575E-001
 21
-2.6156008
  0
LINE
  8
108
  6
CONTINUOUS
 62
1
 10
-1.0937428
 20
1.0275883
 11
-1.0374678
 21
1.0838622
  0
ENDBLK
  0
BLOCK
  2
*XH46
  3
*XH
 10
0.0
 20
0.0
 70
65
  0
LINE
  8
108
  6
CONTINUOUS
 62
1
 10
3.8326759
 20
-4.0995413E-001
 11
1.1156349
 21
-3.1269951
  0
LINE
  8
108
  6
CONTINUOUS
 62
1
 10
-1.1900591
 20
-2.6042591
 11
3.2872049
 21
1.8730049
  0
LINE
  8
108
  6
CONTINUOUS
 62
1
 10
4.5880488E-001
 20
1.8730049
 11
-2.5673181
 21
-1.1531181
  0
LINE
  8
108
  6
CONTINUOUS
 62
1
 10
-2.5673181
 20
1.6753119
 11
-2.3696251
 21
1.8730049
  0
ENDBLK
  0
BLOCK
  2
*XH47
  3
*XH
 10
0.0
 20
0.0
 70
65
  0
LINE
  8
108
  6
CONTINUOUS
 62
1
 10
2.7603269
 20
-2.896527
 11
6.8824279
 21
1.225543
  0
LINE
  8
108
  6
CONTINUOUS
 62
1
 10
4.9318969
 20
2.103473
 11
-6.81031E-002
 21
-2.896527
  0
LINE
  8
108
  6
CONTINUOUS
 62
1
 10
-2.8965331
 20
-2.896527
 11
2.1034669
 21
2.103473
  0
LINE
  8
108
  6
CONTINUOUS
 62
1
 10
-7.249631E-001
 20
2.103473
 11
-4.7175781
 21
-1.889142
  0
LINE
  8
108
  6
CONTINUOUS
 62
1
 10
-4.7175781
 20
9.39288E-001
 11
-3.5533631
 21
2.103473
  0
ENDBLK
  0
BLOCK
  2
*XH48
  3
*XH
 10
0.0
 20
0.0
 70
65
  0
LINE
  8
108
  6
CONTINUOUS
 62
1
 10
6.0145783
 20
-2.4706817
 11
8.6132416
 21
1.279203E-001
  0
LINE
  8
108
  6
CONTINUOUS
 62
1
 10
6.7719635
 20
2.5293183
 11
1.7719635
 21
-2.4706817
  0
LINE
  8
108
  6
CONTINUOUS
 62
1
 10
-2.4706817
 20
-2.4706817
 11
2.5293183
 21
2.5293183
  0
LINE
  8
108
  6
CONTINUOUS
 62
1
 10
-1.713327
 20
2.5293183
 11
-6.713327
 21
-2.4706817
  0
LINE
  8
108
  6
CONTINUOUS
 62
1
 10
-8.8477569
 20
-3.624667E-001
 11
-5.9559722
 21
2.5293183
  0
ENDBLK
  0
BLOCK
  2
*XH49
  3
*XH
 10
0.0
 20
0.0
 70
65
  0
LINE
  8
108
  6
CONTINUOUS
 62
1
 10
7.7776733
 20
-7.07623E-001
 11
6.1324403
 21
-2.352826
  0
LINE
  8
108
  6
CONTINUOUS
 62
1
 10
1.8898253
 20
-2.352826
 11
6.8898253
 21
2.647174
  0
LINE
  8
108
  6
CONTINUOUS
 62
1
 10
2.6471803
 20
2.647174
 11
-2.3528197
 21
-2.352826
  0
LINE
  8
108
  6
CONTINUOUS
 62
1
 10
-6.5954647
 20
-2.352826
 11
-1.5954647
 21
2.647174
  0
LINE
  8
108
  6
CONTINUOUS
 62
1
 10
-5.8381107
 20
2.647174
 11
-8.9550847
 21
-4.69769E-001
  0
ENDBLK
  0
BLOCK
  2
*XH50
  3
*XH
 10
0.0
 20
0.0
 70
65
  0
LINE
  8
108
  6
CONTINUOUS
 62
1
 10
1.9686125E-001
 20
-2.8644409
 11
2.8337943
 21
-4.6203587E-001
  0
LINE
  8
108
  6
CONTINUOUS
 62
1
 10
2.5168682
 20
1.2784421
 11
-1.5066608
 21
-2.3872679
  0
LINE
  8
108
  6
CONTINUOUS
 62
1
 10
-2.4791948
 20
-1.2441409
 11
1.4689862
 21
2.3529661
  0
LINE
  8
108
  6
CONTINUOUS
 62
1
 10
-3.8043975E-001
 20
2.6972051
 11
-2.6502148
 21
6.2927212E-001
  0
ENDBLK
  0
BLOCK
  2
*XH51
  3
*XH
 10
0.0
 20
0.0
 70
65
  0
LINE
  8
108
  6
CONTINUOUS
 62
1
 10
-1.9512933E-001
 20
-4.0475308
 11
-2.4951173
 21
-1.7475128
  0
LINE
  8
108
  6
CONTINUOUS
 62
1
 10
-2.4951173
 20
2.4951322
 11
1.2189337
 21
-1.2189178
  0
LINE
  8
108
  6
CONTINUOUS
 62
1
 10
3.5048827
 20
7.3774717E-001
 11
4.6154767E-001
 21
3.7810822
  0
ENDBLK
  0
BLOCK
  2
*XH52
  3
*XH
 10
0.0
 20
0.0
 70
65
  0
LINE
  8
108
  6
CONTINUOUS
 62
1
 10
-3.2294161
 20
4.7451375E-002
 11
-2.7285611
 21
-4.5340362E-001
  0
LINE
  8
108
  6
CONTINUOUS
 62
1
 10
4.7059588E-001
 20
-3.6525616
 11
2.2971959
 21
-5.4791906
  0
LINE
  8
108
  6
CONTINUOUS
 62
1
 10
2.7705839
 20
-1.7099346
 11
-3.1076811
 21
4.1683314
  0
LINE
  8
108
  6
CONTINUOUS
 62
1
 10
7.5669887E-001
 20
4.5465964
 11
2.7705839
 21
2.5327114
  0
ENDBLK
  0
BLOCK
  2
*XH53
  3
*XH
 10
0.0
 20
0.0
 70
65
  0
LINE
  8
108
  6
CONTINUOUS
 62
1
 10
4.3991776
 20
1.5655113E-001
 11
9.0314487E-001
 21
-3.3395119
  0
LINE
  8
108
  6
CONTINUOUS
 62
1
 10
-1.0130539
 20
-2.4272809
 11
3.0747147
 21
1.6604881
  0
LINE
  8
108
  6
CONTINUOUS
 62
1
 10
2.4628448E-001
 20
1.6604881
 11
-2.4272995
 21
-1.0130649
  0
LINE
  8
108
  6
CONTINUOUS
 62
1
 10
-2.6008224
 20
1.6418421
 11
-2.5821457
 21
1.6604881
  0
ENDBLK
  0
BLOCK
  2
*XH54
  3
*XH
 10
0.0
 20
0.0
 70
65
  0
LINE
  8
108
  6
CONTINUOUS
 62
1
 10
1.6294963
 20
-1.1989438
 11
4.4712317E-001
 21
-2.3812868
  0
LINE
  8
108
  6
CONTINUOUS
 62
1
 10
-1.1258748
 20
-1.1258848
 11
1.6294963
 21
1.6294862
  0
LINE
  8
108
  6
CONTINUOUS
 62
1
 10
-2.0973713E-001
 20
2.6187132
 11
-2.3705037
 21
4.5791617E-001
  0
ENDBLK
  0
BLOCK
  2
*XH55
  3
*XH
 10
0.0
 20
0.0
 70
65
  0
LINE
  8
108
  6
CONTINUOUS
 62
1
 10
2.4857585
 20
-3.4264633E-001
 11
-3.2399493E-001
 21
-3.1524303
  0
LINE
  8
108
  6
CONTINUOUS
 62
1
 10
-1.5142415
 20
-1.5142463
 11
1.8475749
 21
1.8475697
  0
LINE
  8
108
  6
CONTINUOUS
 62
1
 10
-9.8085533E-001
 20
1.8475697
 11
-1.5142415
 21
1.3141837
  0
ENDBLK
  0
BLOCK
  2
*XH56
  3
*XH
 10
0.0
 20
0.0
 70
65
  0
LINE
  8
108
  6
CONTINUOUS
 62
1
 10
4.8199267
 20
-8.369506E-001
 11
3.0867724
 21
-2.5700746
  0
LINE
  8
108
  6
CONTINUOUS
 62
1
 10
2.5834422E-001
 20
-2.5700746
 11
4.8199267
 21
1.9914794
  0
LINE
  8
108
  6
CONTINUOUS
 62
1
 10
2.4299121
 20
2.4299254
 11
-2.570086
 21
-2.5700746
  0
LINE
  8
108
  6
CONTINUOUS
 62
1
 10
-4.0392633
 20
-1.2108516
 11
-3.9851618E-001
 21
2.4299254
  0
LINE
  8
108
  6
CONTINUOUS
 62
1
 10
-3.2269464
 20
2.4299254
 11
-5.1800704
 21
4.767704E-001
  0
ENDBLK
  0
BLOCK
  2
*XH57
  3
*XH
 10
0.0
 20
0.0
 70
65
  0
LINE
  8
108
  6
CONTINUOUS
 62
1
 10
5.3347397
 20
1.0921174
 11
1.6310654
 21
-2.6115876
  0
LINE
  8
108
  6
CONTINUOUS
 62
1
 10
-1.1973648
 20
-2.6115876
 11
3.8026352
 21
2.3884124
  0
LINE
  8
108
  6
CONTINUOUS
 62
1
 10
9.74205E-001
 20
2.3884124
 11
-4.025795
 21
-2.6115876
  0
LINE
  8
108
  6
CONTINUOUS
 62
1
 10
-4.6652603
 20
-4.2259163E-001
 11
-1.8542252
 21
2.3884124
  0
ENDBLK
  0
BLOCK
  2
*XH58
  3
*XH
 10
0.0
 20
0.0
 70
65
  0
LINE
  8
108
  6
CONTINUOUS
 62
1
 10
2.7797605
 20
-2.3114135
 11
2.1614135
 21
-2.9297605
  0
LINE
  8
108
  6
CONTINUOUS
 62
1
 10
-6.670165E-001
 20
-2.9297605
 11
2.7797605
 21
5.170165E-001
  0
LINE
  8
108
  6
CONTINUOUS
 62
1
 10
2.7797605
 20
3.3454465
 11
-3.4954465
 21
-2.9297605
  0
LINE
  8
108
  6
CONTINUOUS
 62
1
 10
-3.9702395
 20
-5.761235E-001
 11
-2.8238765
 21
5.702395E-001
  0
LINE
  8
108
  6
CONTINUOUS
 62
1
 10
-7.202395E-001
 20
2.6738765
 11
1.1761235
 21
4.5702395
  0
ENDBLK
  0
BLOCK
  2
*XH59
  3
*XH
 10
0.0
 20
0.0
 70
65
  0
LINE
  8
108
  6
CONTINUOUS
 62
1
 10
4.0174681
 20
-1.6393774
 11
2.7080201
 21
-2.9488554
  0
LINE
  8
108
  6
CONTINUOUS
 62
1
 10
-1.204099E-001
 20
-2.9488554
 11
3.3795901
 21
5.511446E-001
  0
LINE
  8
108
  6
CONTINUOUS
 62
1
 10
7.674681E-001
 20
7.674836E-001
 11
-2.9488399
 21
-2.9488554
  0
LINE
  8
108
  6
CONTINUOUS
 62
1
 10
-3.7325319
 20
-9.040864E-001
 11
7.674681E-001
 21
3.5959136
  0
LINE
  8
108
  6
CONTINUOUS
 62
1
 10
-1.1057009
 20
4.5511446
 11
-3.7325319
 21
1.9243436
  0
ENDBLK
  0
BLOCK
  2
*XH60
  3
*XH
 10
0.0
 20
0.0
 70
65
  0
LINE
  8
108
  6
CONTINUOUS
 62
1
 10
1.5899201
 20
-4.06694
 11
3.2621001
 21
-2.39476
  0
LINE
  8
108
  6
CONTINUOUS
 62
1
 10
3.2621001
 20
4.3367E-001
 11
-1.2385099
 21
-4.06694
  0
LINE
  8
108
  6
CONTINUOUS
 62
1
 10
-3.7378999
 20
-3.7379
 11
-3.0669399
 21
-3.06694
  0
LINE
  8
108
  6
CONTINUOUS
 62
1
 10
-1.2378999
 20
-1.2379
 11
3.2621001
 21
3.2621
  0
LINE
  8
108
  6
CONTINUOUS
 62
1
 10
1.6046301
 20
4.43306
 11
-1.2378999
 21
1.59053
  0
LINE
  8
108
  6
CONTINUOUS
 62
1
 10
-1.2378999
 20
4.41896
 11
-1.2238009
 21
4.43306
  0
ENDBLK
  0
BLOCK
  2
*XH61
  3
*XH
 10
0.0
 20
0.0
 70
65
  0
LINE
  8
108
  6
CONTINUOUS
 62
1
 10
2.1144344
 20
-2.4110505
 11
3.1144344
 21
-1.4110505
  0
LINE
  8
108
  6
CONTINUOUS
 62
1
 10
9.139944E-001
 20
-7.830595E-001
 11
-7.139956E-001
 21
-2.4110505
  0
LINE
  8
108
  6
CONTINUOUS
 62
1
 10
-3.5424226
 20
-2.4110505
 11
-2.5424226
 21
-1.4110805
  0
LINE
  8
108
  6
CONTINUOUS
 62
1
 10
-5.860056E-001
 20
5.453705E-001
 11
9.139944E-001
 21
2.0453705
  0
LINE
  8
108
  6
CONTINUOUS
 62
1
 10
9.139944E-001
 20
4.8738005
 11
-5.860056E-001
 21
3.3738005
  0
ENDBLK
  0
BLOCK
  2
*XH62
  3
*XH
 10
0.0
 20
0.0
 70
65
  0
LINE
  8
108
  6
CONTINUOUS
 62
1
 10
-4.1140209
 20
-1.28598E-001
 11
-3.0213699
 21
-1.221279
  0
LINE
  8
108
  6
CONTINUOUS
 62
1
 10
-1.9293988E-001
 20
-1.221279
 11
-2.6998369
 21
1.285618
  0
LINE
  8
108
  6
CONTINUOUS
 62
1
 10
1.3549012E-001
 20
1.278721
 11
2.6354901
 21
-1.221279
  0
LINE
  8
108
  6
CONTINUOUS
 62
1
 10
4.2932661
 20
-5.0625E-002
 11
2.9639211
 21
1.278721
  0
ENDBLK
  0
BLOCK
  2
*XH63
  3
*XH
 10
0.0
 20
0.0
 70
65
  0
LINE
  8
108
  6
CONTINUOUS
 62
1
 10
-4.6805804
 20
4.3796137E-001
 11
-2.9657974
 21
-1.2768516
  0
LINE
  8
108
  6
CONTINUOUS
 62
1
 10
-1.3736738E-001
 20
-1.2768516
 11
-3.6373674
 21
2.2231484
  0
LINE
  8
108
  6
CONTINUOUS
 62
1
 10
1.9106263E-001
 20
1.2231484
 11
2.6910626
 21
-1.2768516
  0
LINE
  8
108
  6
CONTINUOUS
 62
1
 10
5.5194936
 20
-1.2768516
 11
3.0194936
 21
1.2231484
  0
ENDBLK
  0
BLOCK
  2
*XH64
  3
*XH
 10
0.0
 20
0.0
 70
65
  0
LINE
  8
108
  6
CONTINUOUS
 62
1
 10
-5.8109554
 20
1.541137E-001
 11
-4.1888244
 21
-1.4680173
  0
LINE
  8
108
  6
CONTINUOUS
 62
1
 10
-1.3603944
 20
-1.4680173
 11
-3.8604554
 21
1.0320127
  0
LINE
  8
108
  6
CONTINUOUS
 62
1
 10
-1.0320254
 20
1.0320127
 11
1.4680356
 21
-1.4680173
  0
LINE
  8
108
  6
CONTINUOUS
 62
1
 10
4.2964666
 20
-1.4680173
 11
1.7964046
 21
1.0320127
  0
LINE
  8
108
  6
CONTINUOUS
 62
1
 10
3.6248356
 20
2.0319827
 11
5.0669126
 21
5.899347E-001
  0
ENDBLK
  0
BLOCK
  2
*XH65
  3
*XH
 10
0.0
 20
0.0
 70
65
  0
LINE
  8
108
  6
CONTINUOUS
 62
1
 10
-1.2095804E+001
 20
-6.3211525E-001
 11
-1.1608438E+001
 21
-1.1194503
  0
LINE
  8
108
  6
CONTINUOUS
 62
1
 10
-8.7800079
 20
-1.1194503
 11
-1.0681619E+001
 21
7.8209975E-001
  0
LINE
  8
108
  6
CONTINUOUS
 62
1
 10
-8.4516389
 20
1.3805497
 11
-5.9516389
 21
-1.1194503
  0
LINE
  8
108
  6
CONTINUOUS
 62
1
 10
-3.1232089
 20
-1.1194503
 11
-5.6232089
 21
1.3805497
  0
LINE
  8
108
  6
CONTINUOUS
 62
1
 10
-2.7947789
 20
1.3805497
 11
-2.9477885E-001
 21
-1.1194503
  0
LINE
  8
108
  6
CONTINUOUS
 62
1
 10
2.5336522
 20
-1.1194503
 11
3.365215E-002
 21
1.3805497
  0
LINE
  8
108
  6
CONTINUOUS
 62
1
 10
2.8620822
 20
1.3805798
 11
5.3620822
 21
-1.1194503
  0
LINE
  8
108
  6
CONTINUOUS
 62
1
 10
8.1905122
 20
-1.1194503
 11
5.6905122
 21
1.3805798
  0
LINE
  8
108
  6
CONTINUOUS
 62
1
 10
8.5189422
 20
1.3805798
 11
1.1018942E+001
 21
-1.1194503
  0
LINE
  8
108
  6
CONTINUOUS
 62
1
 10
1.3847372E+001
 20
-1.1194503
 11
1.1347372E+001
 21
1.3805798
  0
ENDBLK
  0
BLOCK
  2
*XH66
  3
*XH
 10
0.0
 20
0.0
 70
65
  0
LINE
  8
108
  6
CONTINUOUS
 62
1
 10
-7.1052198
 20
3.4162083E-002
 11
-5.9315748
 21
-1.1394829
  0
LINE
  8
108
  6
CONTINUOUS
 62
1
 10
-3.1031438
 20
-1.1394829
 11
-5.6032058
 21
1.3605471
  0
LINE
  8
108
  6
CONTINUOUS
 62
1
 10
-2.7747748
 20
1.3605471
 11
-2.7471383E-001
 21
-1.1394829
  0
LINE
  8
108
  6
CONTINUOUS
 62
1
 10
2.5537162
 20
-1.1394829
 11
5.3655167E-002
 21
1.3605471
  0
LINE
  8
108
  6
CONTINUOUS
 62
1
 10
2.8820852
 20
1.3605471
 11
5.3821462
 21
-1.1394829
  0
LINE
  8
108
  6
CONTINUOUS
 62
1
 10
8.2105152
 20
-1.1394829
 11
5.7105152
 21
1.3605471
  0
ENDBLK
  0
BLOCK
  2
*XH67
  3
*XH
 10
0.0
 20
0.0
 70
65
  0
LINE
  8
108
  6
CONTINUOUS
 62
1
 10
-3.7733383
 20
-4.6931825E-001
 11
-3.5681991
 21
-6.7442725E-001
  0
LINE
  8
108
  6
CONTINUOUS
 62
1
 10
-7.3976901E-001
 20
-6.7442725E-001
 11
-2.239769
 21
8.2554275E-001
  0
LINE
  8
108
  6
CONTINUOUS
 62
1
 10
5.8866119E-001
 20
8.2554275E-001
 11
2.0886612
 21
-6.7442725E-001
  0
LINE
  8
108
  6
CONTINUOUS
 62
1
 10
4.2266617
 20
1.597175E-002
 11
3.4170914
 21
8.2554275E-001
  0
ENDBLK
  0
BLOCK
  2
*XH68
  3
*XH
 10
0.0
 20
0.0
 70
65
  0
LINE
  8
108
  6
CONTINUOUS
 62
1
 10
-6.8976033
 20
-1.7347767E-001
 11
-5.6777548
 21
-1.3933257
  0
LINE
  8
108
  6
CONTINUOUS
 62
1
 10
-2.8493246
 20
-1.3933257
 11
-6.3493246
 21
2.1066743
  0
LINE
  8
108
  6
CONTINUOUS
 62
1
 10
-3.5208943
 20
2.1066743
 11
-2.089435E-002
 21
-1.3933257
  0
LINE
  8
108
  6
CONTINUOUS
 62
1
 10
2.8075358
 20
-1.3933257
 11
-6.9246415E-001
 21
2.1066743
  0
LINE
  8
108
  6
CONTINUOUS
 62
1
 10
3.135966
 20
1.1067043
 11
5.635966
 21
-1.3933257
  0
LINE
  8
108
  6
CONTINUOUS
 62
1
 10
8.4643962
 20
-1.3933257
 11
5.9643961
 21
1.1067043
  0
ENDBLK
  0
BLOCK
  2
*XH69
  3
*XH
 10
0.0
 20
0.0
 70
65
  0
LINE
  8
108
  6
CONTINUOUS
 62
1
 10
1.6318059
 20
3.749985
 11
1.6318059
 21
-3.749985
  0
LINE
  8
108
  6
CONTINUOUS
 62
1
 10
1.4818429
 20
-3.749985
 11
1.4818429
 21
3.749985
  0
LINE
  8
108
  6
CONTINUOUS
 62
1
 10
1.3318189
 20
3.749985
 11
1.3318189
 21
-3.749985
  0
LINE
  8
108
  6
CONTINUOUS
 62
1
 10
1.1817939
 20
-3.749985
 11
1.1817939
 21
3.749985
  0
LINE
  8
108
  6
CONTINUOUS
 62
1
 10
1.0318309
 20
3.749985
 11
1.0318309
 21
-3.749985
  0
LINE
  8
108
  6
CONTINUOUS
 62
1
 10
8.8180594E-001
 20
-3.749985
 11
8.8180594E-001
 21
3.749985
  0
LINE
  8
108
  6
CONTINUOUS
 62
1
 10
7.3184294E-001
 20
3.749985
 11
7.3184294E-001
 21
-3.749985
  0
LINE
  8
108
  6
CONTINUOUS
 62
1
 10
5.8181894E-001
 20
-3.749985
 11
5.8181894E-001
 21
-2.749985
  0
LINE
  8
108
  6
CONTINUOUS
 62
1
 10
5.8181894E-001
 20
2.749985
 11
5.8181894E-001
 21
3.749985
  0
LINE
  8
108
  6
CONTINUOUS
 62
1
 10
4.3179394E-001
 20
3.749985
 11
4.3179394E-001
 21
2.749985
  0
LINE
  8
108
  6
CONTINUOUS
 62
1
 10
4.3179394E-001
 20
-2.749985
 11
4.3179394E-001
 21
-3.749985
  0
LINE
  8
108
  6
CONTINUOUS
 62
1
 10
2.8183094E-001
 20
-3.749985
 11
2.8183094E-001
 21
-2.749985
  0
LINE
  8
108
  6
CONTINUOUS
 62
1
 10
2.8183094E-001
 20
2.749985
 11
2.8183094E-001
 21
3.749985
  0
LINE
  8
108
  6
CONTINUOUS
 62
1
 10
1.3180594E-001
 20
3.749985
 11
1.3180594E-001
 21
2.749985
  0
LINE
  8
108
  6
CONTINUOUS
 62
1
 10
1.3180594E-001
 20
-2.749985
 11
1.3180594E-001
 21
-3.749985
  0
LINE
  8
108
  6
CONTINUOUS
 62
1
 10
-1.8157061E-002
 20
-3.749985
 11
-1.8157061E-002
 21
-2.749985
  0
LINE
  8
108
  6
CONTINUOUS
 62
1
 10
-1.8157061E-002
 20
2.749985
 11
-1.8157061E-002
 21
3.749985
  0
LINE
  8
108
  6
CONTINUOUS
 62
1
 10
-1.6818106E-001
 20
3.749985
 11
-1.6818106E-001
 21
2.749985
  0
LINE
  8
108
  6
CONTINUOUS
 62
1
 10
-1.6818106E-001
 20
-2.749985
 11
-1.6818106E-001
 21
-3.749985
  0
LINE
  8
108
  6
CONTINUOUS
 62
1
 10
-3.1820606E-001
 20
-3.749985
 11
-3.1820606E-001
 21
-2.749985
  0
LINE
  8
108
  6
CONTINUOUS
 62
1
 10
-3.1820606E-001
 20
2.749985
 11
-3.1820606E-001
 21
3.749985
  0
LINE
  8
108
  6
CONTINUOUS
 62
1
 10
-4.6816906E-001
 20
3.749985
 11
-4.6816906E-001
 21
2.749985
  0
LINE
  8
108
  6
CONTINUOUS
 62
1
 10
-4.6816906E-001
 20
-2.749985
 11
-4.6816906E-001
 21
-3.749985
  0
LINE
  8
108
  6
CONTINUOUS
 62
1
 10
-6.1819406E-001
 20
-3.749985
 11
-6.1819406E-001
 21
-2.749985
  0
LINE
  8
108
  6
CONTINUOUS
 62
1
 10
-6.1819406E-001
 20
2.749985
 11
-6.1819406E-001
 21
3.749985
  0
LINE
  8
108
  6
CONTINUOUS
 62
1
 10
-7.6815706E-001
 20
3.749985
 11
-7.6815706E-001
 21
2.749985
  0
LINE
  8
108
  6
CONTINUOUS
 62
1
 10
-7.6815706E-001
 20
-2.749985
 11
-7.6815706E-001
 21
-3.749985
  0
LINE
  8
108
  6
CONTINUOUS
 62
1
 10
-9.1818106E-001
 20
-3.749985
 11
-9.1818106E-001
 21
-2.749985
  0
LINE
  8
108
  6
CONTINUOUS
 62
1
 10
-9.1818106E-001
 20
2.749985
 11
-9.1818106E-001
 21
3.749985
  0
LINE
  8
108
  6
CONTINUOUS
 62
1
 10
-1.0682061
 20
3.749985
 11
-1.0682061
 21
2.749985
  0
LINE
  8
108
  6
CONTINUOUS
 62
1
 10
-1.0682061
 20
-2.749985
 11
-1.0682061
 21
-3.749985
  0
LINE
  8
108
  6
CONTINUOUS
 62
1
 10
-1.2181691
 20
-3.749985
 11
-1.2181691
 21
-2.749985
  0
LINE
  8
108
  6
CONTINUOUS
 62
1
 10
-1.2181691
 20
2.749985
 11
-1.2181691
 21
3.749985
  0
ENDBLK
  0
BLOCK
  2
*XH70
  3
*XH
 10
0.0
 20
0.0
 70
65
  0
LINE
  8
108
  6
CONTINUOUS
 62
1
 10
1.2181688
 20
3.749985
 11
1.2181688
 21
2.749985
  0
LINE
  8
108
  6
CONTINUOUS
 62
1
 10
1.2181688
 20
-2.749985
 11
1.2181688
 21
-3.749985
  0
LINE
  8
108
  6
CONTINUOUS
 62
1
 10
1.0682058
 20
-3.749985
 11
1.0682058
 21
-2.749985
  0
LINE
  8
108
  6
CONTINUOUS
 62
1
 10
1.0682058
 20
2.749985
 11
1.0682058
 21
3.749985
  0
LINE
  8
108
  6
CONTINUOUS
 62
1
 10
9.1818185E-001
 20
3.749985
 11
9.1818185E-001
 21
2.749985
  0
LINE
  8
108
  6
CONTINUOUS
 62
1
 10
9.1818185E-001
 20
-2.749985
 11
9.1818185E-001
 21
-3.749985
  0
LINE
  8
108
  6
CONTINUOUS
 62
1
 10
7.6815685E-001
 20
-3.749985
 11
7.6815685E-001
 21
-2.749985
  0
LINE
  8
108
  6
CONTINUOUS
 62
1
 10
7.6815685E-001
 20
2.749985
 11
7.6815685E-001
 21
3.749985
  0
LINE
  8
108
  6
CONTINUOUS
 62
1
 10
6.1819385E-001
 20
3.749985
 11
6.1819385E-001
 21
2.749985
  0
LINE
  8
108
  6
CONTINUOUS
 62
1
 10
6.1819385E-001
 20
-2.749985
 11
6.1819385E-001
 21
-3.749985
  0
LINE
  8
108
  6
CONTINUOUS
 62
1
 10
4.6816885E-001
 20
-3.749985
 11
4.6816885E-001
 21
-2.749985
  0
LINE
  8
108
  6
CONTINUOUS
 62
1
 10
4.6816885E-001
 20
2.749985
 11
4.6816885E-001
 21
3.749985
  0
LINE
  8
108
  6
CONTINUOUS
 62
1
 10
3.1820585E-001
 20
3.749985
 11
3.1820585E-001
 21
2.749985
  0
LINE
  8
108
  6
CONTINUOUS
 62
1
 10
3.1820585E-001
 20
-2.749985
 11
3.1820585E-001
 21
-3.749985
  0
LINE
  8
108
  6
CONTINUOUS
 62
1
 10
1.6818185E-001
 20
-3.749985
 11
1.6818185E-001
 21
-2.749985
  0
LINE
  8
108
  6
CONTINUOUS
 62
1
 10
1.6818185E-001
 20
2.749985
 11
1.6818185E-001
 21
3.749985
  0
LINE
  8
108
  6
CONTINUOUS
 62
1
 10
1.8156848E-002
 20
3.749985
 11
1.8156848E-002
 21
2.749985
  0
LINE
  8
108
  6
CONTINUOUS
 62
1
 10
1.8156848E-002
 20
-2.749985
 11
1.8156848E-002
 21
-3.749985
  0
LINE
  8
108
  6
CONTINUOUS
 62
1
 10
-1.3180615E-001
 20
-3.749985
 11
-1.3180615E-001
 21
-2.749985
  0
LINE
  8
108
  6
CONTINUOUS
 62
1
 10
-1.3180615E-001
 20
2.749985
 11
-1.3180615E-001
 21
3.749985
  0
LINE
  8
108
  6
CONTINUOUS
 62
1
 10
-2.8183115E-001
 20
3.749985
 11
-2.8183115E-001
 21
2.749985
  0
LINE
  8
108
  6
CONTINUOUS
 62
1
 10
-2.8183115E-001
 20
-2.749985
 11
-2.8183115E-001
 21
-3.749985
  0
LINE
  8
108
  6
CONTINUOUS
 62
1
 10
-4.3179415E-001
 20
-3.749985
 11
-4.3179415E-001
 21
-2.749985
  0
LINE
  8
108
  6
CONTINUOUS
 62
1
 10
-4.3179415E-001
 20
2.749985
 11
-4.3179415E-001
 21
3.749985
  0
LINE
  8
108
  6
CONTINUOUS
 62
1
 10
-5.8181815E-001
 20
3.749985
 11
-5.8181815E-001
 21
2.749985
  0
LINE
  8
108
  6
CONTINUOUS
 62
1
 10
-5.8181815E-001
 20
-2.749985
 11
-5.8181815E-001
 21
-3.749985
  0
LINE
  8
108
  6
CONTINUOUS
 62
1
 10
-7.3184315E-001
 20
-3.749985
 11
-7.3184315E-001
 21
3.749985
  0
LINE
  8
108
  6
CONTINUOUS
 62
1
 10
-8.8180615E-001
 20
3.749985
 11
-8.8180615E-001
 21
-3.749985
  0
LINE
  8
108
  6
CONTINUOUS
 62
1
 10
-1.0318312
 20
-3.749985
 11
-1.0318312
 21
3.749985
  0
LINE
  8
108
  6
CONTINUOUS
 62
1
 10
-1.1817942
 20
3.749985
 11
-1.1817942
 21
-3.749985
  0
LINE
  8
108
  6
CONTINUOUS
 62
1
 10
-1.3318182
 20
-3.749985
 11
-1.3318182
 21
3.749985
  0
LINE
  8
108
  6
CONTINUOUS
 62
1
 10
-1.4818432
 20
3.749985
 11
-1.4818432
 21
-3.749985
  0
LINE
  8
108
  6
CONTINUOUS
 62
1
 10
-1.6318062
 20
-3.749985
 11
-1.6318062
 21
3.749985
  0
ENDBLK
  0
BLOCK
  2
*XH71
  3
*XH
 10
0.0
 20
0.0
 70
65
  0
LINE
  8
108
  6
CONTINUOUS
 62
1
 10
-5.4253687
 20
-2.3527883
 11
5.5282333E-002
 21
-7.8334712
  0
LINE
  8
108
  6
CONTINUOUS
 62
1
 10
4.2756193
 20
-7.8111622
 11
1.1822353
 21
-4.7177783
  0
LINE
  8
108
  6
CONTINUOUS
 62
1
 10
-3.3566437
 20
-1.7889925E-001
 11
-4.7823027
 21
1.2467598
  0
LINE
  8
108
  6
CONTINUOUS
 62
1
 10
-2.3416897
 20
3.0488227
 11
-1.0750887
 21
1.7822217
  0
LINE
  8
108
  6
CONTINUOUS
 62
1
 10
3.0715793
 20
1.8781687
 11
6.9786033E-001
 21
4.2518568
  0
LINE
  8
108
  6
CONTINUOUS
 62
1
 10
3.4228973
 20
5.7694957
 11
4.2756193
 21
4.9167737
  0
ENDBLK
  0
BLOCK
  2
*XH72
  3
*XH
 10
0.0
 20
0.0
 70
65
  0
LINE
  8
108
  6
CONTINUOUS
 62
1
 10
1.4927065
 20
1.4927215
 11
-1.4927065
 21
-1.4927215
  0
ENDBLK
  0
BLOCK
  2
*XH73
  3
*XH
 10
0.0
 20
0.0
 70
65
  0
LINE
  8
108
  6
CONTINUOUS
 62
1
 10
2.2801514
 20
2.2801515
 11
-2.2801514
 21
-2.2801515
  0
ENDBLK
  0
BLOCK
  2
*XH74
  3
*XH
 10
0.0
 20
0.0
 70
65
  0
LINE
  8
108
  6
CONTINUOUS
 62
1
 10
2.7117932E+001
 20
9.549742E-001
 11
2.2868543E+001
 21
-3.2943848
  0
LINE
  8
108
  6
CONTINUOUS
 62
1
 10
1.5797498E+001
 20
-3.2943848
 11
2.0797498E+001
 21
1.7056152
  0
LINE
  8
108
  6
CONTINUOUS
 62
1
 10
2.5117932E+001
 20
6.0260502
 11
2.6797498E+001
 21
7.7056152
  0
LINE
  8
108
  6
CONTINUOUS
 62
1
 10
1.3726453E+001
 20
1.7056152
 11
8.7264528
 21
-3.2943848
  0
LINE
  8
108
  6
CONTINUOUS
 62
1
 10
1.6553468
 20
-3.2943848
 11
6.6553468
 21
1.7056152
  0
LINE
  8
108
  6
CONTINUOUS
 62
1
 10
-4.156982E-001
 20
1.7056152
 11
-5.4156982
 21
-3.2943848
  0
LINE
  8
108
  6
CONTINUOUS
 62
1
 10
-1.2486804E+001
 20
-3.2943848
 11
-7.4867432
 21
1.7056152
  0
LINE
  8
108
  6
CONTINUOUS
 62
1
 10
-1.4557849E+001
 20
1.7056152
 11
-1.9557849E+001
 21
-3.2943848
  0
LINE
  8
108
  6
CONTINUOUS
 62
1
 10
-2.6628894E+001
 20
-3.2943848
 11
-2.1628894E+001
 21
1.7056152
  0
LINE
  8
108
  6
CONTINUOUS
 62
1
 10
-2.87E+001
 20
1.7056152
 11
-3.2382068E+001
 21
-1.9764828
  0
ENDBLK
  0
BLOCK
  2
*XH75
  3
*XH
 10
0.0
 20
0.0
 70
65
  0
LINE
  8
108
  6
CONTINUOUS
 62
1
 10
3.2257943
 20
-1.3946821E+001
 11
3.6858163
 21
-1.3486768E+001
  0
LINE
  8
108
  6
CONTINUOUS
 62
1
 10
3.6858163
 20
-6.4156932
 11
-3.8453077
 21
-1.3946821E+001
  0
LINE
  8
108
  6
CONTINUOUS
 62
1
 10
-8.4990551
 20
-1.1529523E+001
 11
-5.9163527
 21
-8.9468212
  0
LINE
  8
108
  6
CONTINUOUS
 62
1
 10
-1.3141837
 20
-4.3446482
 11
3.6858163
 21
6.5535179E-001
  0
LINE
  8
108
  6
CONTINUOUS
 62
1
 10
3.6858163
 20
7.7264278
 11
-1.3141837
 21
2.7264278
  0
LINE
  8
108
  6
CONTINUOUS
 62
1
 10
-1.3141837
 20
9.7975028
 11
3.6858163
 21
1.4797503E+001
  0
LINE
  8
108
  6
CONTINUOUS
 62
1
 10
1.8625743
 20
2.0045336E+001
 11
-1.3141837
 21
1.6868548E+001
  0
ENDBLK
  0
BLOCK
  2
*XH76
  3
*XH
 10
0.0
 20
0.0
 70
65
  0
LINE
  8
108
  6
CONTINUOUS
 62
1
 10
1.0945251E+001
 20
3.3865725E-001
 11
5.9452513
 21
-4.6613428
  0
LINE
  8
108
  6
CONTINUOUS
 62
1
 10
-1.1257937
 20
-4.6613428
 11
3.8742062
 21
3.3865725E-001
  0
LINE
  8
108
  6
CONTINUOUS
 62
1
 10
-3.1916497
 20
3.4387625E-001
 11
-6.0896608
 21
-2.5541037
  0
LINE
  8
108
  6
CONTINUOUS
 62
1
 10
-6.0896608
 20
4.5169413
 11
-4.2679437
 21
6.3386572
  0
ENDBLK
  0
BLOCK
  2
*XH77
  3
*XH
 10
0.0
 20
0.0
 70
65
  0
LINE
  8
108
  6
CONTINUOUS
 62
1
 10
1.2238464
 20
1.2238465
 11
-1.2238464
 21
-1.2238465
  0
ENDBLK
  0
BLOCK
  2
*XH78
  3
*XH
 10
0.0
 20
0.0
 70
65
  0
LINE
  8
108
  6
CONTINUOUS
 62
1
 10
1.862122
 20
1.8621215
 11
-1.862122
 21
-1.8621215
  0
ENDBLK
  0
BLOCK
  2
*XH79
  3
*XH
 10
0.0
 20
0.0
 70
65
  0
LINE
  8
108
  6
CONTINUOUS
 62
1
 10
1.9686113E-001
 20
-2.8644484
 11
2.8337631
 21
-4.6201338E-001
  0
LINE
  8
108
  6
CONTINUOUS
 62
1
 10
2.5168681
 20
1.2784346
 11
-1.5066299
 21
-2.3872754
  0
LINE
  8
108
  6
CONTINUOUS
 62
1
 10
-2.4792249
 20
-1.2441174
 11
1.4689561
 21
2.3529586
  0
LINE
  8
108
  6
CONTINUOUS
 62
1
 10
-3.8040887E-001
 20
2.6971966
 11
-2.6501849
 21
6.2926463E-001
  0
ENDBLK
  0
ENDSEC
  0
SECTION
  2
ENTITIES
  0
TEXT
  8
103
  6
CONTINUOUS
 62
40
 10
4.1208165E+002
 20
1.4631415E+001
 40
5.0
  1
BTS-Zubehör Pendel-Zapfenband-80XX
 41
6.6477273E-001
 72
1
 11
3.5557597E+002
 21
1.2131415E+001
 73
2
  0
ARC
  8
104
  6
CONTINUOUS
 62
40
 10
3.0906411E+002
 20
1.8658676E+002
 40
1.6E+001
 50
9.0E+001
 51
2.7E+002
  0
LINE
  8
104
  6
CONTINUOUS
 62
40
 10
3.0906411E+002
 20
1.7058676E+002
 11
3.7906411E+002
 21
1.7058676E+002
  0
ARC
  8
104
  6
CONTINUOUS
 62
40
 10
3.7906411E+002
 20
1.8658676E+002
 40
1.6E+001
 50
2.7E+002
 51
4.5E+002
  0
LINE
  8
104
  6
CONTINUOUS
 62
40
 10
3.7906411E+002
 20
2.0258676E+002
 11
3.0906411E+002
 21
2.0258676E+002
  0
ARC
  8
105
  6
HIDDEN
 62
1
 10
3.0906411E+002
 20
1.9683676E+002
 40
1.4999918
 50
3.5580439E+002
 51
5.4419561E+002
  0
ARC
  8
105
  6
HIDDEN
 62
1
 10
3.0906411E+002
 20
1.8658676E+002
 40
1.0250013E+001
 50
9.8392197E+001
 51
1.7160781E+002
  0
ARC
  8
105
  6
HIDDEN
 62
1
 10
2.9881411E+002
 20
1.8658676E+002
 40
1.4999913
 50
8.580443E+001
 51
2.7419557E+002
  0
ARC
  8
105
  6
HIDDEN
 62
1
 10
3.0906409E+002
 20
1.8658677E+002
 40
1.0249999E+001
 50
1.8839231E+002
 51
2.6160789E+002
  0
ARC
  8
105
  6
HIDDEN
 62
1
 10
3.0906411E+002
 20
1.7633676E+002
 40
1.499994
 50
1.7580329E+002
 51
3.6419671E+002
  0
ARC
  8
105
  6
HIDDEN
 62
1
 10
3.0906413E+002
 20
1.8658677E+002
 40
1.0249999E+001
 50
2.7839211E+002
 51
3.5160769E+002
  0
ARC
  8
105
  6
HIDDEN
 62
1
 10
3.1931411E+002
 20
1.8658676E+002
 40
1.4999913
 50
2.6580443E+002
 51
4.5419557E+002
  0
ARC
  8
105
  6
HIDDEN
 62
1
 10
3.0906411E+002
 20
1.8658676E+002
 40
1.0250014E+001
 50
8.3921909
 51
8.1607803E+001
  0
ARC
  8
104
  6
CONTINUOUS
 62
40
 10
3.3121413E+002
 20
1.8658676E+002
 40
3.25
 50
9.0E+001
 51
2.7E+002
  0
LINE
  8
104
  6
CONTINUOUS
 62
40
 10
3.3121413E+002
 20
1.8333676E+002
 11
3.4391409E+002
 21
1.8333676E+002
  0
ARC
  8
104
  6
CONTINUOUS
 62
40
 10
3.4391409E+002
 20
1.8658676E+002
 40
3.25
 50
2.7E+002
 51
4.5E+002
  0
LINE
  8
104
  6
CONTINUOUS
 62
40
 10
3.4391409E+002
 20
1.8983676E+002
 11
3.3121413E+002
 21
1.8983676E+002
  0
CIRCLE
  8
104
  6
CONTINUOUS
 62
40
 10
3.598641E+002
 20
1.8658676E+002
 40
3.25
  0
ARC
  8
104
  6
CONTINUOUS
 62
40
 10
3.7571413E+002
 20
1.8658676E+002
 40
3.25
 50
9.0E+001
 51
2.7E+002
  0
LINE
  8
104
  6
CONTINUOUS
 62
40
 10
3.7571413E+002
 20
1.8333676E+002
 11
3.8841409E+002
 21
1.8333676E+002
  0
ARC
  8
104
  6
CONTINUOUS
 62
40
 10
3.8841409E+002
 20
1.8658676E+002
 40
3.25
 50
2.7E+002
 51
4.5E+002
  0
LINE
  8
104
  6
CONTINUOUS
 62
40
 10
3.8841409E+002
 20
1.8983676E+002
 11
3.7571413E+002
 21
1.8983676E+002
  0
ARC
  8
105
  6
HIDDEN
 62
1
 10
3.0906411E+002
 20
1.8658676E+002
 40
1.6E+001
 50
2.7E+002
 51
4.5E+002
  0
LINE
  8
106
  6
CENTERLINE
 62
1
 10
3.0906411E+002
 20
2.0502328E+002
 11
3.0906411E+002
 21
1.6799719E+002
  0
LINE
  8
106
  6
CENTERLINE
 62
1
 10
2.9001437E+002
 20
1.8658676E+002
 11
3.9791909E+002
 21
1.8658676E+002
  0
LINE
  8
106
  6
CENTERLINE
 62
1
 10
3.7906411E+002
 20
2.0521563E+002
 11
3.7906411E+002
 21
1.6857421E+002
  0
LINE
  8
106
  6
CENTERLINE
 62
1
 10
3.7571413E+002
 20
1.9155926E+002
 11
3.7571413E+002
 21
1.8203823E+002
  0
LINE
  8
106
  6
CENTERLINE
 62
1
 10
3.8841409E+002
 20
1.9165542E+002
 11
3.8841409E+002
 21
1.8136505E+002
  0
LINE
  8
106
  6
CENTERLINE
 62
1
 10
3.598641E+002
 20
1.9204009E+002
 11
3.598641E+002
 21
1.8088418E+002
  0
LINE
  8
106
  6
CENTERLINE
 62
1
 10
3.4391409E+002
 20
1.9165542E+002
 11
3.4391409E+002
 21
1.8088418E+002
  0
LINE
  8
106
  6
CENTERLINE
 62
1
 10
3.3121413E+002
 20
1.9165542E+002
 11
3.3121413E+002
 21
1.8078802E+002
  0
LINE
  8
105
  6
HIDDEN
 62
1
 10
2.9731411E+002
 20
2.4517909E+002
 11
2.9731411E+002
 21
2.2167909E+002
  0
LINE
  8
105
  6
HIDDEN
 62
1
 10
2.9892385E+002
 20
2.2167909E+002
 11
2.9892385E+002
 21
2.4517909E+002
  0
LINE
  8
105
  6
HIDDEN
 62
1
 10
3.0756814E+002
 20
2.4517909E+002
 11
3.0756814E+002
 21
2.2167909E+002
  0
LINE
  8
105
  6
HIDDEN
 62
1
 10
3.1056008E+002
 20
2.2167909E+002
 11
3.1056008E+002
 21
2.4517909E+002
  0
LINE
  8
105
  6
HIDDEN
 62
1
 10
3.1920437E+002
 20
2.4517909E+002
 11
3.1920437E+002
 21
2.2167909E+002
  0
LINE
  8
105
  6
HIDDEN
 62
1
 10
3.2081411E+002
 20
2.2167909E+002
 11
3.2081411E+002
 21
2.4517909E+002
  0
LINE
  8
105
  6
HIDDEN
 62
1
 10
3.2796413E+002
 20
2.4517909E+002
 11
3.2806167E+002
 21
2.4017909E+002
  0
LINE
  8
105
  6
HIDDEN
 62
1
 10
3.4716409E+002
 20
2.4017909E+002
 11
3.4716409E+002
 21
2.4517909E+002
  0
LINE
  8
105
  6
HIDDEN
 62
1
 10
3.566141E+002
 20
2.4517909E+002
 11
3.566141E+002
 21
2.4017909E+002
  0
LINE
  8
105
  6
HIDDEN
 62
1
 10
3.631141E+002
 20
2.4017909E+002
 11
3.631141E+002
 21
2.4517909E+002
  0
LINE
  8
105
  6
HIDDEN
 62
1
 10
3.7246413E+002
 20
2.4517909E+002
 11
3.7246413E+002
 21
2.4017909E+002
  0
LINE
  8
105
  6
HIDDEN
 62
1
 10
3.9166409E+002
 20
2.4017909E+002
 11
3.9166409E+002
 21
2.4517909E+002
  0
LINE
  8
106
  6
CENTERLINE
 62
1
 10
3.3121413E+002
 20
2.4778944E+002
 11
3.3121413E+002
 21
2.3754139E+002
  0
LINE
  8
106
  6
CENTERLINE
 62
1
 10
3.4391409E+002
 20
2.4740272E+002
 11
3.4391409E+002
 21
2.3773475E+002
  0
LINE
  8
106
  6
CENTERLINE
 62
1
 10
3.598641E+002
 20
2.4778944E+002
 11
3.598641E+002
 21
2.3773475E+002
  0
LINE
  8
106
  6
CENTERLINE
 62
1
 10
3.7571413E+002
 20
2.4856288E+002
 11
3.7571413E+002
 21
2.3696131E+002
  0
LINE
  8
106
  6
CENTERLINE
 62
1
 10
3.8841409E+002
 20
2.4836952E+002
 11
3.8841409E+002
 21
2.3734803E+002
  0
LINE
  8
104
  6
CONTINUOUS
 62
40
 10
2.9306411E+002
 20
2.4517909E+002
 11
2.9306411E+002
 21
2.2167909E+002
  0
LINE
  8
104
  6
CONTINUOUS
 62
40
 10
2.9306411E+002
 20
2.2167909E+002
 11
3.2506411E+002
 21
2.2167909E+002
  0
LINE
  8
104
  6
CONTINUOUS
 62
40
 10
3.2506411E+002
 20
2.2167909E+002
 11
3.2506411E+002
 21
2.3717909E+002
  0
ARC
  8
104
  6
CONTINUOUS
 62
40
 10
3.280641E+002
 20
2.3717909E+002
 40
2.9999945
 50
8.9999895E+001
 51
1.8000011E+002
  0
LINE
  8
104
  6
CONTINUOUS
 62
40
 10
3.2806411E+002
 20
2.4017909E+002
 11
3.9506411E+002
 21
2.4017909E+002
  0
LINE
  8
104
  6
CONTINUOUS
 62
40
 10
3.9506411E+002
 20
2.4017909E+002
 11
3.9506411E+002
 21
2.4517909E+002
  0
LINE
  8
104
  6
CONTINUOUS
 62
40
 10
3.9506411E+002
 20
2.4517909E+002
 11
2.9306411E+002
 21
2.4517909E+002
  0
LINE
  8
104
  6
CONTINUOUS
 62
40
 10
3.3091128E+002
 20
2.4017909E+002
 11
3.0906411E+002
 21
2.4017909E+002
  0
ARC
  8
104
  6
CONTINUOUS
 62
40
 10
3.0906411E+002
 20
2.3717909E+002
 40
3.0
 50
9.0E+001
 51
1.8E+002
  0
TEXT
  8
103
  6
CONTINUOUS
 62
40
 10
3.9339792E+002
 20
2.2422797E+002
 40
5.0
  1
Unterteil 8067
 41
6.5892857E-001
 72
1
 11
3.7033542E+002
 21
2.2172797E+002
 73
2
  0
LINE
  8
104
  6
CONTINUOUS
 62
40
 10
3.1652651E+002
 20
2.4667909E+002
 11
2.9656411E+002
 21
2.4667909E+002
  0
LINE
  8
104
  6
CONTINUOUS
 62
40
 10
2.9656411E+002
 20
2.4667909E+002
 11
2.9656411E+002
 21
2.4517909E+002
  0
LINE
  8
104
  6
CONTINUOUS
 62
40
 10
2.9891409E+002
 20
2.4517909E+002
 11
3.0906411E+002
 21
2.4517909E+002
  0
LINE
  8
106
  6
CENTERLINE
 62
1
 10
3.0906411E+002
 20
2.4856434E+002
 11
3.0906411E+002
 21
2.2033387E+002
  0
LINE
  8
104
  6
CONTINUOUS
 62
40
 10
3.1652651E+002
 20
2.4667909E+002
 11
3.2156411E+002
 21
2.4667909E+002
  0
LINE
  8
104
  6
CONTINUOUS
 62
40
 10
3.2156411E+002
 20
2.4667909E+002
 11
3.2156411E+002
 21
2.4517909E+002
  0
CIRCLE
  8
104
  6
CONTINUOUS
 62
40
 10
3.0981411E+002
 20
1.8658676E+002
 40
7.5
  0
LINE
  8
106
  6
CENTERLINE
 62
1
 10
3.2320351E+002
 20
1.8658676E+002
 11
2.9487637E+002
 21
1.8658676E+002
  0
LINE
  8
106
  6
CENTERLINE
 62
1
 10
3.0906411E+002
 20
2.0019589E+002
 11
3.0906411E+002
 21
1.7302889E+002
  0
LINE
  8
106
  6
CENTERLINE
 62
1
 10
3.0981411E+002
 20
1.9502352E+002
 11
3.0981411E+002
 21
1.7834628E+002
  0
ARC
  8
105
  6
HIDDEN
 62
1
 10
3.1921413E+002
 20
1.8658676E+002
 40
1.249995
 50
2.6646714E+002
 51
4.5353286E+002
  0
ARC
  8
105
  6
HIDDEN
 62
1
 10
3.0906411E+002
 20
1.8658676E+002
 40
1.0149968E+001
 50
7.0605688
 51
3.5293943E+002
  0
CIRCLE
  8
104
  6
CONTINUOUS
 62
40
 10
3.0906411E+002
 20
1.8658676E+002
 40
1.25E+001
  0
TEXT
  8
103
  6
CONTINUOUS
 62
40
 10
1.4636554E+002
 20
9.2103763E+001
 40
5.0
  1
%%c15
 41
6.0E-001
 72
1
 11
1.4186554E+002
 21
8.9603763E+001
 73
2
  0
LINE
  8
MED-0
  6
CENTERLINE
 62
150
 10
2.2464055E+002
 20
1.2733417E+002
 11
2.1964057E+002
 21
1.2733417E+002
  0
LINE
  8
MED-0
  6
CENTERLINE
 62
150
 10
2.1964057E+002
 20
1.2733417E+002
 11
2.1964057E+002
 21
1.0483417E+002
  0
LINE
  8
MED-0
  6
CENTERLINE
 62
150
 10
2.1964057E+002
 20
1.0483417E+002
 11
2.2464055E+002
 21
1.0483417E+002
  0
LINE
  8
MED-0
  6
CENTERLINE
 62
150
 10
2.2464055E+002
 20
1.0483417E+002
 11
2.2464055E+002
 21
1.2733417E+002
  0
LINE
  8
99
  6
CONTINUOUS
 62
1
 10
2.2034058E+002
 20
1.2733417E+002
 11
2.2034058E+002
 21
1.0483417E+002
  0
LINE
  8
99
  6
CONTINUOUS
 62
1
 10
2.2394054E+002
 20
1.0483417E+002
 11
2.2394054E+002
 21
1.2733417E+002
  0
LINE
  8
104
  6
CONTINUOUS
 62
40
 10
2.1714057E+002
 20
1.0233417E+002
 11
2.1964057E+002
 21
1.0483417E+002
  0
LINE
  8
104
  6
CONTINUOUS
 62
40
 10
2.1964057E+002
 20
1.0483417E+002
 11
2.1964057E+002
 21
1.2733417E+002
  0
LINE
  8
104
  6
CONTINUOUS
 62
40
 10
2.1964057E+002
 20
1.2733417E+002
 11
2.2464055E+002
 21
1.2733417E+002
  0
LINE
  8
104
  6
CONTINUOUS
 62
40
 10
2.2464055E+002
 20
1.2733417E+002
 11
2.2464055E+002
 21
1.0483417E+002
  0
LINE
  8
104
  6
CONTINUOUS
 62
40
 10
2.2464055E+002
 20
1.0483417E+002
 11
2.2714055E+002
 21
1.0233417E+002
  0
LINE
  8
104
  6
CONTINUOUS
 62
40
 10
2.2714055E+002
 20
1.0233417E+002
 11
2.1714057E+002
 21
1.0233417E+002
  0
LINE
  8
104
  6
CONTINUOUS
 62
40
 10
2.1964057E+002
 20
1.0483417E+002
 11
2.2464055E+002
 21
1.0483417E+002
  0
LINE
  8
106
  6
CENTERLINE
 62
1
 10
2.2214057E+002
 20
1.2949735E+002
 11
2.2214057E+002
 21
1.0233417E+002
  0
LINE
  8
MED-0
  6
CENTERLINE
 62
150
 10
9.9640566E+001
 20
1.2733417E+002
 11
9.4640566E+001
 21
1.2733417E+002
  0
LINE
  8
MED-0
  6
CENTERLINE
 62
150
 10
9.4640566E+001
 20
1.2733417E+002
 11
9.4640566E+001
 21
1.0483417E+002
  0
LINE
  8
MED-0
  6
CENTERLINE
 62
150
 10
9.4640566E+001
 20
1.0483417E+002
 11
9.9640566E+001
 21
1.0483417E+002
  0
LINE
  8
MED-0
  6
CENTERLINE
 62
150
 10
9.9640566E+001
 20
1.0483417E+002
 11
9.9640566E+001
 21
1.2733417E+002
  0
LINE
  8
99
  6
CONTINUOUS
 62
1
 10
9.5340578E+001
 20
1.2733417E+002
 11
9.5340578E+001
 21
1.0483417E+002
  0
LINE
  8
99
  6
CONTINUOUS
 62
1
 10
9.8940554E+001
 20
1.0483417E+002
 11
9.8940554E+001
 21
1.2733417E+002
  0
LINE
  8
104
  6
CONTINUOUS
 62
40
 10
9.2140566E+001
 20
1.0233417E+002
 11
9.4640566E+001
 21
1.0483417E+002
  0
LINE
  8
104
  6
CONTINUOUS
 62
40
 10
9.4640566E+001
 20
1.0483417E+002
 11
9.4640566E+001
 21
1.2733417E+002
  0
LINE
  8
104
  6
CONTINUOUS
 62
40
 10
9.4640566E+001
 20
1.2733417E+002
 11
9.9640566E+001
 21
1.2733417E+002
  0
LINE
  8
104
  6
CONTINUOUS
 62
40
 10
9.9640566E+001
 20
1.2733417E+002
 11
9.9640566E+001
 21
1.0483417E+002
  0
LINE
  8
104
  6
CONTINUOUS
 62
40
 10
9.9640566E+001
 20
1.0483417E+002
 11
1.0214057E+002
 21
1.0233417E+002
  0
LINE
  8
104
  6
CONTINUOUS
 62
40
 10
1.0214057E+002
 20
1.0233417E+002
 11
9.2140566E+001
 21
1.0233417E+002
  0
LINE
  8
104
  6
CONTINUOUS
 62
40
 10
9.4640566E+001
 20
1.0483417E+002
 11
9.9640566E+001
 21
1.0483417E+002
  0
LINE
  8
106
  6
CENTERLINE
 62
1
 10
9.7140566E+001
 20
1.2949735E+002
 11
9.7140566E+001
 21
1.0233417E+002
  0
LINE
  8
104
  6
CONTINUOUS
 62
40
 10
1.6158096E+002
 20
4.715395E+001
 11
1.9758096E+002
 21
4.715395E+001
  0
LINE
  8
104
  6
CONTINUOUS
 62
40
 10
1.9758096E+002
 20
4.715395E+001
 11
1.9758096E+002
 21
3.965395E+001
  0
LINE
  8
106
  6
CENTERLINE
 62
1
 10
1.1958097E+002
 20
4.8641804E+001
 11
1.1958097E+002
 21
3.2372394E+001
  0
LINE
  8
104
  6
CONTINUOUS
 62
40
 10
1.0908097E+002
 20
4.715395E+001
 11
1.0908097E+002
 21
3.515395E+001
  0
LINE
  8
104
  6
CONTINUOUS
 62
40
 10
1.0908097E+002
 20
3.515395E+001
 11
1.0808097E+002
 21
3.515395E+001
  0
LINE
  8
104
  6
CONTINUOUS
 62
40
 10
1.0808097E+002
 20
3.515395E+001
 11
1.0458097E+002
 21
3.515395E+001
  0
LINE
  8
104
  6
CONTINUOUS
 62
40
 10
1.0458097E+002
 20
3.515395E+001
 11
1.0458097E+002
 21
3.590395E+001
  0
LINE
  8
104
  6
CONTINUOUS
 62
40
 10
1.0458097E+002
 20
3.590395E+001
 11
1.0758097E+002
 21
3.590395E+001
  0
LINE
  8
104
  6
CONTINUOUS
 62
40
 10
1.0758097E+002
 20
3.590395E+001
 11
1.0758097E+002
 21
4.090395E+001
  0
LINE
  8
104
  6
CONTINUOUS
 62
40
 10
1.0758097E+002
 20
4.090395E+001
 11
1.0458097E+002
 21
4.090395E+001
  0
LINE
  8
104
  6
CONTINUOUS
 62
40
 10
1.0458097E+002
 20
4.090395E+001
 11
1.0458097E+002
 21
4.715395E+001
  0
LINE
  8
104
  6
CONTINUOUS
 62
40
 10
1.0458097E+002
 20
4.715395E+001
 11
1.0808097E+002
 21
4.715395E+001
  0
LINE
  8
104
  6
CONTINUOUS
 62
40
 10
1.0808097E+002
 20
4.715395E+001
 11
1.0908097E+002
 21
4.715395E+001
  0
INSERT
  2
*XH27
  8
108
 10
1.0738517E+002
 20
4.1189831E+001
  0
LINE
  8
104
  6
CONTINUOUS
 62
40
 10
1.4458096E+002
 20
4.715395E+001
 11
1.3008096E+002
 21
4.715395E+001
  0
LINE
  8
104
  6
CONTINUOUS
 62
40
 10
1.3008096E+002
 20
4.715395E+001
 11
1.3008096E+002
 21
3.515395E+001
  0
LINE
  8
104
  6
CONTINUOUS
 62
40
 10
1.3008096E+002
 20
3.515395E+001
 11
1.6633096E+002
 21
3.515395E+001
  0
LINE
  8
104
  6
CONTINUOUS
 62
40
 10
1.6633096E+002
 20
3.515395E+001
 11
1.6633096E+002
 21
3.965395E+001
  0
LINE
  8
104
  6
CONTINUOUS
 62
40
 10
1.6633096E+002
 20
3.965395E+001
 11
1.6158096E+002
 21
3.965395E+001
  0
LINE
  8
104
  6
CONTINUOUS
 62
40
 10
1.6158096E+002
 20
3.965395E+001
 11
1.6158096E+002
 21
4.715395E+001
  0
LINE
  8
104
  6
CONTINUOUS
 62
40
 10
1.6158096E+002
 20
4.715395E+001
 11
1.4458096E+002
 21
4.715395E+001
  0
INSERT
  2
*XH28
  8
108
 10
1.4741778E+002
 20
4.0917347E+001
  0
LINE
  8
104
  6
CONTINUOUS
 62
40
 10
1.9758096E+002
 20
3.515395E+001
 11
1.9508096E+002
 21
3.515395E+001
  0
LINE
  8
104
  6
CONTINUOUS
 62
40
 10
1.9508096E+002
 20
3.515395E+001
 11
1.9283096E+002
 21
3.515395E+001
  0
LINE
  8
104
  6
CONTINUOUS
 62
40
 10
1.9283096E+002
 20
3.515395E+001
 11
1.9283096E+002
 21
3.965395E+001
  0
LINE
  8
104
  6
CONTINUOUS
 62
40
 10
1.9283096E+002
 20
3.965395E+001
 11
1.9758096E+002
 21
3.965395E+001
  0
LINE
  8
104
  6
CONTINUOUS
 62
40
 10
1.9758096E+002
 20
3.965395E+001
 11
1.9758096E+002
 21
3.515395E+001
  0
INSERT
  2
*XH29
  8
108
 10
1.9607168E+002
 20
3.6538234E+001
  0
LINE
  8
104
  6
CONTINUOUS
 62
40
 10
1.9758096E+002
 20
3.515395E+001
 11
1.9758096E+002
 21
3.415395E+001
  0
LINE
  8
104
  6
CONTINUOUS
 62
40
 10
1.9758096E+002
 20
3.415395E+001
 11
1.4458096E+002
 21
3.415395E+001
  0
LINE
  8
104
  6
CONTINUOUS
 62
40
 10
1.6408096E+002
 20
3.515395E+001
 11
1.9508096E+002
 21
3.515395E+001
  0
LINE
  8
104
  6
CONTINUOUS
 62
40
 10
1.6633096E+002
 20
3.965395E+001
 11
1.9283096E+002
 21
3.965395E+001
  0
LINE
  8
106
  6
CENTERLINE
 62
1
 10
1.8958096E+002
 20
4.090636E+001
 11
1.8958096E+002
 21
3.2840137E+001
  0
LINE
  8
106
  6
CENTERLINE
 62
1
 10
1.6958096E+002
 20
4.1014637E+001
 11
1.6958096E+002
 21
3.2785999E+001
  0
LINE
  8
104
  6
CONTINUOUS
 62
40
 10
1.4158096E+002
 20
3.515395E+001
 11
1.3858096E+002
 21
3.515395E+001
  0
LINE
  8
104
  6
CONTINUOUS
 62
40
 10
1.0808097E+002
 20
4.715395E+001
 11
1.0458097E+002
 21
4.715395E+001
  0
LINE
  8
104
  6
CONTINUOUS
 62
40
 10
1.0458097E+002
 20
4.715395E+001
 11
1.0458097E+002
 21
4.015395E+001
  0
LINE
  8
104
  6
CONTINUOUS
 62
40
 10
1.0458097E+002
 20
3.6153965E+001
 11
1.0458097E+002
 21
3.415395E+001
  0
LINE
  8
104
  6
CONTINUOUS
 62
40
 10
1.0458097E+002
 20
3.415395E+001
 11
1.0808097E+002
 21
3.415395E+001
  0
LINE
  8
104
  6
CONTINUOUS
 62
40
 10
1.0808097E+002
 20
3.415395E+001
 11
1.4458096E+002
 21
3.415395E+001
  0
LINE
  8
104
  6
CONTINUOUS
 62
40
 10
1.0808097E+002
 20
3.515395E+001
 11
1.0458097E+002
 21
3.515395E+001
  0
LINE
  8
104
  6
CONTINUOUS
 62
40
 10
1.2558097E+002
 20
4.715395E+001
 11
1.3008096E+002
 21
4.715395E+001
  0
LINE
  8
104
  6
CONTINUOUS
 62
40
 10
1.3008096E+002
 20
4.715395E+001
 11
1.1358097E+002
 21
4.715395E+001
  0
LINE
  8
104
  6
CONTINUOUS
 62
40
 10
1.1358097E+002
 20
4.715395E+001
 11
1.0908097E+002
 21
4.715395E+001
  0
LINE
  8
104
  6
CONTINUOUS
 62
40
 10
1.2558097E+002
 20
3.515395E+001
 11
1.3008096E+002
 21
3.515395E+001
  0
LINE
  8
104
  6
CONTINUOUS
 62
40
 10
1.3008096E+002
 20
3.515395E+001
 11
1.1358097E+002
 21
3.515395E+001
  0
LINE
  8
104
  6
CONTINUOUS
 62
40
 10
1.1358097E+002
 20
3.515395E+001
 11
1.0908097E+002
 21
3.515395E+001
  0
LINE
  8
104
  6
CONTINUOUS
 62
40
 10
1.2708097E+002
 20
4.7153951E+001
 11
1.2708097E+002
 21
4.6153951E+001
  0
LINE
  8
104
  6
CONTINUOUS
 62
40
 10
1.2708097E+002
 20
4.6153951E+001
 11
1.2908097E+002
 21
4.6153951E+001
  0
LINE
  8
104
  6
CONTINUOUS
 62
40
 10
1.2908097E+002
 20
4.6153951E+001
 11
1.2908097E+002
 21
3.6153951E+001
  0
LINE
  8
104
  6
CONTINUOUS
 62
40
 10
1.2908097E+002
 20
3.6153951E+001
 11
1.2708097E+002
 21
3.6153951E+001
  0
LINE
  8
104
  6
CONTINUOUS
 62
40
 10
1.2708097E+002
 20
3.6153951E+001
 11
1.2708097E+002
 21
3.5153951E+001
  0
LINE
  8
104
  6
CONTINUOUS
 62
40
 10
1.2708097E+002
 20
3.5153951E+001
 11
1.3008097E+002
 21
3.5153951E+001
  0
LINE
  8
104
  6
CONTINUOUS
 62
40
 10
1.3008097E+002
 20
3.5153951E+001
 11
1.3008097E+002
 21
4.7153951E+001
  0
LINE
  8
104
  6
CONTINUOUS
 62
40
 10
1.3008097E+002
 20
4.7153951E+001
 11
1.2708097E+002
 21
4.7153951E+001
  0
INSERT
  2
*XH30
  8
108
 10
1.2837298E+002
 20
4.1153951E+001
  0
LINE
  8
104
  6
CONTINUOUS
 62
40
 10
1.1208097E+002
 20
4.7153951E+001
 11
1.1208097E+002
 21
4.6153951E+001
  0
LINE
  8
104
  6
CONTINUOUS
 62
40
 10
1.1208097E+002
 20
4.6153951E+001
 11
1.1008097E+002
 21
4.6153951E+001
  0
LINE
  8
104
  6
CONTINUOUS
 62
40
 10
1.1008097E+002
 20
4.6153951E+001
 11
1.1008097E+002
 21
3.6153951E+001
  0
LINE
  8
104
  6
CONTINUOUS
 62
40
 10
1.1008097E+002
 20
3.6153951E+001
 11
1.1208097E+002
 21
3.6153951E+001
  0
LINE
  8
104
  6
CONTINUOUS
 62
40
 10
1.1208097E+002
 20
3.6153951E+001
 11
1.1208097E+002
 21
3.5153951E+001
  0
LINE
  8
104
  6
CONTINUOUS
 62
40
 10
1.1208097E+002
 20
3.5153951E+001
 11
1.0908097E+002
 21
3.5153951E+001
  0
LINE
  8
104
  6
CONTINUOUS
 62
40
 10
1.0908097E+002
 20
3.5153951E+001
 11
1.0908097E+002
 21
4.7153951E+001
  0
LINE
  8
104
  6
CONTINUOUS
 62
40
 10
1.0908097E+002
 20
4.7153951E+001
 11
1.1208097E+002
 21
4.7153951E+001
  0
INSERT
  2
*XH31
  8
108
 10
1.1078661E+002
 20
4.1153951E+001
  0
LINE
  8
104
  6
CONTINUOUS
 62
40
 10
1.1208097E+002
 20
4.6153951E+001
 11
1.1208097E+002
 21
3.6153951E+001
  0
LINE
  8
104
  6
CONTINUOUS
 62
40
 10
1.2708097E+002
 20
4.6153951E+001
 11
1.2708097E+002
 21
3.6153951E+001
  0
LINE
  8
99
  6
CONTINUOUS
 62
1
 10
1.0438095E+002
 20
9.1500127
 11
1.0438095E+002
 21
3.2053943E+001
  0
LINE
  8
99
  6
CONTINUOUS
 62
1
 10
1.0078098E+002
 20
3.2053943E+001
 11
1.0078098E+002
 21
9.1500127
  0
LINE
  8
106
  6
CENTERLINE
 62
1
 10
1.0258097E+002
 20
7.6377141
 11
1.0258097E+002
 21
3.4814045E+001
  0
LINE
  8
MED-0
  6
CENTERLINE
 62
150
 10
1.0508097E+002
 20
9.1500127
 11
1.0008097E+002
 21
9.1500127
  0
LINE
  8
MED-0
  6
CENTERLINE
 62
150
 10
1.0008097E+002
 20
9.1500127
 11
1.0008097E+002
 21
3.2053943E+001
  0
LINE
  8
MED-0
  6
CENTERLINE
 62
150
 10
1.0008097E+002
 20
3.2053943E+001
 11
1.0508097E+002
 21
3.2053943E+001
  0
LINE
  8
MED-0
  6
CENTERLINE
 62
150
 10
1.0508097E+002
 20
3.2053943E+001
 11
1.0508097E+002
 21
9.1500127
  0
LINE
  8
104
  6
CONTINUOUS
 62
40
 10
9.7980959E+001
 20
3.415395E+001
 11
1.0008097E+002
 21
3.2053943E+001
  0
LINE
  8
104
  6
CONTINUOUS
 62
40
 10
1.0008097E+002
 20
3.2053943E+001
 11
1.0008097E+002
 21
9.1500127
  0
LINE
  8
104
  6
CONTINUOUS
 62
40
 10
1.0008097E+002
 20
9.1500127
 11
1.0508097E+002
 21
9.1500127
  0
LINE
  8
104
  6
CONTINUOUS
 62
40
 10
1.0508097E+002
 20
9.1500127
 11
1.0508097E+002
 21
3.2053943E+001
  0
LINE
  8
104
  6
CONTINUOUS
 62
40
 10
1.0508097E+002
 20
3.2053943E+001
 11
1.0718097E+002
 21
3.415395E+001
  0
LINE
  8
104
  6
CONTINUOUS
 62
40
 10
1.0718097E+002
 20
3.415395E+001
 11
9.7980959E+001
 21
3.415395E+001
  0
LINE
  8
104
  6
CONTINUOUS
 62
40
 10
1.0008097E+002
 20
3.2053943E+001
 11
1.0508097E+002
 21
3.2053943E+001
  0
LINE
  8
99
  6
CONTINUOUS
 62
1
 10
1.0408098E+002
 20
4.040395E+001
 11
8.308098E+001
 21
4.040395E+001
  0
LINE
  8
99
  6
CONTINUOUS
 62
1
 10
1.0408098E+002
 20
3.590395E+001
 11
8.308098E+001
 21
3.590395E+001
  0
LINE
  8
104
  6
CONTINUOUS
 62
40
 10
1.0408098E+002
 20
4.115395E+001
 11
8.308098E+001
 21
4.115395E+001
  0
LINE
  8
104
  6
CONTINUOUS
 62
40
 10
8.308098E+001
 20
4.115395E+001
 11
8.258098E+001
 21
4.065395E+001
  0
LINE
  8
104
  6
CONTINUOUS
 62
40
 10
8.258098E+001
 20
4.065395E+001
 11
8.258098E+001
 21
3.8753986E+001
  0
LINE
  8
104
  6
CONTINUOUS
 62
40
 10
8.258098E+001
 20
3.8753986E+001
 11
8.558098E+001
 21
3.8753986E+001
  0
LINE
  8
104
  6
CONTINUOUS
 62
40
 10
8.558098E+001
 20
3.8753986E+001
 11
8.558098E+001
 21
3.7553974E+001
  0
LINE
  8
104
  6
CONTINUOUS
 62
40
 10
8.558098E+001
 20
3.7553974E+001
 11
8.258098E+001
 21
3.7553974E+001
  0
LINE
  8
104
  6
CONTINUOUS
 62
40
 10
8.258098E+001
 20
3.7553974E+001
 11
8.258098E+001
 21
3.565395E+001
  0
LINE
  8
104
  6
CONTINUOUS
 62
40
 10
8.258098E+001
 20
3.565395E+001
 11
8.308098E+001
 21
3.515398E+001
  0
LINE
  8
104
  6
CONTINUOUS
 62
40
 10
8.308098E+001
 20
3.515398E+001
 11
1.0408098E+002
 21
3.515398E+001
  0
LINE
  8
104
  6
CONTINUOUS
 62
40
 10
1.0408098E+002
 20
3.515398E+001
 11
1.0408098E+002
 21
4.115395E+001
  0
LINE
  8
104
  6
CONTINUOUS
 62
40
 10
8.308098E+001
 20
4.115395E+001
 11
8.308098E+001
 21
3.8753986E+001
  0
LINE
  8
104
  6
CONTINUOUS
 62
40
 10
8.308098E+001
 20
3.515395E+001
 11
8.308098E+001
 21
3.7553974E+001
  0
ARC
  8
104
  6
CONTINUOUS
 62
40
 10
1.0718098E+002
 20
3.6553963E+001
 40
3.9999846E-001
 50
2.7000064E+002
 51
3.6000154E+002
  0
LINE
  8
104
  6
CONTINUOUS
 62
40
 10
1.0718099E+002
 20
3.6153965E+001
 11
1.0408098E+002
 21
3.6153965E+001
  0
LINE
  8
104
  6
CONTINUOUS
 62
40
 10
1.0408098E+002
 20
3.6153965E+001
 11
1.0408098E+002
 21
4.015395E+001
  0
LINE
  8
104
  6
CONTINUOUS
 62
40
 10
1.0408098E+002
 20
4.015395E+001
 11
1.0718099E+002
 21
4.015395E+001
  0
ARC
  8
104
  6
CONTINUOUS
 62
40
 10
1.0718098E+002
 20
3.9753977E+001
 40
3.999724E-001
 50
1.289583E-003
 51
8.9998653E+001
  0
LINE
  8
104
  6
CONTINUOUS
 62
40
 10
1.0758095E+002
 20
3.9753986E+001
 11
1.0758098E+002
 21
3.6553974E+001
  0
LINE
  8
104
  6
CONTINUOUS
 62
40
 10
1.7358096E+002
 20
4.3285724E+001
 11
1.8558096E+002
 21
4.3285724E+001
  0
LINE
  8
104
  6
CONTINUOUS
 62
40
 10
1.8558096E+002
 20
4.3285724E+001
 11
1.8558096E+002
 21
3.965395E+001
  0
LINE
  8
104
  6
CONTINUOUS
 62
40
 10
1.8558096E+002
 20
3.965395E+001
 11
1.8258096E+002
 21
3.965395E+001
  0
LINE
  8
104
  6
CONTINUOUS
 62
40
 10
1.8258096E+002
 20
3.965395E+001
 11
1.8258096E+002
 21
3.165395E+001
  0
LINE
  8
104
  6
CONTINUOUS
 62
40
 10
1.8258096E+002
 20
3.165395E+001
 11
1.7658096E+002
 21
3.165395E+001
  0
LINE
  8
104
  6
CONTINUOUS
 62
40
 10
1.7658096E+002
 20
3.165395E+001
 11
1.7658096E+002
 21
3.965395E+001
  0
LINE
  8
104
  6
CONTINUOUS
 62
40
 10
1.7658096E+002
 20
3.965395E+001
 11
1.7358096E+002
 21
3.965395E+001
  0
LINE
  8
104
  6
CONTINUOUS
 62
40
 10
1.7358096E+002
 20
3.965395E+001
 11
1.7358096E+002
 21
4.3285724E+001
  0
LINE
  8
104
  6
CONTINUOUS
 62
40
 10
1.7658096E+002
 20
3.965395E+001
 11
1.8258096E+002
 21
3.965395E+001
  0
ARC
  8
104
  6
CONTINUOUS
 62
40
 10
1.7958099E+002
 20
2.8183514E+001
 40
1.625045E+001
 50
9.0000103E+001
 51
1.1166767E+002
  0
ARC
  8
104
  6
CONTINUOUS
 62
40
 10
1.7958091E+002
 20
2.8183359E+001
 40
1.6250605E+001
 50
6.8332439E+001
 51
8.9999792E+001
  0
LINE
  8
99
  6
CONTINUOUS
 62
1
 10
1.7733096E+002
 20
3.965395E+001
 11
1.7733096E+002
 21
3.165395E+001
  0
LINE
  8
99
  6
CONTINUOUS
 62
1
 10
1.8183096E+002
 20
3.965395E+001
 11
1.8183096E+002
 21
3.165395E+001
  0
LINE
  8
104
  6
CONTINUOUS
 62
40
 10
1.7658096E+002
 20
3.165395E+001
 11
1.8258096E+002
 21
3.165395E+001
  0
LINE
  8
104
  6
CONTINUOUS
 62
40
 10
1.8258096E+002
 20
3.165395E+001
 11
1.8258096E+002
 21
3.965395E+001
  0
LINE
  8
104
  6
CONTINUOUS
 62
40
 10
1.8258096E+002
 20
3.965395E+001
 11
1.8558096E+002
 21
3.965395E+001
  0
LINE
  8
104
  6
CONTINUOUS
 62
40
 10
9.4580965E+001
 20
4.115395E+001
 11
8.6580965E+001
 21
4.115395E+001
  0
LINE
  8
104
  6
CONTINUOUS
 62
40
 10
8.6580965E+001
 20
4.115395E+001
 11
8.6580965E+001
 21
4.215395E+001
  0
LINE
  8
104
  6
CONTINUOUS
 62
40
 10
8.6580965E+001
 20
4.215395E+001
 11
9.4580965E+001
 21
4.215395E+001
  0
LINE
  8
104
  6
CONTINUOUS
 62
40
 10
9.4580965E+001
 20
4.215395E+001
 11
9.4580965E+001
 21
4.115395E+001
  0
INSERT
  2
*XH32
  8
108
 10
8.9635068E+001
 20
4.1599089E+001
  0
LINE
  8
106
  6
CENTERLINE
 62
1
 10
1.7958096E+002
 20
4.4856281E+001
 11
1.7958096E+002
 21
2.9580799E+001
  0
LINE
  8
106
  6
CENTERLINE
 62
1
 10
1.6158096E+002
 20
3.6678272E+001
 11
1.6158096E+002
 21
3.1853931E+001
  0
LINE
  8
106
  6
CENTERLINE
 62
1
 10
1.2658097E+002
 20
3.6678272E+001
 11
1.2658097E+002
 21
3.2053913E+001
  0
LINE
  8
106
  6
CENTERLINE
 62
1
 10
1.0258097E+002
 20
3.4814045E+001
 11
1.0258097E+002
 21
3.1853962E+001
  0
LINE
  8
106
  6
CENTERLINE
 62
1
 10
1.0824445E+002
 20
3.815395E+001
 11
7.8911013E+001
 21
3.815395E+001
  0
LINE
  8
104
  6
CONTINUOUS
 62
40
 10
8.9080965E+001
 20
3.415395E+001
 11
9.2080965E+001
 21
3.415395E+001
  0
LINE
  8
104
  6
CONTINUOUS
 62
40
 10
1.20581E+002
 20
3.415395E+001
 11
1.1958097E+002
 21
3.315395E+001
  0
LINE
  8
104
  6
CONTINUOUS
 62
40
 10
1.1958097E+002
 20
3.315395E+001
 11
1.1858094E+002
 21
3.415395E+001
  0
LINE
  8
106
  6
CENTERLINE
 62
1
 10
1.1958097E+002
 20
4.9072452E+001
 11
1.1958097E+002
 21
3.165395E+001
  0
INSERT
  2
*XH33
  8
108
 10
1.7091048E+002
 20
3.2977817E+001
  0
LINE
  8
99
  6
CONTINUOUS
 62
1
 10
1.7658096E+002
 20
3.515395E+001
 11
1.7658096E+002
 21
3.165395E+001
  0
LINE
  8
99
  6
CONTINUOUS
 62
1
 10
1.8258096E+002
 20
3.515395E+001
 11
1.8258096E+002
 21
3.165395E+001
  0
INSERT
  2
*XH34
  8
108
 10
1.8793695E+002
 20
3.3033707E+001
  0
LINE
  8
104
  6
CONTINUOUS
 62
40
 10
2.0858095E+002
 20
4.265395E+001
 11
2.0858095E+002
 21
3.165395E+001
  0
LINE
  8
104
  6
CONTINUOUS
 62
40
 10
2.0858095E+002
 20
3.165395E+001
 11
1.9908095E+002
 21
3.165395E+001
  0
LINE
  8
104
  6
CONTINUOUS
 62
40
 10
1.9408096E+002
 20
3.165395E+001
 11
1.6408096E+002
 21
3.165395E+001
  0
LINE
  8
104
  6
CONTINUOUS
 62
40
 10
1.5908096E+002
 20
3.165395E+001
 11
1.2908096E+002
 21
3.165395E+001
  0
LINE
  8
104
  6
CONTINUOUS
 62
40
 10
1.2408097E+002
 20
3.165395E+001
 11
1.0508097E+002
 21
3.165395E+001
  0
LINE
  8
104
  6
CONTINUOUS
 62
40
 10
1.0008097E+002
 20
3.165395E+001
 11
8.7080965E+001
 21
3.165395E+001
  0
ARC
  8
104
  6
CONTINUOUS
 62
40
 10
8.7080959E+001
 20
3.4653959E+001
 40
3.0000092
 50
1.8000018E+002
 51
2.7000012E+002
  0
LINE
  8
104
  6
CONTINUOUS
 62
40
 10
8.408095E+001
 20
3.465395E+001
 11
8.408095E+001
 21
3.515395E+001
  0
LINE
  8
104
  6
CONTINUOUS
 62
40
 10
8.408095E+001
 20
4.115395E+001
 11
8.408095E+001
 21
4.265395E+001
  0
LINE
  8
104
  6
CONTINUOUS
 62
40
 10
8.408095E+001
 20
4.265395E+001
 11
1.0458097E+002
 21
4.265395E+001
  0
LINE
  8
104
  6
CONTINUOUS
 62
40
 10
1.9758096E+002
 20
4.265395E+001
 11
2.0858095E+002
 21
4.265395E+001
  0
INSERT
  2
*XH35
  8
108
 10
1.1554647E+002
 20
3.2821923E+001
  0
INSERT
  2
*XH36
  8
108
 10
1.4524789E+002
 20
3.2771054E+001
  0
LINE
  8
104
  6
CONTINUOUS
 62
40
 10
8.6580965E+001
 20
3.465395E+001
 11
8.6580965E+001
 21
3.165395E+001
  0
LINE
  8
104
  6
CONTINUOUS
 62
40
 10
1.9198096E+002
 20
3.415395E+001
 11
1.9333096E+002
 21
3.2803943E+001
  0
LINE
  8
104
  6
CONTINUOUS
 62
40
 10
1.9983095E+002
 20
3.2803943E+001
 11
2.0118096E+002
 21
3.415395E+001
  0
LINE
  8
104
  6
CONTINUOUS
 62
40
 10
2.0118096E+002
 20
3.415395E+001
 11
1.9983095E+002
 21
3.2803943E+001
  0
LINE
  8
104
  6
CONTINUOUS
 62
40
 10
1.9983095E+002
 20
3.2803943E+001
 11
1.9983095E+002
 21
3.165395E+001
  0
LINE
  8
104
  6
CONTINUOUS
 62
40
 10
1.9983095E+002
 20
3.165395E+001
 11
1.9908095E+002
 21
3.165395E+001
  0
LINE
  8
104
  6
CONTINUOUS
 62
40
 10
1.9408096E+002
 20
3.165395E+001
 11
1.9333096E+002
 21
3.165395E+001
  0
LINE
  8
104
  6
CONTINUOUS
 62
40
 10
1.9333096E+002
 20
3.165395E+001
 11
1.9333096E+002
 21
3.2803943E+001
  0
LINE
  8
104
  6
CONTINUOUS
 62
40
 10
9.9330965E+001
 20
3.2803943E+001
 11
9.9330965E+001
 21
3.165395E+001
  0
LINE
  8
104
  6
CONTINUOUS
 62
40
 10
9.9330965E+001
 20
3.165395E+001
 11
1.0008097E+002
 21
3.165395E+001
  0
LINE
  8
104
  6
CONTINUOUS
 62
40
 10
1.0508097E+002
 20
3.165395E+001
 11
1.0583097E+002
 21
3.165395E+001
  0
LINE
  8
104
  6
CONTINUOUS
 62
40
 10
1.0583097E+002
 20
3.165395E+001
 11
1.0583097E+002
 21
3.2803943E+001
  0
LINE
  8
104
  6
CONTINUOUS
 62
40
 10
1.0583097E+002
 20
3.2803943E+001
 11
1.0718097E+002
 21
3.415395E+001
  0
LINE
  8
104
  6
CONTINUOUS
 62
40
 10
1.0718097E+002
 20
3.415395E+001
 11
1.0583097E+002
 21
3.2803943E+001
  0
LINE
  8
104
  6
CONTINUOUS
 62
40
 10
9.9330965E+001
 20
3.2803943E+001
 11
9.7980959E+001
 21
3.415395E+001
  0
LINE
  8
104
  6
CONTINUOUS
 62
40
 10
1.2198096E+002
 20
3.415395E+001
 11
1.2333097E+002
 21
3.2803943E+001
  0
LINE
  8
104
  6
CONTINUOUS
 62
40
 10
1.2983096E+002
 20
3.2803943E+001
 11
1.3118097E+002
 21
3.415395E+001
  0
LINE
  8
104
  6
CONTINUOUS
 62
40
 10
1.3118097E+002
 20
3.415395E+001
 11
1.2983096E+002
 21
3.2803943E+001
  0
LINE
  8
104
  6
CONTINUOUS
 62
40
 10
1.2983096E+002
 20
3.2803943E+001
 11
1.2983096E+002
 21
3.165395E+001
  0
LINE
  8
104
  6
CONTINUOUS
 62
40
 10
1.2983096E+002
 20
3.165395E+001
 11
1.29094E+002
 21
3.165395E+001
  0
LINE
  8
104
  6
CONTINUOUS
 62
40
 10
1.2408097E+002
 20
3.165395E+001
 11
1.2333097E+002
 21
3.165395E+001
  0
LINE
  8
104
  6
CONTINUOUS
 62
40
 10
1.2333097E+002
 20
3.165395E+001
 11
1.2333097E+002
 21
3.2803943E+001
  0
LINE
  8
104
  6
CONTINUOUS
 62
40
 10
1.5698096E+002
 20
3.415395E+001
 11
1.5833096E+002
 21
3.2803943E+001
  0
LINE
  8
104
  6
CONTINUOUS
 62
40
 10
1.6483096E+002
 20
3.2803943E+001
 11
1.6618097E+002
 21
3.415395E+001
  0
LINE
  8
104
  6
CONTINUOUS
 62
40
 10
1.6618097E+002
 20
3.415395E+001
 11
1.6483096E+002
 21
3.2803943E+001
  0
LINE
  8
104
  6
CONTINUOUS
 62
40
 10
1.6483096E+002
 20
3.2803943E+001
 11
1.6483096E+002
 21
3.165395E+001
  0
LINE
  8
104
  6
CONTINUOUS
 62
40
 10
1.6483096E+002
 20
3.165395E+001
 11
1.6408096E+002
 21
3.165395E+001
  0
LINE
  8
104
  6
CONTINUOUS
 62
40
 10
1.5908096E+002
 20
3.165395E+001
 11
1.5833096E+002
 21
3.165395E+001
  0
LINE
  8
104
  6
CONTINUOUS
 62
40
 10
1.5833096E+002
 20
3.165395E+001
 11
1.5833096E+002
 21
3.2803943E+001
  0
LINE
  8
106
  6
CENTERLINE
 62
1
 10
1.9658095E+002
 20
3.6397388E+001
 11
1.9658095E+002
 21
3.1853931E+001
  0
LINE
  8
104
  6
CONTINUOUS
 62
40
 10
2.0858095E+002
 20
3.415395E+001
 11
1.8508096E+002
 21
3.415395E+001
  0
LINE
  8
104
  6
CONTINUOUS
 62
40
 10
1.8508096E+002
 20
3.415395E+001
 11
1.8458096E+002
 21
3.515395E+001
  0
LINE
  8
104
  6
CONTINUOUS
 62
40
 10
1.8458096E+002
 20
3.515395E+001
 11
1.8258096E+002
 21
3.515395E+001
  0
LINE
  8
104
  6
CONTINUOUS
 62
40
 10
1.7658096E+002
 20
3.515395E+001
 11
1.7458096E+002
 21
3.515395E+001
  0
LINE
  8
104
  6
CONTINUOUS
 62
40
 10
1.7458096E+002
 20
3.515395E+001
 11
1.7408096E+002
 21
3.415395E+001
  0
LINE
  8
104
  6
CONTINUOUS
 62
40
 10
1.7408096E+002
 20
3.415395E+001
 11
9.2080965E+001
 21
3.415395E+001
  0
LINE
  8
104
  6
CONTINUOUS
 62
40
 10
8.9080965E+001
 20
3.415395E+001
 11
8.7080965E+001
 21
3.415395E+001
  0
LINE
  8
104
  6
CONTINUOUS
 62
40
 10
8.7080965E+001
 20
3.415395E+001
 11
8.6580965E+001
 21
3.415395E+001
  0
LINE
  8
104
  6
CONTINUOUS
 62
40
 10
8.6580965E+001
 20
3.415395E+001
 11
8.6580965E+001
 21
3.515398E+001
  0
LINE
  8
104
  6
CONTINUOUS
 62
40
 10
8.6580965E+001
 20
4.115395E+001
 11
8.6580965E+001
 21
4.265395E+001
  0
LINE
  8
104
  6
CONTINUOUS
 62
40
 10
9.4580965E+001
 20
3.415395E+001
 11
8.6580965E+001
 21
3.415395E+001
  0
LINE
  8
104
  6
CONTINUOUS
 62
40
 10
8.6580965E+001
 20
3.415395E+001
 11
8.6580965E+001
 21
3.515395E+001
  0
LINE
  8
104
  6
CONTINUOUS
 62
40
 10
8.6580965E+001
 20
3.515395E+001
 11
9.4580965E+001
 21
3.515395E+001
  0
LINE
  8
104
  6
CONTINUOUS
 62
40
 10
9.4580965E+001
 20
3.515395E+001
 11
9.4580965E+001
 21
3.415395E+001
  0
INSERT
  2
*XH37
  8
108
 10
9.0923362E+001
 20
3.465395E+001
  0
INSERT
  2
*XH38
  8
108
 10
2.0473186E+002
 20
3.2858082E+001
  0
INSERT
  2
*XH39
  8
108
 10
9.3081469E+001
 20
3.2930548E+001
  0
LINE
  8
99
  6
CONTINUOUS
 62
1
 10
1.2838095E+002
 20
9.1500127
 11
1.2838095E+002
 21
3.2053943E+001
  0
LINE
  8
99
  6
CONTINUOUS
 62
1
 10
1.2478098E+002
 20
3.2053943E+001
 11
1.2478098E+002
 21
9.1500127
  0
LINE
  8
106
  6
CENTERLINE
 62
1
 10
1.2658097E+002
 20
7.6377141
 11
1.2658097E+002
 21
3.4814045E+001
  0
LINE
  8
MED-0
  6
CENTERLINE
 62
150
 10
1.2908096E+002
 20
9.1500127
 11
1.2408097E+002
 21
9.1500127
  0
LINE
  8
MED-0
  6
CENTERLINE
 62
150
 10
1.2408097E+002
 20
9.1500127
 11
1.2408097E+002
 21
3.2053943E+001
  0
LINE
  8
MED-0
  6
CENTERLINE
 62
150
 10
1.2408097E+002
 20
3.2053943E+001
 11
1.2908096E+002
 21
3.2053943E+001
  0
LINE
  8
MED-0
  6
CENTERLINE
 62
150
 10
1.2908096E+002
 20
3.2053943E+001
 11
1.2908096E+002
 21
9.1500127
  0
LINE
  8
104
  6
CONTINUOUS
 62
40
 10
1.2198096E+002
 20
3.415395E+001
 11
1.2408097E+002
 21
3.2053943E+001
  0
LINE
  8
104
  6
CONTINUOUS
 62
40
 10
1.2408097E+002
 20
3.2053943E+001
 11
1.2408097E+002
 21
9.1500127
  0
LINE
  8
104
  6
CONTINUOUS
 62
40
 10
1.2408097E+002
 20
9.1500127
 11
1.2908096E+002
 21
9.1500127
  0
LINE
  8
104
  6
CONTINUOUS
 62
40
 10
1.2908096E+002
 20
9.1500127
 11
1.2908096E+002
 21
3.2053943E+001
  0
LINE
  8
104
  6
CONTINUOUS
 62
40
 10
1.2908096E+002
 20
3.2053943E+001
 11
1.3118097E+002
 21
3.415395E+001
  0
LINE
  8
104
  6
CONTINUOUS
 62
40
 10
1.3118097E+002
 20
3.415395E+001
 11
1.2198096E+002
 21
3.415395E+001
  0
LINE
  8
104
  6
CONTINUOUS
 62
40
 10
1.2408097E+002
 20
3.2053943E+001
 11
1.2908096E+002
 21
3.2053943E+001
  0
LINE
  8
99
  6
CONTINUOUS
 62
1
 10
1.6338095E+002
 20
9.1500127
 11
1.6338095E+002
 21
3.2053943E+001
  0
LINE
  8
99
  6
CONTINUOUS
 62
1
 10
1.5978098E+002
 20
3.2053943E+001
 11
1.5978098E+002
 21
9.1500127
  0
LINE
  8
106
  6
CENTERLINE
 62
1
 10
1.6158096E+002
 20
7.6377141
 11
1.6158096E+002
 21
3.4814045E+001
  0
LINE
  8
MED-0
  6
CENTERLINE
 62
150
 10
1.6408096E+002
 20
9.1500127
 11
1.5908096E+002
 21
9.1500127
  0
LINE
  8
MED-0
  6
CENTERLINE
 62
150
 10
1.5908096E+002
 20
9.1500127
 11
1.5908096E+002
 21
3.2053943E+001
  0
LINE
  8
MED-0
  6
CENTERLINE
 62
150
 10
1.5908096E+002
 20
3.2053943E+001
 11
1.6408096E+002
 21
3.2053943E+001
  0
LINE
  8
MED-0
  6
CENTERLINE
 62
150
 10
1.6408096E+002
 20
3.2053943E+001
 11
1.6408096E+002
 21
9.1500127
  0
LINE
  8
104
  6
CONTINUOUS
 62
40
 10
1.5698096E+002
 20
3.415395E+001
 11
1.5908096E+002
 21
3.2053943E+001
  0
LINE
  8
104
  6
CONTINUOUS
 62
40
 10
1.5908096E+002
 20
3.2053943E+001
 11
1.5908096E+002
 21
9.1500127
  0
LINE
  8
104
  6
CONTINUOUS
 62
40
 10
1.5908096E+002
 20
9.1500127
 11
1.6408096E+002
 21
9.1500127
  0
LINE
  8
104
  6
CONTINUOUS
 62
40
 10
1.6408096E+002
 20
9.1500127
 11
1.6408096E+002
 21
3.2053943E+001
  0
LINE
  8
104
  6
CONTINUOUS
 62
40
 10
1.6408096E+002
 20
3.2053943E+001
 11
1.6618097E+002
 21
3.415395E+001
  0
LINE
  8
104
  6
CONTINUOUS
 62
40
 10
1.6618097E+002
 20
3.415395E+001
 11
1.5698096E+002
 21
3.415395E+001
  0
LINE
  8
104
  6
CONTINUOUS
 62
40
 10
1.5908096E+002
 20
3.2053943E+001
 11
1.6408096E+002
 21
3.2053943E+001
  0
LINE
  8
99
  6
CONTINUOUS
 62
1
 10
1.9838094E+002
 20
9.1500127
 11
1.9838094E+002
 21
3.2053943E+001
  0
LINE
  8
99
  6
CONTINUOUS
 62
1
 10
1.9478098E+002
 20
3.2053943E+001
 11
1.9478098E+002
 21
9.1500127
  0
LINE
  8
106
  6
CENTERLINE
 62
1
 10
1.9658095E+002
 20
7.6377141
 11
1.9658095E+002
 21
3.4814045E+001
  0
LINE
  8
MED-0
  6
CENTERLINE
 62
150
 10
1.9908095E+002
 20
9.1500127
 11
1.9408096E+002
 21
9.1500127
  0
LINE
  8
MED-0
  6
CENTERLINE
 62
150
 10
1.9408096E+002
 20
9.1500127
 11
1.9408096E+002
 21
3.2053943E+001
  0
LINE
  8
MED-0
  6
CENTERLINE
 62
150
 10
1.9408096E+002
 20
3.2053943E+001
 11
1.9908095E+002
 21
3.2053943E+001
  0
LINE
  8
MED-0
  6
CENTERLINE
 62
150
 10
1.9908095E+002
 20
3.2053943E+001
 11
1.9908095E+002
 21
9.1500127
  0
LINE
  8
104
  6
CONTINUOUS
 62
40
 10
1.9198096E+002
 20
3.415395E+001
 11
1.9408096E+002
 21
3.2053943E+001
  0
LINE
  8
104
  6
CONTINUOUS
 62
40
 10
1.9408096E+002
 20
3.2053943E+001
 11
1.9408096E+002
 21
9.1500127
  0
LINE
  8
104
  6
CONTINUOUS
 62
40
 10
1.9408096E+002
 20
9.1500127
 11
1.9908095E+002
 21
9.1500127
  0
LINE
  8
104
  6
CONTINUOUS
 62
40
 10
1.9908095E+002
 20
9.1500127
 11
1.9908095E+002
 21
3.2053943E+001
  0
LINE
  8
104
  6
CONTINUOUS
 62
40
 10
1.9908095E+002
 20
3.2053943E+001
 11
2.0118096E+002
 21
3.415395E+001
  0
LINE
  8
104
  6
CONTINUOUS
 62
40
 10
2.0118096E+002
 20
3.415395E+001
 11
1.9198096E+002
 21
3.415395E+001
  0
LINE
  8
104
  6
CONTINUOUS
 62
40
 10
1.9408096E+002
 20
3.2053943E+001
 11
1.9908095E+002
 21
3.2053943E+001
  0
INSERT
  2
*XH40
  8
108
 10
1.7338846E+002
 20
1.0881907E+002
  0
LINE
  8
104
  6
CONTINUOUS
 62
40
 10
1.6758096E+002
 20
1.1033417E+002
 11
1.7958096E+002
 21
1.1033417E+002
  0
LINE
  8
106
  6
CENTERLINE
 62
1
 10
1.7358096E+002
 20
1.3079343E+002
 11
1.7358096E+002
 21
1.2841465E+002
  0
LINE
  8
106
  6
CENTERLINE
 62
1
 10
1.7358096E+002
 20
1.164715E+002
 11
1.7358096E+002
 21
1.054206E+002
  0
LINE
  8
104
  6
CONTINUOUS
 62
40
 10
1.7958096E+002
 20
1.1980033E+002
 11
1.7958096E+002
 21
1.0733417E+002
  0
LINE
  8
104
  6
CONTINUOUS
 62
40
 10
1.7958096E+002
 20
1.0733417E+002
 11
1.6758096E+002
 21
1.0733417E+002
  0
LINE
  8
104
  6
CONTINUOUS
 62
40
 10
1.6758096E+002
 20
1.0733417E+002
 11
1.6758096E+002
 21
1.1530323E+002
  0
LINE
  8
104
  6
CONTINUOUS
 62
40
 10
1.6758096E+002
 20
1.2685746E+002
 11
1.6758096E+002
 21
1.2833417E+002
  0
LINE
  8
104
  6
CONTINUOUS
 62
40
 10
1.6758096E+002
 20
1.2833417E+002
 11
1.7184989E+002
 21
1.2833417E+002
  0
LINE
  8
104
  6
CONTINUOUS
 62
40
 10
1.7184989E+002
 20
1.2833417E+002
 11
1.7256583E+002
 21
1.2833417E+002
  0
LINE
  8
104
  6
CONTINUOUS
 62
40
 10
1.7551044E+002
 20
1.2833417E+002
 11
1.7958096E+002
 21
1.2833417E+002
  0
LINE
  8
104
  6
CONTINUOUS
 62
40
 10
1.7958096E+002
 20
1.2833417E+002
 11
1.7958096E+002
 21
1.2760596E+002
  0
LINE
  8
106
  6
CENTERLINE
 62
1
 10
1.1958097E+002
 20
8.5163151E+001
 11
1.1958097E+002
 21
6.2440052E+001
  0
LINE
  8
106
  6
CENTERLINE
 62
1
 10
1.1208097E+002
 20
8.7262607E+001
 11
1.1208097E+002
 21
6.5024051E+001
  0
LINE
  8
106
  6
CENTERLINE
 62
1
 10
1.1208097E+002
 20
6.5024051E+001
 11
1.1308095E+002
 21
6.4024051E+001
  0
LINE
  8
106
  6
CENTERLINE
 62
1
 10
1.1308095E+002
 20
6.4024051E+001
 11
1.2608097E+002
 21
6.4024051E+001
  0
LINE
  8
106
  6
CENTERLINE
 62
1
 10
1.2608097E+002
 20
6.4024051E+001
 11
1.2708097E+002
 21
6.5024051E+001
  0
LINE
  8
106
  6
CENTERLINE
 62
1
 10
1.2708097E+002
 20
6.5024051E+001
 11
1.2708097E+002
 21
8.6272495E+001
  0
LINE
  8
106
  6
CENTERLINE
 62
1
 10
1.2708095E+002
 20
6.5024051E+001
 11
1.1208097E+002
 21
6.5024051E+001
  0
LINE
  8
106
  6
CENTERLINE
 62
1
 10
1.2708097E+002
 20
7.4024051E+001
 11
1.1208097E+002
 21
7.4024051E+001
  0
LINE
  8
99
  6
CONTINUOUS
 62
1
 10
1.2708097E+002
 20
1.1607407E+002
 11
1.2578095E+002
 21
1.1477405E+002
  0
LINE
  8
99
  6
CONTINUOUS
 62
1
 10
1.2578095E+002
 20
1.1477405E+002
 11
1.2058097E+002
 21
1.1477405E+002
  0
LINE
  8
99
  6
CONTINUOUS
 62
1
 10
1.2058097E+002
 20
1.1477405E+002
 11
1.1870459E+002
 21
1.1152405E+002
  0
LINE
  8
99
  6
CONTINUOUS
 62
1
 10
1.1870459E+002
 20
1.1152405E+002
 11
1.2058097E+002
 21
1.0827405E+002
  0
LINE
  8
99
  6
CONTINUOUS
 62
1
 10
1.2058097E+002
 20
1.0827405E+002
 11
1.2578095E+002
 21
1.0827405E+002
  0
LINE
  8
99
  6
CONTINUOUS
 62
1
 10
1.2578095E+002
 20
1.0827405E+002
 11
1.2708097E+002
 21
1.0700843E+002
  0
LINE
  8
99
  6
CONTINUOUS
 62
1
 10
1.2708097E+002
 20
1.0700843E+002
 11
1.2708097E+002
 21
1.0413318E+002
  0
ARC
  8
99
  6
CONTINUOUS
 62
1
 10
1.218693E+002
 20
9.1618666E+001
 40
1.355635E+001
 50
6.7390717E+001
 51
7.4993747E+001
  0
ARC
  8
99
  6
CONTINUOUS
 62
1
 10
1.2186951E+002
 20
9.1620616E+001
 40
1.355441E+001
 50
7.4992489E+001
 51
8.3930009E+001
  0
ARC
  8
99
  6
CONTINUOUS
 62
1
 10
1.2404728E+002
 20
1.1231255E+002
 40
7.2518353
 50
2.5840937E+002
 51
2.6410755E+002
  0
ARC
  8
99
  6
CONTINUOUS
 62
1
 10
1.2356723E+002
 20
1.1000278E+002
 40
4.8927175
 50
2.5107281E+002
 51
2.584819E+002
  0
ARC
  8
99
  6
CONTINUOUS
 62
1
 10
1.2315644E+002
 20
1.0877152E+002
 40
3.5947966
 50
2.4635601E+002
 51
2.5090056E+002
  0
ARC
  8
99
  6
CONTINUOUS
 62
1
 10
1.2288529E+002
 20
1.0815351E+002
 40
2.9199188
 50
2.4114631E+002
 51
2.4636652E+002
  0
ARC
  8
99
  6
CONTINUOUS
 62
1
 10
1.2262808E+002
 20
1.0768734E+002
 40
2.3874989
 50
2.3518415E+002
 51
2.411539E+002
  0
ARC
  8
99
  6
CONTINUOUS
 62
1
 10
1.2239716E+002
 20
1.0735534E+002
 40
1.9830967
 50
2.2842959E+002
 51
2.3518509E+002
  0
ARC
  8
99
  6
CONTINUOUS
 62
1
 10
1.2260315E+002
 20
1.0756988E+002
 40
2.2803107
 50
2.2152426E+002
 51
2.2813431E+002
  0
ARC
  8
99
  6
CONTINUOUS
 62
1
 10
1.2332397E+002
 20
1.0821081E+002
 40
3.2448646
 50
2.1633415E+002
 51
2.2155932E+002
  0
ARC
  8
99
  6
CONTINUOUS
 62
1
 10
1.2515635E+002
 20
1.0952573E+002
 40
5.5001368
 50
2.0868303E+002
 51
2.1605912E+002
  0
ARC
  8
99
  6
CONTINUOUS
 62
1
 10
1.1604117E+002
 20
1.0449708E+002
 40
4.9102136
 50
2.9110437E+001
 51
4.3870874E+001
  0
ARC
  8
99
  6
CONTINUOUS
 62
1
 10
1.1604061E+002
 20
1.0449674E+002
 40
4.9108508
 50
4.386909E+001
 51
7.5547974E+001
  0
LINE
  8
99
  6
CONTINUOUS
 62
1
 10
1.1726621E+002
 20
1.092522E+002
 11
1.1745255E+002
 21
1.1152405E+002
  0
LINE
  8
99
  6
CONTINUOUS
 62
1
 10
1.1745255E+002
 20
1.1152405E+002
 11
1.1710849E+002
 21
1.1323816E+002
  0
LINE
  8
99
  6
CONTINUOUS
 62
1
 10
1.1710849E+002
 20
1.1323816E+002
 11
1.1910132E+002
 21
1.1504731E+002
  0
LINE
  8
99
  6
CONTINUOUS
 62
1
 10
1.1910132E+002
 20
1.1504731E+002
 11
1.2141938E+002
 21
1.1673755E+002
  0
ARC
  8
99
  6
CONTINUOUS
 62
1
 10
1.2343027E+002
 20
1.1154484E+002
 40
5.5684832
 50
9.8548435E+001
 51
1.1116905E+002
  0
ARC
  8
99
  6
CONTINUOUS
 62
1
 10
1.2119904E+002
 20
1.2653629E+002
 40
9.5881167
 50
2.7841717E+002
 51
2.8089498E+002
  0
ARC
  8
99
  6
CONTINUOUS
 62
1
 10
1.2207495E+002
 20
1.2202111E+002
 40
4.9887635
 50
2.8081784E+002
 51
2.8464877E+002
  0
ARC
  8
99
  6
CONTINUOUS
 62
1
 10
1.2269295E+002
 20
1.1967821E+002
 40
2.5657459
 50
2.845281E+002
 51
2.9049658E+002
  0
ARC
  8
99
  6
CONTINUOUS
 62
1
 10
1.2303694E+002
 20
1.1874098E+002
 40
1.5674063
 50
2.9071453E+002
 51
2.9484653E+002
  0
ARC
  8
99
  6
CONTINUOUS
 62
1
 10
1.2321789E+002
 20
1.1835115E+002
 40
1.1376305
 50
2.9482605E+002
 51
2.999418E+002
  0
ARC
  8
99
  6
CONTINUOUS
 62
1
 10
1.2262675E+002
 20
1.1936249E+002
 40
2.3090515
 50
3.0012702E+002
 51
3.1028545E+002
  0
ARC
  8
99
  6
CONTINUOUS
 62
1
 10
1.2253985E+002
 20
1.1946513E+002
 40
2.4435398
 50
3.1028367E+002
 51
3.2006587E+002
  0
ARC
  8
99
  6
CONTINUOUS
 62
1
 10
1.2626786E+002
 20
1.1634156E+002
 40
2.420079
 50
1.2045217E+002
 51
1.4001702E+002
  0
ARC
  8
99
  6
CONTINUOUS
 62
1
 10
1.2626786E+002
 20
1.1634174E+002
 40
2.4199266
 50
7.0366501E+001
 51
1.2045427E+002
  0
LINE
  8
99
  6
CONTINUOUS
 62
1
 10
1.2708097E+002
 20
1.1862098E+002
 11
1.2708097E+002
 21
1.1607407E+002
  0
INSERT
  2
*XH41
  8
108
 10
1.2280534E+002
 20
1.1299184E+002
  0
LINE
  8
106
  6
CENTERLINE
 62
1
 10
1.2171924E+002
 20
1.1902405E+002
 11
1.1074054E+002
 21
1.1902405E+002
  0
LINE
  8
106
  6
CENTERLINE
 62
1
 10
1.2231745E+002
 20
1.0402405E+002
 11
1.1205384E+002
 21
1.0402405E+002
  0
LINE
  8
104
  6
CONTINUOUS
 62
40
 10
1.2708097E+002
 20
1.1607407E+002
 11
1.2578095E+002
 21
1.1477405E+002
  0
LINE
  8
104
  6
CONTINUOUS
 62
40
 10
1.2578095E+002
 20
1.1477405E+002
 11
1.2058097E+002
 21
1.1477405E+002
  0
LINE
  8
104
  6
CONTINUOUS
 62
40
 10
1.2058097E+002
 20
1.1477405E+002
 11
1.1870459E+002
 21
1.1152405E+002
  0
LINE
  8
104
  6
CONTINUOUS
 62
40
 10
1.1870459E+002
 20
1.1152405E+002
 11
1.2058097E+002
 21
1.0827405E+002
  0
LINE
  8
104
  6
CONTINUOUS
 62
40
 10
1.2058097E+002
 20
1.0827405E+002
 11
1.2578095E+002
 21
1.0827405E+002
  0
LINE
  8
104
  6
CONTINUOUS
 62
40
 10
1.2578095E+002
 20
1.0827405E+002
 11
1.2708097E+002
 21
1.0697406E+002
  0
LINE
  8
105
  6
HIDDEN
 62
1
 10
1.1208097E+002
 20
1.0888416E+002
 11
1.1338098E+002
 21
1.0758417E+002
  0
LINE
  8
105
  6
HIDDEN
 62
1
 10
1.1338098E+002
 20
1.0758417E+002
 11
1.1858097E+002
 21
1.0758417E+002
  0
LINE
  8
105
  6
HIDDEN
 62
1
 10
1.1858097E+002
 20
1.0758417E+002
 11
1.2045734E+002
 21
1.0433417E+002
  0
LINE
  8
105
  6
HIDDEN
 62
1
 10
1.2045734E+002
 20
1.0433417E+002
 11
1.1858097E+002
 21
1.0108417E+002
  0
LINE
  8
105
  6
HIDDEN
 62
1
 10
1.1858097E+002
 20
1.0108417E+002
 11
1.1338098E+002
 21
1.0108417E+002
  0
LINE
  8
105
  6
HIDDEN
 62
1
 10
1.1338098E+002
 20
1.0108417E+002
 11
1.1208097E+002
 21
9.9784183E+001
  0
LINE
  8
105
  6
HIDDEN
 62
1
 10
1.1208097E+002
 20
1.2357407E+002
 11
1.1338098E+002
 21
1.2227405E+002
  0
LINE
  8
105
  6
HIDDEN
 62
1
 10
1.1338098E+002
 20
1.2227405E+002
 11
1.1858097E+002
 21
1.2227405E+002
  0
LINE
  8
105
  6
HIDDEN
 62
1
 10
1.1858097E+002
 20
1.2227405E+002
 11
1.2045734E+002
 21
1.1902405E+002
  0
LINE
  8
105
  6
HIDDEN
 62
1
 10
1.2045734E+002
 20
1.1902405E+002
 11
1.1858097E+002
 21
1.1577405E+002
  0
LINE
  8
105
  6
HIDDEN
 62
1
 10
1.1858097E+002
 20
1.1577405E+002
 11
1.1338098E+002
 21
1.1577405E+002
  0
LINE
  8
105
  6
HIDDEN
 62
1
 10
1.1338098E+002
 20
1.1577405E+002
 11
1.1208097E+002
 21
1.1447406E+002
  0
LINE
  8
105
  6
HIDDEN
 62
1
 10
1.1338098E+002
 20
1.2227405E+002
 11
1.1338098E+002
 21
1.1577405E+002
  0
LINE
  8
105
  6
HIDDEN
 62
1
 10
1.1338098E+002
 20
1.0758417E+002
 11
1.1338098E+002
 21
1.0108417E+002
  0
LINE
  8
105
  6
HIDDEN
 62
1
 10
1.1858097E+002
 20
1.0758417E+002
 11
1.1858097E+002
 21
1.0108417E+002
  0
LINE
  8
105
  6
HIDDEN
 62
1
 10
1.1858097E+002
 20
1.2227405E+002
 11
1.1858097E+002
 21
1.1577405E+002
  0
LINE
  8
104
  6
CONTINUOUS
 62
40
 10
1.2578095E+002
 20
1.0827405E+002
 11
1.2578095E+002
 21
1.0965882E+002
  0
LINE
  8
104
  6
CONTINUOUS
 62
40
 10
1.2578095E+002
 20
1.0965882E+002
 11
1.2578095E+002
 21
1.1002045E+002
  0
LINE
  8
104
  6
CONTINUOUS
 62
40
 10
1.2578095E+002
 20
1.1477405E+002
 11
1.2578095E+002
 21
1.1380091E+002
  0
LINE
  8
104
  6
CONTINUOUS
 62
40
 10
1.2058097E+002
 20
1.1477405E+002
 11
1.2058097E+002
 21
1.0827405E+002
  0
LINE
  8
106
  6
CENTERLINE
 62
1
 10
1.1745255E+002
 20
1.1152405E+002
 11
1.2448828E+002
 21
1.1152405E+002
  0
ARC
  8
104
  6
CONTINUOUS
 62
40
 10
1.3526004E+002
 20
1.1209402E+002
 40
9.082461
 50
1.6085087E+002
 51
1.6715376E+002
  0
ARC
  8
104
  6
CONTINUOUS
 62
40
 10
1.3747373E+002
 20
1.1133072E+002
 40
1.142405E+001
 50
1.5546762E+002
 51
1.6087636E+002
  0
LINE
  8
104
  6
CONTINUOUS
 62
40
 10
1.2708097E+002
 20
1.1607407E+002
 11
1.2708097E+002
 21
1.2852405E+002
  0
LINE
  8
104
  6
CONTINUOUS
 62
40
 10
1.2708097E+002
 20
1.2852405E+002
 11
1.2658097E+002
 21
1.2902408E+002
  0
LINE
  8
104
  6
CONTINUOUS
 62
40
 10
1.2658097E+002
 20
1.2902408E+002
 11
1.1258097E+002
 21
1.2902408E+002
  0
LINE
  8
104
  6
CONTINUOUS
 62
40
 10
1.1258097E+002
 20
1.2902408E+002
 11
1.1208097E+002
 21
1.2852408E+002
  0
LINE
  8
104
  6
CONTINUOUS
 62
40
 10
1.1208097E+002
 20
1.2852408E+002
 11
1.1208097E+002
 21
8.4524051E+001
  0
LINE
  8
104
  6
CONTINUOUS
 62
40
 10
1.1208097E+002
 20
8.4524051E+001
 11
1.1258097E+002
 21
8.4024051E+001
  0
LINE
  8
104
  6
CONTINUOUS
 62
40
 10
1.1258097E+002
 20
8.4024051E+001
 11
1.2658097E+002
 21
8.4024051E+001
  0
LINE
  8
104
  6
CONTINUOUS
 62
40
 10
1.2658097E+002
 20
8.4024051E+001
 11
1.2708097E+002
 21
8.4524051E+001
  0
LINE
  8
104
  6
CONTINUOUS
 62
40
 10
1.2708097E+002
 20
8.4524051E+001
 11
1.2708097E+002
 21
1.0697406E+002
  0
ARC
  8
104
  6
CONTINUOUS
 62
40
 10
1.3699578E+002
 20
1.1144942E+002
 40
1.0878065E+001
 50
1.9627059E+002
 51
2.042935E+002
  0
ARC
  8
104
  6
CONTINUOUS
 62
40
 10
1.3934719E+002
 20
1.1214229E+002
 40
1.332943E+001
 50
1.892918E+002
 51
1.9629773E+002
  0
LINE
  8
104
  6
CONTINUOUS
 62
40
 10
1.1208097E+002
 20
1.2852408E+002
 11
1.2708097E+002
 21
1.2852408E+002
  0
LINE
  8
104
  6
CONTINUOUS
 62
40
 10
1.1208097E+002
 20
8.4524051E+001
 11
1.2708097E+002
 21
8.4524051E+001
  0
LINE
  8
104
  6
CONTINUOUS
 62
40
 10
1.1208097E+002
 20
8.4024051E+001
 11
1.2708097E+002
 21
8.4024051E+001
  0
LINE
  8
106
  6
CENTERLINE
 62
1
 10
1.1958097E+002
 20
1.349303E+002
 11
1.1958097E+002
 21
8.5163151E+001
  0
LINE
  8
104
  6
CONTINUOUS
 62
40
 10
1.1208097E+002
 20
1.3033417E+002
 11
1.2708097E+002
 21
1.3033417E+002
  0
LINE
  8
104
  6
CONTINUOUS
 62
40
 10
1.0783368E+002
 20
1.3033417E+002
 11
1.1208097E+002
 21
1.3033417E+002
  0
LINE
  8
104
  6
CONTINUOUS
 62
40
 10
1.1208097E+002
 20
1.3033417E+002
 11
1.1208097E+002
 21
1.0733417E+002
  0
LINE
  8
104
  6
CONTINUOUS
 62
40
 10
1.1208097E+002
 20
1.0733417E+002
 11
1.0783368E+002
 21
1.0733417E+002
  0
LINE
  8
104
  6
CONTINUOUS
 62
40
 10
1.0783368E+002
 20
1.0733417E+002
 11
1.0783368E+002
 21
1.3033417E+002
  0
INSERT
  2
*XH42
  8
108
 10
1.0993452E+002
 20
1.1870877E+002
  0
LINE
  8
104
  6
CONTINUOUS
 62
40
 10
1.304986E+002
 20
1.1516938E+002
 11
1.304986E+002
 21
1.3033417E+002
  0
LINE
  8
104
  6
CONTINUOUS
 62
40
 10
1.304986E+002
 20
1.3033417E+002
 11
1.2708097E+002
 21
1.3033417E+002
  0
LINE
  8
104
  6
CONTINUOUS
 62
40
 10
1.2708097E+002
 20
1.3033417E+002
 11
1.2708097E+002
 21
1.1441877E+002
  0
LINE
  8
104
  6
CONTINUOUS
 62
40
 10
1.2708097E+002
 20
1.1032343E+002
 11
1.2708097E+002
 21
1.0800843E+002
  0
LINE
  8
104
  6
CONTINUOUS
 62
40
 10
1.2708097E+002
 20
1.0800843E+002
 11
1.2708097E+002
 21
1.0733417E+002
  0
LINE
  8
104
  6
CONTINUOUS
 62
40
 10
1.2708097E+002
 20
1.0733417E+002
 11
1.304986E+002
 21
1.0733417E+002
  0
LINE
  8
104
  6
CONTINUOUS
 62
40
 10
1.304986E+002
 20
1.0733417E+002
 11
1.304986E+002
 21
1.1107404E+002
  0
LINE
  8
106
  6
CENTERLINE
 62
1
 10
1.0398029E+002
 20
1.0733417E+002
 11
1.0398029E+002
 21
1.0110651E+002
  0
LINE
  8
106
  6
CENTERLINE
 62
1
 10
2.3455019E+002
 20
1.0885144E+002
 11
2.3455019E+002
 21
1.0120185E+002
  0
LINE
  8
106
  6
CENTERLINE
 62
1
 10
8.4550173E+001
 20
1.0976255E+002
 11
8.4550173E+001
 21
1.0012958E+002
  0
LINE
  8
106
  6
CENTERLINE
 62
1
 10
2.1408096E+002
 20
1.0818918E+002
 11
2.1408096E+002
 21
1.0144013E+002
  0
LINE
  8
104
  6
CONTINUOUS
 62
40
 10
2.0088095E+002
 20
1.0233417E+002
 11
1.8428098E+002
 21
1.0233417E+002
  0
LINE
  8
104
  6
CONTINUOUS
 62
40
 10
1.6958096E+002
 20
1.0233417E+002
 11
1.7758096E+002
 21
1.0233417E+002
  0
LINE
  8
104
  6
CONTINUOUS
 62
40
 10
1.2708097E+002
 20
1.0233417E+002
 11
1.6958096E+002
 21
1.0233417E+002
  0
LINE
  8
104
  6
CONTINUOUS
 62
40
 10
1.6958096E+002
 20
1.0233417E+002
 11
1.6958096E+002
 21
1.0383417E+002
  0
LINE
  8
104
  6
CONTINUOUS
 62
40
 10
1.6958096E+002
 20
1.0383417E+002
 11
1.7758096E+002
 21
1.0383417E+002
  0
LINE
  8
104
  6
CONTINUOUS
 62
40
 10
1.7758096E+002
 20
1.0383417E+002
 11
1.7758096E+002
 21
1.0233417E+002
  0
LINE
  8
104
  6
CONTINUOUS
 62
40
 10
1.7758096E+002
 20
1.0233417E+002
 11
1.8428098E+002
 21
1.0233417E+002
  0
LINE
  8
104
  6
CONTINUOUS
 62
40
 10
1.8428098E+002
 20
1.0233417E+002
 11
1.8428098E+002
 21
1.0733417E+002
  0
LINE
  8
104
  6
CONTINUOUS
 62
40
 10
1.8428098E+002
 20
1.0733417E+002
 11
1.7758096E+002
 21
1.0733417E+002
  0
LINE
  8
104
  6
CONTINUOUS
 62
40
 10
1.7758096E+002
 20
1.0733417E+002
 11
1.6958096E+002
 21
1.0733417E+002
  0
LINE
  8
104
  6
CONTINUOUS
 62
40
 10
1.6958096E+002
 20
1.0733417E+002
 11
1.2708097E+002
 21
1.0733417E+002
  0
LINE
  8
104
  6
CONTINUOUS
 62
40
 10
1.2708097E+002
 20
1.0733417E+002
 11
1.2708097E+002
 21
1.0233417E+002
  0
INSERT
  2
*XH43
  8
108
 10
1.5694307E+002
 20
1.0501203E+002
  0
LINE
  8
104
  6
CONTINUOUS
 62
40
 10
9.9640566E+001
 20
1.0483417E+002
 11
1.0211078E+002
 21
1.0236396E+002
  0
LINE
  8
104
  6
CONTINUOUS
 62
40
 10
1.0211078E+002
 20
1.0236396E+002
 11
1.0136884E+002
 21
1.0312204E+002
  0
LINE
  8
104
  6
CONTINUOUS
 62
40
 10
1.0136884E+002
 20
1.0312204E+002
 11
1.0248096E+002
 21
1.0423417E+002
  0
LINE
  8
104
  6
CONTINUOUS
 62
40
 10
1.0248096E+002
 20
1.0423417E+002
 11
1.0248096E+002
 21
1.0733417E+002
  0
LINE
  8
104
  6
CONTINUOUS
 62
40
 10
1.0248096E+002
 20
1.0733417E+002
 11
9.9730959E+001
 21
1.0733417E+002
  0
LINE
  8
104
  6
CONTINUOUS
 62
40
 10
9.9730959E+001
 20
1.0733417E+002
 11
9.9640566E+001
 21
1.0733417E+002
  0
INSERT
  2
*XH44
  8
108
 10
1.011736E+002
 20
1.052005E+002
  0
LINE
  8
104
  6
CONTINUOUS
 62
40
 10
2.1714057E+002
 20
1.0233417E+002
 11
2.1964057E+002
 21
1.0483417E+002
  0
LINE
  8
104
  6
CONTINUOUS
 62
40
 10
2.1964057E+002
 20
1.0483417E+002
 11
2.1964057E+002
 21
1.0733417E+002
  0
LINE
  8
104
  6
CONTINUOUS
 62
40
 10
2.1964057E+002
 20
1.0733417E+002
 11
2.1568097E+002
 21
1.0733417E+002
  0
LINE
  8
104
  6
CONTINUOUS
 62
40
 10
2.1568097E+002
 20
1.0733417E+002
 11
2.1568097E+002
 21
1.0423417E+002
  0
LINE
  8
104
  6
CONTINUOUS
 62
40
 10
2.1568097E+002
 20
1.0423417E+002
 11
2.1736078E+002
 21
1.0255439E+002
  0
INSERT
  2
*XH45
  8
108
 10
2.1677471E+002
 20
1.0625031E+002
  0
LINE
  8
104
  6
CONTINUOUS
 62
40
 10
1.0568097E+002
 20
1.0733417E+002
 11
1.0568097E+002
 21
1.0423417E+002
  0
LINE
  8
104
  6
CONTINUOUS
 62
40
 10
1.0568097E+002
 20
1.0423417E+002
 11
1.0758097E+002
 21
1.0233417E+002
  0
LINE
  8
104
  6
CONTINUOUS
 62
40
 10
1.0758097E+002
 20
1.0233417E+002
 11
1.1208097E+002
 21
1.0233417E+002
  0
LINE
  8
104
  6
CONTINUOUS
 62
40
 10
1.1208097E+002
 20
1.0233417E+002
 11
1.1208097E+002
 21
1.0733417E+002
  0
LINE
  8
104
  6
CONTINUOUS
 62
40
 10
1.1208097E+002
 20
1.0733417E+002
 11
1.0568097E+002
 21
1.0733417E+002
  0
INSERT
  2
*XH46
  8
108
 10
1.0824829E+002
 20
1.0546117E+002
  0
LINE
  8
104
  6
CONTINUOUS
 62
40
 10
2.1248096E+002
 20
1.0733417E+002
 11
2.1248096E+002
 21
1.0423417E+002
  0
LINE
  8
104
  6
CONTINUOUS
 62
40
 10
2.1248096E+002
 20
1.0423417E+002
 11
2.1058096E+002
 21
1.0233417E+002
  0
LINE
  8
104
  6
CONTINUOUS
 62
40
 10
2.1058096E+002
 20
1.0233417E+002
 11
2.0088095E+002
 21
1.0233417E+002
  0
LINE
  8
104
  6
CONTINUOUS
 62
40
 10
2.0088095E+002
 20
1.0233417E+002
 11
2.0088095E+002
 21
1.0733417E+002
  0
LINE
  8
104
  6
CONTINUOUS
 62
40
 10
2.0088095E+002
 20
1.0733417E+002
 11
2.1248096E+002
 21
1.0733417E+002
  0
INSERT
  2
*XH47
  8
108
 10
2.0559853E+002
 20
1.052307E+002
  0
LINE
  8
104
  6
CONTINUOUS
 62
40
 10
2.1058096E+002
 20
1.0233417E+002
 11
2.1758096E+002
 21
1.0233417E+002
  0
LINE
  8
104
  6
CONTINUOUS
 62
40
 10
2.1248096E+002
 20
1.0423417E+002
 11
2.1568097E+002
 21
1.0423417E+002
  0
LINE
  8
104
  6
CONTINUOUS
 62
40
 10
2.1248096E+002
 20
1.0733417E+002
 11
2.1568097E+002
 21
1.0733417E+002
  0
LINE
  8
104
  6
CONTINUOUS
 62
40
 10
1.0248096E+002
 20
1.0733417E+002
 11
1.0568097E+002
 21
1.0733417E+002
  0
LINE
  8
104
  6
CONTINUOUS
 62
40
 10
1.0568097E+002
 20
1.0423417E+002
 11
1.0248096E+002
 21
1.0423417E+002
  0
LINE
  8
104
  6
CONTINUOUS
 62
40
 10
1.0758097E+002
 20
1.0233417E+002
 11
1.00581E+002
 21
1.0233417E+002
  0
LINE
  8
99
  6
CONTINUOUS
 62
1
 10
1.0208097E+002
 20
1.0733417E+002
 11
1.0208097E+002
 21
1.0383417E+002
  0
LINE
  8
99
  6
CONTINUOUS
 62
1
 10
1.0608097E+002
 20
1.0383417E+002
 11
1.0608097E+002
 21
1.0733417E+002
  0
LINE
  8
99
  6
CONTINUOUS
 62
1
 10
2.1208096E+002
 20
1.0733417E+002
 11
2.1208096E+002
 21
1.0383417E+002
  0
LINE
  8
99
  6
CONTINUOUS
 62
1
 10
2.1608096E+002
 20
1.0383417E+002
 11
2.1608096E+002
 21
1.0733417E+002
  0
LINE
  8
104
  6
CONTINUOUS
 62
40
 10
7.7080965E+001
 20
1.0233417E+002
 11
7.7080965E+001
 21
1.0733417E+002
  0
LINE
  8
104
  6
CONTINUOUS
 62
40
 10
7.7080965E+001
 20
1.0733417E+002
 11
9.4640566E+001
 21
1.0733417E+002
  0
LINE
  8
104
  6
CONTINUOUS
 62
40
 10
9.4640566E+001
 20
1.0733417E+002
 11
9.4640566E+001
 21
1.0483417E+002
  0
LINE
  8
104
  6
CONTINUOUS
 62
40
 10
9.4640566E+001
 20
1.0483417E+002
 11
9.2140566E+001
 21
1.0233417E+002
  0
LINE
  8
104
  6
CONTINUOUS
 62
40
 10
9.2140566E+001
 20
1.0233417E+002
 11
7.7080965E+001
 21
1.0233417E+002
  0
INSERT
  2
*XH48
  8
108
 10
8.5928722E+001
 20
1.0480485E+002
  0
LINE
  8
104
  6
CONTINUOUS
 62
40
 10
2.2464055E+002
 20
1.0483417E+002
 11
2.2714055E+002
 21
1.0233417E+002
  0
LINE
  8
104
  6
CONTINUOUS
 62
40
 10
2.2714055E+002
 20
1.0233417E+002
 11
2.4208095E+002
 21
1.0233417E+002
  0
LINE
  8
104
  6
CONTINUOUS
 62
40
 10
2.4208095E+002
 20
1.0233417E+002
 11
2.4208095E+002
 21
1.0733417E+002
  0
LINE
  8
104
  6
CONTINUOUS
 62
40
 10
2.4208095E+002
 20
1.0733417E+002
 11
2.2470018E+002
 21
1.0733417E+002
  0
LINE
  8
104
  6
CONTINUOUS
 62
40
 10
2.2470018E+002
 20
1.0733417E+002
 11
2.2464055E+002
 21
1.0733417E+002
  0
INSERT
  2
*XH49
  8
108
 10
2.3430328E+002
 20
1.04687E+002
  0
ARC
  8
104
  6
CONTINUOUS
 62
40
 10
1.3182533E+002
 20
1.1085354E+002
 40
4.9999022E-001
 50
1.2382636E+001
 51
1.0238666E+002
  0
LINE
  8
104
  6
CONTINUOUS
 62
40
 10
1.3231369E+002
 20
1.1096076E+002
 11
1.3231369E+002
 21
1.1093048E+002
  0
ARC
  8
104
  6
CONTINUOUS
 62
40
 10
1.3280922E+002
 20
1.1104701E+002
 40
5.0904353E-001
 50
1.932333E+002
 51
2.359177E+002
  0
ARC
  8
104
  6
CONTINUOUS
 62
40
 10
1.3280985E+002
 20
1.1104683E+002
 40
5.0924632E-001
 50
2.3584761E+002
 51
2.571837E+002
  0
ARC
  8
104
  6
CONTINUOUS
 62
40
 10
1.3280853E+002
 20
1.1104058E+002
 40
5.0285803E-001
 50
2.5717179E+002
 51
2.7868821E+002
  0
LINE
  8
104
  6
CONTINUOUS
 62
40
 10
1.3288449E+002
 20
1.1054349E+002
 11
1.7447144E+002
 21
1.1665061E+002
  0
ARC
  8
104
  6
CONTINUOUS
 62
40
 10
1.7358095E+002
 20
1.2258415E+002
 40
5.9999911
 50
2.7853512E+002
 51
3.0755602E+002
  0
LINE
  8
104
  6
CONTINUOUS
 62
40
 10
1.7723816E+002
 20
1.1782761E+002
 11
1.8344437E+002
 21
1.2259937E+002
  0
ARC
  8
104
  6
CONTINUOUS
 62
40
 10
1.842732E+002
 20
1.2134915E+002
 40
1.4999995
 50
6.8830747E+001
 51
1.2354227E+002
  0
ARC
  8
104
  6
CONTINUOUS
 62
40
 10
1.8578995E+002
 20
1.2526569E+002
 40
2.6999772
 50
2.4882983E+002
 51
5.0459256E+002
  0
ARC
  8
104
  6
CONTINUOUS
 62
40
 10
1.8307469E+002
 20
1.276856E+002
 40
9.9842789E-001
 50
2.937487E+002
 51
3.0102711E+002
  0
ARC
  8
104
  6
CONTINUOUS
 62
40
 10
1.8302553E+002
 20
1.2779762E+002
 40
1.1207695
 50
2.8700407E+002
 51
2.9374295E+002
  0
ARC
  8
104
  6
CONTINUOUS
 62
40
 10
1.8295826E+002
 20
1.2803395E+002
 40
1.3664463
 50
2.7498738E+002
 51
2.8680355E+002
  0
ARC
  8
104
  6
CONTINUOUS
 62
40
 10
1.8291917E+002
 20
1.284639E+002
 40
1.7981661
 50
2.6519771E+002
 51
2.7503721E+002
  0
ARC
  8
104
  6
CONTINUOUS
 62
40
 10
1.8296033E+002
 20
1.2898178E+002
 40
2.3176771
 50
2.5694903E+002
 51
2.6525559E+002
  0
LINE
  8
104
  6
CONTINUOUS
 62
40
 10
1.8243695E+002
 20
1.2672397E+002
 11
1.7487995E+002
 21
1.284419E+002
  0
ARC
  8
104
  6
CONTINUOUS
 62
40
 10
1.7358102E+002
 20
1.2258417E+002
 40
6.0000135
 50
7.7497179E+001
 51
1.0624057E+002
  0
LINE
  8
104
  6
CONTINUOUS
 62
40
 10
1.7190299E+002
 20
1.2834476E+002
 11
1.3158142E+002
 21
1.1646418E+002
  0
ARC
  8
104
  6
CONTINUOUS
 62
40
 10
1.3172228E+002
 20
1.159844E+002
 40
5.0002571E-001
 50
1.0636112E+002
 51
1.9238656E+002
  0
LINE
  8
104
  6
CONTINUOUS
 62
40
 10
1.3123389E+002
 20
1.1587714E+002
 11
1.3123389E+002
 21
1.1584439E+002
  0
ARC
  8
104
  6
CONTINUOUS
 62
40
 10
1.3074801E+002
 20
1.1573026E+002
 40
4.9910348E-001
 50
3.5066975E+002
 51
3.732198E+002
  0
ARC
  8
104
  6
CONTINUOUS
 62
40
 10
1.3075475E+002
 20
1.1572926E+002
 40
4.9228861E-001
 50
3.2789967E+002
 51
3.506573E+002
  0
ARC
  8
104
  6
CONTINUOUS
 62
40
 10
1.3075489E+002
 20
1.1573002E+002
 40
4.9258488E-001
 50
2.823197E+002
 51
3.278157E+002
  0
LINE
  8
104
  6
CONTINUOUS
 62
40
 10
1.3085999E+002
 20
1.1524878E+002
 11
1.2353461E+002
 21
1.1363984E+002
  0
ARC
  8
104
  6
CONTINUOUS
 62
40
 10
1.2396363E+002
 20
1.116864E+002
 40
1.9999924
 50
1.0238675E+002
 51
2.8238846E+002
  0
LINE
  8
104
  6
CONTINUOUS
 62
40
 10
1.243927E+002
 20
1.0973298E+002
 11
1.3171808E+002
 21
1.1134189E+002
  0
LINE
  8
106
  6
CENTERLINE
 62
1
 10
1.2139948E+002
 20
1.1112323E+002
 11
1.3628778E+002
 21
1.1439325E+002
  0
LINE
  8
106
  6
CENTERLINE
 62
1
 10
1.3628778E+002
 20
1.1439325E+002
 11
1.4473139E+002
 21
1.1624774E+002
  0
LINE
  8
106
  6
CENTERLINE
 62
1
 10
1.4473139E+002
 20
1.1624774E+002
 11
1.763158E+002
 21
1.2318485E+002
  0
LINE
  8
106
  6
CENTERLINE
 62
1
 10
1.763158E+002
 20
1.2318485E+002
 11
1.8155499E+002
 21
1.2433558E+002
  0
LINE
  8
106
  6
CENTERLINE
 62
1
 10
1.8155499E+002
 20
1.2433558E+002
 11
1.9068189E+002
 21
1.2634015E+002
  0
LINE
  8
106
  6
CENTERLINE
 62
1
 10
1.8467725E+002
 20
1.3033185E+002
 11
1.8677902E+002
 21
1.2076242E+002
  0
LINE
  8
106
  6
CENTERLINE
 62
1
 10
1.7551789E+002
 20
1.1376526E+002
 11
1.7172644E+002
 21
1.3102777E+002
  0
LINE
  8
106
  6
CENTERLINE
 62
1
 10
1.2339551E+002
 20
1.1427301E+002
 11
1.2449677E+002
 21
1.0925916E+002
  0
CIRCLE
  8
104
  6
CONTINUOUS
 62
40
 10
1.7358096E+002
 20
1.2258417E+002
 40
2.8000222
  0
INSERT
  2
*XH50
  8
108
 10
1.735193E+002
 20
1.2265186E+002
  0
LINE
  8
104
  6
CONTINUOUS
 62
40
 10
1.9358096E+002
 20
1.0264496E+002
 11
1.9358096E+002
 21
1.0664496E+002
  0
LINE
  8
104
  6
CONTINUOUS
 62
40
 10
1.9358096E+002
 20
1.0664496E+002
 11
1.9158096E+002
 21
1.0664496E+002
  0
LINE
  8
104
  6
CONTINUOUS
 62
40
 10
1.9158096E+002
 20
1.0664496E+002
 11
1.9158096E+002
 21
1.0264496E+002
  0
LINE
  8
104
  6
CONTINUOUS
 62
40
 10
1.9158096E+002
 20
1.0264496E+002
 11
1.8765598E+002
 21
1.0264496E+002
  0
LINE
  8
104
  6
CONTINUOUS
 62
40
 10
1.8765598E+002
 20
1.0264496E+002
 11
1.8658096E+002
 21
1.0371997E+002
  0
LINE
  8
104
  6
CONTINUOUS
 62
40
 10
1.8658096E+002
 20
1.0371997E+002
 11
1.8658096E+002
 21
1.1664496E+002
  0
LINE
  8
104
  6
CONTINUOUS
 62
40
 10
1.8658096E+002
 20
1.1664496E+002
 11
1.8688095E+002
 21
1.1664496E+002
  0
ARC
  8
104
  6
CONTINUOUS
 62
40
 10
1.8688096E+002
 20
1.1764497E+002
 40
1.0000068
 50
2.6999953E+002
 51
3.5999961E+002
  0
LINE
  8
104
  6
CONTINUOUS
 62
40
 10
1.8788097E+002
 20
1.1764496E+002
 11
1.8788097E+002
 21
1.1914499E+002
  0
ARC
  8
104
  6
CONTINUOUS
 62
40
 10
1.8688097E+002
 20
1.1914499E+002
 40
1.0000025
 50
1.410359E-004
 51
9.0000718E+001
  0
LINE
  8
104
  6
CONTINUOUS
 62
40
 10
1.8688095E+002
 20
1.2014499E+002
 11
1.8508096E+002
 21
1.2014499E+002
  0
LINE
  8
104
  6
CONTINUOUS
 62
40
 10
1.8508096E+002
 20
1.2014499E+002
 11
1.8508096E+002
 21
1.2264496E+002
  0
LINE
  8
104
  6
CONTINUOUS
 62
40
 10
1.8508096E+002
 20
1.2264496E+002
 11
1.8783096E+002
 21
1.2264496E+002
  0
ARC
  8
104
  6
CONTINUOUS
 62
40
 10
1.8783095E+002
 20
1.2464497E+002
 40
2.0000036
 50
2.7000053E+002
 51
3.6000078E+002
  0
LINE
  8
104
  6
CONTINUOUS
 62
40
 10
1.8983095E+002
 20
1.2464499E+002
 11
1.8983095E+002
 21
1.2609497E+002
  0
ARC
  8
104
  6
CONTINUOUS
 62
40
 10
1.8783096E+002
 20
1.2609498E+002
 40
1.9999907
 50
3.5999973E+002
 51
4.4999984E+002
  0
LINE
  8
104
  6
CONTINUOUS
 62
40
 10
1.8783096E+002
 20
1.2809497E+002
 11
1.8508096E+002
 21
1.2809497E+002
  0
LINE
  8
104
  6
CONTINUOUS
 62
40
 10
1.8508096E+002
 20
1.2809497E+002
 11
1.8508096E+002
 21
1.3064499E+002
  0
LINE
  8
104
  6
CONTINUOUS
 62
40
 10
1.8508096E+002
 20
1.3064499E+002
 11
2.0008096E+002
 21
1.3064499E+002
  0
LINE
  8
104
  6
CONTINUOUS
 62
40
 10
2.0008096E+002
 20
1.3064499E+002
 11
2.0008096E+002
 21
1.2809497E+002
  0
LINE
  8
104
  6
CONTINUOUS
 62
40
 10
2.0008096E+002
 20
1.2809497E+002
 11
1.9733096E+002
 21
1.2809497E+002
  0
ARC
  8
104
  6
CONTINUOUS
 62
40
 10
1.9733096E+002
 20
1.2609498E+002
 40
1.9999956
 50
8.9999874E+001
 51
1.8000013E+002
  0
LINE
  8
104
  6
CONTINUOUS
 62
40
 10
1.9533096E+002
 20
1.2609497E+002
 11
1.9533096E+002
 21
1.2464499E+002
  0
ARC
  8
104
  6
CONTINUOUS
 62
40
 10
1.9733097E+002
 20
1.2464497E+002
 40
2.0000085
 50
1.7999936E+002
 51
2.6999976E+002
  0
LINE
  8
104
  6
CONTINUOUS
 62
40
 10
1.9733096E+002
 20
1.2264496E+002
 11
2.0008096E+002
 21
1.2264496E+002
  0
LINE
  8
104
  6
CONTINUOUS
 62
40
 10
2.0008096E+002
 20
1.2264496E+002
 11
2.0008096E+002
 21
1.2014499E+002
  0
LINE
  8
104
  6
CONTINUOUS
 62
40
 10
2.0008096E+002
 20
1.2014499E+002
 11
1.9828098E+002
 21
1.2014499E+002
  0
ARC
  8
104
  6
CONTINUOUS
 62
40
 10
1.9828095E+002
 20
1.1914499E+002
 40
1.0000073
 50
8.9998702E+001
 51
1.7999958E+002
  0
LINE
  8
104
  6
CONTINUOUS
 62
40
 10
1.9728095E+002
 20
1.1914499E+002
 11
1.9728095E+002
 21
1.1764496E+002
  0
ARC
  8
104
  6
CONTINUOUS
 62
40
 10
1.9828096E+002
 20
1.1764497E+002
 40
1.0000117
 50
1.8000067E+002
 51
2.7000105E+002
  0
LINE
  8
104
  6
CONTINUOUS
 62
40
 10
1.9828098E+002
 20
1.1664496E+002
 11
1.9858096E+002
 21
1.1664496E+002
  0
LINE
  8
104
  6
CONTINUOUS
 62
40
 10
1.9858096E+002
 20
1.1664496E+002
 11
1.9858096E+002
 21
1.0378858E+002
  0
LINE
  8
104
  6
CONTINUOUS
 62
40
 10
1.9858096E+002
 20
1.0378858E+002
 11
1.9858096E+002
 21
1.0371997E+002
  0
LINE
  8
104
  6
CONTINUOUS
 62
40
 10
1.9858096E+002
 20
1.0371997E+002
 11
1.9750595E+002
 21
1.0264496E+002
  0
LINE
  8
104
  6
CONTINUOUS
 62
40
 10
1.9750595E+002
 20
1.0264496E+002
 11
1.9358096E+002
 21
1.0264496E+002
  0
LINE
  8
104
  6
CONTINUOUS
 62
40
 10
1.8783096E+002
 20
1.2809497E+002
 11
1.9733096E+002
 21
1.2809497E+002
  0
LINE
  8
104
  6
CONTINUOUS
 62
40
 10
1.9733096E+002
 20
1.2264496E+002
 11
1.8783096E+002
 21
1.2264496E+002
  0
LINE
  8
104
  6
CONTINUOUS
 62
40
 10
1.8688095E+002
 20
1.2014499E+002
 11
1.9828098E+002
 21
1.2014499E+002
  0
LINE
  8
104
  6
CONTINUOUS
 62
40
 10
1.9858096E+002
 20
1.1664499E+002
 11
1.8688095E+002
 21
1.1664499E+002
  0
LINE
  8
104
  6
CONTINUOUS
 62
40
 10
1.8658096E+002
 20
1.0371997E+002
 11
1.9158096E+002
 21
1.0371997E+002
  0
LINE
  8
104
  6
CONTINUOUS
 62
40
 10
1.9358096E+002
 20
1.0371997E+002
 11
1.9858096E+002
 21
1.0371997E+002
  0
LINE
  8
99
  6
CONTINUOUS
 62
1
 10
1.8765598E+002
 20
1.1664496E+002
 11
1.8765598E+002
 21
1.0264496E+002
  0
LINE
  8
99
  6
CONTINUOUS
 62
1
 10
1.9750595E+002
 20
1.0264496E+002
 11
1.9750595E+002
 21
1.1664496E+002
  0
LINE
  8
106
  6
CENTERLINE
 62
1
 10
1.9258096E+002
 20
1.3318482E+002
 11
1.9258096E+002
 21
1.0003675E+002
  0
LINE
  8
99
  6
CONTINUOUS
 62
1
 10
1.8658096E+002
 20
1.0336152E+002
 11
1.8658096E+002
 21
1.0233417E+002
  0
LINE
  8
104
  6
CONTINUOUS
 62
40
 10
1.9858096E+002
 20
1.1233417E+002
 11
1.9858096E+002
 21
1.0336152E+002
  0
LINE
  8
104
  6
CONTINUOUS
 62
40
 10
1.9858096E+002
 20
1.0336152E+002
 11
1.9858096E+002
 21
1.0233417E+002
  0
LINE
  8
104
  6
CONTINUOUS
 62
40
 10
1.9858096E+002
 20
1.0233417E+002
 11
2.0088095E+002
 21
1.0233417E+002
  0
LINE
  8
104
  6
CONTINUOUS
 62
40
 10
2.0088095E+002
 20
1.0233417E+002
 11
2.0088095E+002
 21
1.0733417E+002
  0
LINE
  8
104
  6
CONTINUOUS
 62
40
 10
2.0088095E+002
 20
1.0733417E+002
 11
2.0208096E+002
 21
1.0733417E+002
  0
LINE
  8
104
  6
CONTINUOUS
 62
40
 10
2.0208096E+002
 20
1.0733417E+002
 11
2.0408096E+002
 21
1.0733417E+002
  0
LINE
  8
104
  6
CONTINUOUS
 62
40
 10
2.0408096E+002
 20
1.0733417E+002
 11
2.0458096E+002
 21
1.0733417E+002
  0
LINE
  8
104
  6
CONTINUOUS
 62
40
 10
2.0458096E+002
 20
1.0733417E+002
 11
2.0458096E+002
 21
1.1183417E+002
  0
LINE
  8
104
  6
CONTINUOUS
 62
40
 10
2.0458096E+002
 20
1.1183417E+002
 11
2.0408096E+002
 21
1.1233417E+002
  0
LINE
  8
104
  6
CONTINUOUS
 62
40
 10
2.0408096E+002
 20
1.1233417E+002
 11
1.9858096E+002
 21
1.1233417E+002
  0
INSERT
  2
*XH51
  8
108
 10
2.0107608E+002
 20
1.0855309E+002
  0
LINE
  8
104
  6
CONTINUOUS
 62
40
 10
1.8658096E+002
 20
1.0336152E+002
 11
1.8658096E+002
 21
1.0233417E+002
  0
LINE
  8
104
  6
CONTINUOUS
 62
40
 10
1.8658096E+002
 20
1.0233417E+002
 11
1.8428098E+002
 21
1.0233417E+002
  0
LINE
  8
104
  6
CONTINUOUS
 62
40
 10
1.8428098E+002
 20
1.0233417E+002
 11
1.8428098E+002
 21
1.0633417E+002
  0
LINE
  8
104
  6
CONTINUOUS
 62
40
 10
1.8428098E+002
 20
1.0633417E+002
 11
1.8428098E+002
 21
1.0733417E+002
  0
LINE
  8
104
  6
CONTINUOUS
 62
40
 10
1.8428098E+002
 20
1.0733417E+002
 11
1.8058096E+002
 21
1.0733417E+002
  0
LINE
  8
104
  6
CONTINUOUS
 62
40
 10
1.8058096E+002
 20
1.0733417E+002
 11
1.8058096E+002
 21
1.1183417E+002
  0
LINE
  8
104
  6
CONTINUOUS
 62
40
 10
1.8058096E+002
 20
1.1183417E+002
 11
1.8108096E+002
 21
1.1233417E+002
  0
LINE
  8
104
  6
CONTINUOUS
 62
40
 10
1.8108096E+002
 20
1.1233417E+002
 11
1.8658096E+002
 21
1.1233417E+002
  0
LINE
  8
104
  6
CONTINUOUS
 62
40
 10
1.8658096E+002
 20
1.1233417E+002
 11
1.8658096E+002
 21
1.0336152E+002
  0
INSERT
  2
*XH52
  8
108
 10
1.8381038E+002
 20
1.0778757E+002
  0
LINE
  8
106
  6
CENTERLINE
 62
1
 10
1.9258096E+002
 20
1.0233417E+002
 11
1.9258096E+002
 21
9.9696903E+001
  0
TEXT
  8
103
  6
CONTINUOUS
 62
40
 10
6.1335096E+001
 20
7.7503513E+001
 40
5.0
  1
Zapfenband 8066
 41
6.6E-001
 72
1
 11
3.6585096E+001
 21
7.5003513E+001
 73
2
  0
LINE
  8
104
  6
CONTINUOUS
 62
40
 10
2.3900754E+001
 20
4.3285724E+001
 11
3.5900754E+001
 21
4.3285724E+001
  0
LINE
  8
104
  6
CONTINUOUS
 62
40
 10
3.5900754E+001
 20
4.3285724E+001
 11
3.5900754E+001
 21
3.965395E+001
  0
LINE
  8
104
  6
CONTINUOUS
 62
40
 10
3.5900754E+001
 20
3.965395E+001
 11
2.6900754E+001
 21
3.965395E+001
  0
LINE
  8
104
  6
CONTINUOUS
 62
40
 10
2.6900754E+001
 20
3.965395E+001
 11
2.3900754E+001
 21
3.965395E+001
  0
LINE
  8
104
  6
CONTINUOUS
 62
40
 10
2.3900754E+001
 20
3.965395E+001
 11
2.3900754E+001
 21
4.3285724E+001
  0
LINE
  8
104
  6
CONTINUOUS
 62
40
 10
2.6900754E+001
 20
3.965395E+001
 11
3.2900754E+001
 21
3.965395E+001
  0
ARC
  8
104
  6
CONTINUOUS
 62
40
 10
2.9900783E+001
 20
2.8183515E+001
 40
1.6250449E+001
 50
9.0000102E+001
 51
1.1166767E+002
  0
ARC
  8
104
  6
CONTINUOUS
 62
40
 10
2.9900696E+001
 20
2.8183362E+001
 40
1.6250601E+001
 50
6.8332437E+001
 51
8.9999795E+001
  0
LINE
  8
104
  6
CONTINUOUS
 62
40
 10
3.7900754E+001
 20
4.7557903E+001
 11
3.7900754E+001
 21
3.965395E+001
  0
LINE
  8
104
  6
CONTINUOUS
 62
40
 10
3.7900754E+001
 20
3.965395E+001
 11
2.1900754E+001
 21
3.965395E+001
  0
LINE
  8
104
  6
CONTINUOUS
 62
40
 10
2.1900754E+001
 20
3.965395E+001
 11
2.1900754E+001
 21
4.7557903E+001
  0
LINE
  8
104
  6
CONTINUOUS
 62
40
 10
2.1900754E+001
 20
4.7557903E+001
 11
3.7900754E+001
 21
4.7557903E+001
  0
LINE
  8
104
  6
CONTINUOUS
 62
40
 10
1.8675754E+001
 20
4.7557903E+001
 11
1.7675754E+001
 21
4.6557899E+001
  0
LINE
  8
104
  6
CONTINUOUS
 62
40
 10
1.7675754E+001
 20
4.6557899E+001
 11
1.7675752E+001
 21
3.5557895E+001
  0
LINE
  8
104
  6
CONTINUOUS
 62
40
 10
1.7675752E+001
 20
3.5557895E+001
 11
1.8675752E+001
 21
3.4557895E+001
  0
LINE
  8
104
  6
CONTINUOUS
 62
40
 10
1.8675752E+001
 20
3.4557895E+001
 11
2.0400748E+001
 21
3.4557895E+001
  0
LINE
  8
104
  6
CONTINUOUS
 62
40
 10
2.0400748E+001
 20
3.4557895E+001
 11
2.1400752E+001
 21
3.5557895E+001
  0
LINE
  8
104
  6
CONTINUOUS
 62
40
 10
2.1400752E+001
 20
3.5557895E+001
 11
3.840075E+001
 21
3.5557899E+001
  0
LINE
  8
104
  6
CONTINUOUS
 62
40
 10
3.840075E+001
 20
3.5557899E+001
 11
3.940075E+001
 21
3.4557899E+001
  0
LINE
  8
104
  6
CONTINUOUS
 62
40
 10
3.940075E+001
 20
3.4557899E+001
 11
4.1125745E+001
 21
3.4557895E+001
  0
LINE
  8
104
  6
CONTINUOUS
 62
40
 10
4.1125745E+001
 20
3.4557895E+001
 11
4.2125749E+001
 21
3.5557895E+001
  0
LINE
  8
104
  6
CONTINUOUS
 62
40
 10
4.2125749E+001
 20
3.5557895E+001
 11
4.2125753E+001
 21
4.6557899E+001
  0
LINE
  8
104
  6
CONTINUOUS
 62
40
 10
4.2125753E+001
 20
4.6557899E+001
 11
4.1125753E+001
 21
4.7557903E+001
  0
LINE
  8
104
  6
CONTINUOUS
 62
40
 10
4.1125753E+001
 20
4.7557903E+001
 11
1.8675754E+001
 21
4.7557903E+001
  0
LINE
  8
104
  6
CONTINUOUS
 62
40
 10
1.5100751E+001
 20
4.0557911E+001
 11
1.5100751E+001
 21
3.5057911E+001
  0
ARC
  8
104
  6
CONTINUOUS
 62
40
 10
1.8100751E+001
 20
3.5057911E+001
 40
3.0000002
 50
1.8E+002
 51
2.7E+002
  0
LINE
  8
104
  6
CONTINUOUS
 62
40
 10
1.8100751E+001
 20
3.2057911E+001
 11
4.1700757E+001
 21
3.2057911E+001
  0
ARC
  8
104
  6
CONTINUOUS
 62
40
 10
4.1700744E+001
 20
3.5057924E+001
 40
3.0000132
 50
2.7000025E+002
 51
3.5999975E+002
  0
LINE
  8
104
  6
CONTINUOUS
 62
40
 10
4.4700757E+001
 20
3.5057911E+001
 11
4.4700757E+001
 21
4.3057911E+001
  0
LINE
  8
104
  6
CONTINUOUS
 62
40
 10
4.4700757E+001
 20
4.3057911E+001
 11
4.2200757E+001
 21
4.3057911E+001
  0
LINE
  8
104
  6
CONTINUOUS
 62
40
 10
4.2200757E+001
 20
4.3057911E+001
 11
4.2200757E+001
 21
3.5057911E+001
  0
ARC
  8
104
  6
CONTINUOUS
 62
40
 10
4.1700741E+001
 20
3.5057911E+001
 40
5.0001585E-001
 50
2.7000182E+002
 51
3.5999993E+002
  0
LINE
  8
104
  6
CONTINUOUS
 62
40
 10
4.1700757E+001
 20
3.4557895E+001
 11
1.8100751E+001
 21
3.4557895E+001
  0
ARC
  8
104
  6
CONTINUOUS
 62
40
 10
1.8100754E+001
 20
3.5057898E+001
 40
5.0000292E-001
 50
1.7999859E+002
 51
2.6999967E+002
  0
LINE
  8
104
  6
CONTINUOUS
 62
40
 10
1.7600751E+001
 20
3.5057911E+001
 11
1.7600751E+001
 21
4.3057911E+001
  0
LINE
  8
104
  6
CONTINUOUS
 62
40
 10
1.7600751E+001
 20
4.3057911E+001
 11
1.5100751E+001
 21
4.3057911E+001
  0
LINE
  8
104
  6
CONTINUOUS
 62
40
 10
1.5100751E+001
 20
4.3057911E+001
 11
1.5100751E+001
 21
4.0557911E+001
  0
LINE
  8
MED-0
  6
CENTERLINE
 62
150
 10
2.7400754E+001
 20
3.2053943E+001
 11
2.7400754E+001
 21
9.5539739
  0
LINE
  8
MED-0
  6
CENTERLINE
 62
150
 10
2.7400754E+001
 20
9.5539739
 11
3.2400754E+001
 21
9.5539739
  0
LINE
  8
MED-0
  6
CENTERLINE
 62
150
 10
3.2400754E+001
 20
9.5539739
 11
3.2400754E+001
 21
3.2053943E+001
  0
LINE
  8
MED-0
  6
CENTERLINE
 62
150
 10
3.2400754E+001
 20
3.2053943E+001
 11
2.7400754E+001
 21
3.2053943E+001
  0
LINE
  8
104
  6
CONTINUOUS
 62
40
 10
2.7400754E+001
 20
3.2053943E+001
 11
2.7400754E+001
 21
9.5539739
  0
LINE
  8
104
  6
CONTINUOUS
 62
40
 10
2.7400754E+001
 20
9.5539739
 11
3.2400754E+001
 21
9.5539739
  0
LINE
  8
104
  6
CONTINUOUS
 62
40
 10
3.2400754E+001
 20
9.5539739
 11
3.2400754E+001
 21
3.2053943E+001
  0
LINE
  8
99
  6
CONTINUOUS
 62
1
 10
3.1700742E+001
 20
3.2053943E+001
 11
3.1700742E+001
 21
9.5539739
  0
LINE
  8
99
  6
CONTINUOUS
 62
1
 10
2.8100766E+001
 20
9.5539739
 11
2.8100766E+001
 21
3.2053943E+001
  0
LINE
  8
104
  6
CONTINUOUS
 62
40
 10
3.4900754E+001
 20
3.4553943E+001
 11
3.4900754E+001
 21
3.5553943E+001
  0
LINE
  8
104
  6
CONTINUOUS
 62
40
 10
3.4900754E+001
 20
3.5553943E+001
 11
2.4900754E+001
 21
3.5553943E+001
  0
LINE
  8
104
  6
CONTINUOUS
 62
40
 10
2.4900754E+001
 20
3.5553943E+001
 11
2.4900754E+001
 21
3.4553943E+001
  0
LINE
  8
106
  6
CENTERLINE
 62
1
 10
2.9900754E+001
 20
4.450069E+001
 11
2.9900754E+001
 21
7.3421514
  0
LINE
  8
106
  6
CENTERLINE
 62
1
 10
2.9900754E+001
 20
4.9327495E+001
 11
2.9900754E+001
 21
3.8147754E+001
  0
LINE
  8
MED-1
  6
CONTINUOUS
 62
40
 10
1.327646E+002
 20
8.9369625E+001
 11
1.2313425E+002
 21
9.2451337E+001
  0
LINE
  8
MED-1
  6
CONTINUOUS
 62
40
 10
1.3122374E+002
 20
2.3613615E+002
 11
1.2313425E+002
 21
2.3806222E+002
  0
LINE
  8
104
  6
CONTINUOUS
 62
40
 10
1.7400754E+001
 20
1.0733417E+002
 11
1.7400754E+001
 21
1.0233417E+002
  0
LINE
  8
104
  6
CONTINUOUS
 62
40
 10
1.7400754E+001
 20
1.0233417E+002
 11
1.8900754E+001
 21
1.0233417E+002
  0
LINE
  8
104
  6
CONTINUOUS
 62
40
 10
1.8900754E+001
 20
1.0233417E+002
 11
2.1400754E+001
 21
1.0483417E+002
  0
LINE
  8
104
  6
CONTINUOUS
 62
40
 10
2.1400754E+001
 20
1.0483417E+002
 11
2.1400754E+001
 21
1.0733417E+002
  0
LINE
  8
104
  6
CONTINUOUS
 62
40
 10
2.1400754E+001
 20
1.0733417E+002
 11
1.7400754E+001
 21
1.0733417E+002
  0
LINE
  8
104
  6
CONTINUOUS
 62
40
 10
4.0900754E+001
 20
1.0233417E+002
 11
4.2400754E+001
 21
1.0233417E+002
  0
LINE
  8
104
  6
CONTINUOUS
 62
40
 10
4.2400754E+001
 20
1.0233417E+002
 11
4.2400754E+001
 21
1.0733417E+002
  0
LINE
  8
104
  6
CONTINUOUS
 62
40
 10
4.2400754E+001
 20
1.0733417E+002
 11
3.8400754E+001
 21
1.0733417E+002
  0
LINE
  8
104
  6
CONTINUOUS
 62
40
 10
3.8400754E+001
 20
1.0733417E+002
 11
3.8400754E+001
 21
1.0483417E+002
  0
LINE
  8
104
  6
CONTINUOUS
 62
40
 10
3.8400754E+001
 20
1.0483417E+002
 11
4.0900754E+001
 21
1.0233417E+002
  0
LINE
  8
104
  6
CONTINUOUS
 62
40
 10
2.6400754E+001
 20
1.0733417E+002
 11
3.3400754E+001
 21
1.0733417E+002
  0
LINE
  8
104
  6
CONTINUOUS
 62
40
 10
3.3400754E+001
 20
1.0733417E+002
 11
3.3400754E+001
 21
1.0483417E+002
  0
LINE
  8
104
  6
CONTINUOUS
 62
40
 10
3.3400754E+001
 20
1.0483417E+002
 11
3.0900754E+001
 21
1.0233417E+002
  0
LINE
  8
104
  6
CONTINUOUS
 62
40
 10
3.0900754E+001
 20
1.0233417E+002
 11
2.8900754E+001
 21
1.0233417E+002
  0
LINE
  8
104
  6
CONTINUOUS
 62
40
 10
2.8900754E+001
 20
1.0233417E+002
 11
2.6400754E+001
 21
1.0483417E+002
  0
LINE
  8
104
  6
CONTINUOUS
 62
40
 10
2.6400754E+001
 20
1.0483417E+002
 11
2.6400754E+001
 21
1.0733417E+002
  0
LINE
  8
104
  6
CONTINUOUS
 62
40
 10
1.7400754E+001
 20
1.0733417E+002
 11
1.7400754E+001
 21
1.3033417E+002
  0
LINE
  8
104
  6
CONTINUOUS
 62
40
 10
1.7400754E+001
 20
1.3033417E+002
 11
4.2400769E+001
 21
1.3033417E+002
  0
LINE
  8
104
  6
CONTINUOUS
 62
40
 10
4.2400769E+001
 20
1.3033417E+002
 11
4.2400769E+001
 21
1.0733417E+002
  0
LINE
  8
106
  6
CENTERLINE
 62
1
 10
2.9900754E+001
 20
1.3961991E+002
 11
2.9900754E+001
 21
9.3970798E+001
  0
INSERT
  2
*XH53
  8
108
 10
2.9001577E+001
 20
1.0567368E+002
  0
INSERT
  2
*XH54
  8
108
 10
4.0771258E+001
 20
1.0471546E+002
  0
INSERT
  2
*XH55
  8
108
 10
1.8914996E+001
 20
1.054866E+002
  0
LINE
  8
MED-0
  6
CENTERLINE
 62
150
 10
3.8400754E+001
 20
1.2733417E+002
 11
3.3400754E+001
 21
1.2733417E+002
  0
LINE
  8
MED-0
  6
CENTERLINE
 62
150
 10
3.3400754E+001
 20
1.2733417E+002
 11
3.3400754E+001
 21
1.0483417E+002
  0
LINE
  8
MED-0
  6
CENTERLINE
 62
150
 10
3.3400754E+001
 20
1.0483417E+002
 11
3.8400754E+001
 21
1.0483417E+002
  0
LINE
  8
MED-0
  6
CENTERLINE
 62
150
 10
3.8400754E+001
 20
1.0483417E+002
 11
3.8400754E+001
 21
1.2733417E+002
  0
LINE
  8
99
  6
CONTINUOUS
 62
1
 10
3.4100766E+001
 20
1.2733417E+002
 11
3.4100766E+001
 21
1.0483417E+002
  0
LINE
  8
99
  6
CONTINUOUS
 62
1
 10
3.7700742E+001
 20
1.0483417E+002
 11
3.7700742E+001
 21
1.2733417E+002
  0
LINE
  8
104
  6
CONTINUOUS
 62
40
 10
3.0900754E+001
 20
1.0233417E+002
 11
3.3400754E+001
 21
1.0483417E+002
  0
LINE
  8
104
  6
CONTINUOUS
 62
40
 10
3.3400754E+001
 20
1.0483417E+002
 11
3.3400754E+001
 21
1.2733417E+002
  0
LINE
  8
104
  6
CONTINUOUS
 62
40
 10
3.3400754E+001
 20
1.2733417E+002
 11
3.8400754E+001
 21
1.2733417E+002
  0
LINE
  8
104
  6
CONTINUOUS
 62
40
 10
3.8400754E+001
 20
1.2733417E+002
 11
3.8400754E+001
 21
1.0483417E+002
  0
LINE
  8
104
  6
CONTINUOUS
 62
40
 10
3.8400754E+001
 20
1.0483417E+002
 11
4.0900754E+001
 21
1.0233417E+002
  0
LINE
  8
104
  6
CONTINUOUS
 62
40
 10
4.0900754E+001
 20
1.0233417E+002
 11
3.0900754E+001
 21
1.0233417E+002
  0
LINE
  8
104
  6
CONTINUOUS
 62
40
 10
3.3400754E+001
 20
1.0483417E+002
 11
3.8400754E+001
 21
1.0483417E+002
  0
LINE
  8
106
  6
CENTERLINE
 62
1
 10
3.5900754E+001
 20
1.2949735E+002
 11
3.5900754E+001
 21
1.0233417E+002
  0
LINE
  8
MED-0
  6
CENTERLINE
 62
150
 10
2.6400754E+001
 20
1.2733417E+002
 11
2.1400754E+001
 21
1.2733417E+002
  0
LINE
  8
MED-0
  6
CENTERLINE
 62
150
 10
2.1400754E+001
 20
1.2733417E+002
 11
2.1400754E+001
 21
1.0483417E+002
  0
LINE
  8
MED-0
  6
CENTERLINE
 62
150
 10
2.1400754E+001
 20
1.0483417E+002
 11
2.6400754E+001
 21
1.0483417E+002
  0
LINE
  8
MED-0
  6
CENTERLINE
 62
150
 10
2.6400754E+001
 20
1.0483417E+002
 11
2.6400754E+001
 21
1.2733417E+002
  0
LINE
  8
99
  6
CONTINUOUS
 62
1
 10
2.2100766E+001
 20
1.2733417E+002
 11
2.2100766E+001
 21
1.0483417E+002
  0
LINE
  8
99
  6
CONTINUOUS
 62
1
 10
2.5700742E+001
 20
1.0483417E+002
 11
2.5700742E+001
 21
1.2733417E+002
  0
LINE
  8
104
  6
CONTINUOUS
 62
40
 10
1.8900754E+001
 20
1.0233417E+002
 11
2.1400754E+001
 21
1.0483417E+002
  0
LINE
  8
104
  6
CONTINUOUS
 62
40
 10
2.1400754E+001
 20
1.0483417E+002
 11
2.1400754E+001
 21
1.2733417E+002
  0
LINE
  8
104
  6
CONTINUOUS
 62
40
 10
2.1400754E+001
 20
1.2733417E+002
 11
2.6400754E+001
 21
1.2733417E+002
  0
LINE
  8
104
  6
CONTINUOUS
 62
40
 10
2.6400754E+001
 20
1.2733417E+002
 11
2.6400754E+001
 21
1.0483417E+002
  0
LINE
  8
104
  6
CONTINUOUS
 62
40
 10
2.6400754E+001
 20
1.0483417E+002
 11
2.8900754E+001
 21
1.0233417E+002
  0
LINE
  8
104
  6
CONTINUOUS
 62
40
 10
2.8900754E+001
 20
1.0233417E+002
 11
1.8900754E+001
 21
1.0233417E+002
  0
LINE
  8
104
  6
CONTINUOUS
 62
40
 10
2.1400754E+001
 20
1.0483417E+002
 11
2.6400754E+001
 21
1.0483417E+002
  0
LINE
  8
106
  6
CENTERLINE
 62
1
 10
2.3900754E+001
 20
1.2949735E+002
 11
2.3900754E+001
 21
1.0233417E+002
  0
LINE
  8
104
  6
CONTINUOUS
 62
40
 10
2.2400754E+001
 20
1.277746E+002
 11
3.7400754E+001
 21
1.277746E+002
  0
LINE
  8
104
  6
CONTINUOUS
 62
40
 10
3.3400754E+001
 20
1.2232462E+002
 11
2.6400754E+001
 21
1.2232462E+002
  0
LINE
  8
104
  6
CONTINUOUS
 62
40
 10
3.3400754E+001
 20
1.1982462E+002
 11
2.6400754E+001
 21
1.1982462E+002
  0
ARC
  8
104
  6
CONTINUOUS
 62
40
 10
2.5150714E+001
 20
1.2432461E+002
 40
1.9999943
 50
2.7000115E+002
 51
3.6000016E+002
  0
LINE
  8
104
  6
CONTINUOUS
 62
40
 10
2.7150708E+001
 20
1.2432462E+002
 11
2.7150708E+001
 21
1.2577463E+002
  0
ARC
  8
104
  6
CONTINUOUS
 62
40
 10
2.5150733E+001
 20
1.2577463E+002
 40
1.9999753
 50
1.509482E-004
 51
8.9999396E+001
  0
LINE
  8
104
  6
CONTINUOUS
 62
40
 10
2.5150754E+001
 20
1.277746E+002
 11
2.2400754E+001
 21
1.277746E+002
  0
LINE
  8
104
  6
CONTINUOUS
 62
40
 10
2.2400754E+001
 20
1.277746E+002
 11
2.2400754E+001
 21
1.3032462E+002
  0
LINE
  8
104
  6
CONTINUOUS
 62
40
 10
2.2400754E+001
 20
1.3032462E+002
 11
3.7400754E+001
 21
1.3032462E+002
  0
LINE
  8
104
  6
CONTINUOUS
 62
40
 10
3.7400754E+001
 20
1.3032462E+002
 11
3.7400754E+001
 21
1.277746E+002
  0
LINE
  8
104
  6
CONTINUOUS
 62
40
 10
3.7400754E+001
 20
1.277746E+002
 11
3.4650754E+001
 21
1.277746E+002
  0
ARC
  8
104
  6
CONTINUOUS
 62
40
 10
3.4650713E+001
 20
1.2577461E+002
 40
1.9999893
 50
8.9998821E+001
 51
1.7999945E+002
  0
LINE
  8
104
  6
CONTINUOUS
 62
40
 10
3.2650724E+001
 20
1.2577463E+002
 11
3.2650724E+001
 21
1.2432462E+002
  0
ARC
  8
104
  6
CONTINUOUS
 62
40
 10
3.4650732E+001
 20
1.2432463E+002
 40
2.0000084
 50
1.8000024E+002
 51
2.7000063E+002
  0
LINE
  8
105
  6
HIDDEN
 62
1
 10
2.2400754E+001
 20
1.2232462E+002
 11
2.2400754E+001
 21
1.1982462E+002
  0
LINE
  8
105
  6
HIDDEN
 62
1
 10
2.2400754E+001
 20
1.1982462E+002
 11
2.6400754E+001
 21
1.1982462E+002
  0
LINE
  8
105
  6
HIDDEN
 62
1
 10
3.3400754E+001
 20
1.1982462E+002
 11
3.7400754E+001
 21
1.1982462E+002
  0
LINE
  8
105
  6
HIDDEN
 62
1
 10
3.7400754E+001
 20
1.1982462E+002
 11
3.7400754E+001
 21
1.2232462E+002
  0
LINE
  8
105
  6
HIDDEN
 62
1
 10
3.7400754E+001
 20
1.2232462E+002
 11
3.3400754E+001
 21
1.2232462E+002
  0
LINE
  8
105
  6
HIDDEN
 62
1
 10
2.2400754E+001
 20
1.2232462E+002
 11
2.6400754E+001
 21
1.2232462E+002
  0
TEXT
  8
103
  6
CONTINUOUS
 62
40
 10
1.4559676E+002
 20
2.3867619E+002
 40
5.0
  1
%%c15
 41
6.0E-001
 72
1
 11
1.4109676E+002
 21
2.3617619E+002
 73
2
  0
LINE
  8
MED-0
  6
CENTERLINE
 62
150
 10
3.2400756E+001
 20
2.7083287E+002
 11
2.7400756E+001
 21
2.7083287E+002
  0
LINE
  8
MED-0
  6
CENTERLINE
 62
150
 10
2.7400756E+001
 20
2.7083287E+002
 11
2.7400756E+001
 21
2.4833287E+002
  0
LINE
  8
MED-0
  6
CENTERLINE
 62
150
 10
2.7400756E+001
 20
2.4833287E+002
 11
3.2400756E+001
 21
2.4833287E+002
  0
LINE
  8
MED-0
  6
CENTERLINE
 62
150
 10
3.2400756E+001
 20
2.4833287E+002
 11
3.2400756E+001
 21
2.7083287E+002
  0
LINE
  8
99
  6
CONTINUOUS
 62
1
 10
2.8100768E+001
 20
2.7083287E+002
 11
2.8100768E+001
 21
2.4833287E+002
  0
LINE
  8
99
  6
CONTINUOUS
 62
1
 10
3.1700744E+001
 20
2.4833287E+002
 11
3.1700744E+001
 21
2.7083287E+002
  0
LINE
  8
104
  6
CONTINUOUS
 62
40
 10
2.4900756E+001
 20
2.4583287E+002
 11
2.7400756E+001
 21
2.4833287E+002
  0
LINE
  8
104
  6
CONTINUOUS
 62
40
 10
2.7400756E+001
 20
2.4833287E+002
 11
2.7400756E+001
 21
2.7083287E+002
  0
LINE
  8
104
  6
CONTINUOUS
 62
40
 10
2.7400756E+001
 20
2.7083287E+002
 11
3.2400756E+001
 21
2.7083287E+002
  0
LINE
  8
104
  6
CONTINUOUS
 62
40
 10
3.2400756E+001
 20
2.7083287E+002
 11
3.2400756E+001
 21
2.4833287E+002
  0
LINE
  8
104
  6
CONTINUOUS
 62
40
 10
3.2400756E+001
 20
2.4833287E+002
 11
3.4900755E+001
 21
2.4583287E+002
  0
LINE
  8
104
  6
CONTINUOUS
 62
40
 10
3.4900755E+001
 20
2.4583287E+002
 11
2.4900756E+001
 21
2.4583287E+002
  0
LINE
  8
104
  6
CONTINUOUS
 62
40
 10
2.7400756E+001
 20
2.4833287E+002
 11
3.2400756E+001
 21
2.4833287E+002
  0
LINE
  8
106
  6
CENTERLINE
 62
1
 10
2.9900756E+001
 20
2.7299604E+002
 11
2.9900756E+001
 21
2.4583287E+002
  0
LINE
  8
106
  6
CENTERLINE
 62
1
 10
2.3900754E+001
 20
2.5382948E+002
 11
2.3900754E+001
 21
2.4175679E+002
  0
LINE
  8
106
  6
CENTERLINE
 62
1
 10
3.5900753E+001
 20
2.5358311E+002
 11
3.5900753E+001
 21
2.4192103E+002
  0
LINE
  8
104
  6
CONTINUOUS
 62
40
 10
4.2400753E+001
 20
2.5083287E+002
 11
4.2400753E+001
 21
2.4583287E+002
  0
LINE
  8
104
  6
CONTINUOUS
 62
40
 10
4.2400753E+001
 20
2.4583287E+002
 11
3.4900755E+001
 21
2.4583287E+002
  0
LINE
  8
104
  6
CONTINUOUS
 62
40
 10
3.4900755E+001
 20
2.4583287E+002
 11
3.2400756E+001
 21
2.4833287E+002
  0
LINE
  8
104
  6
CONTINUOUS
 62
40
 10
3.2400756E+001
 20
2.4833287E+002
 11
3.2400756E+001
 21
2.5083287E+002
  0
LINE
  8
104
  6
CONTINUOUS
 62
40
 10
3.2400756E+001
 20
2.5083287E+002
 11
4.2400753E+001
 21
2.5083287E+002
  0
INSERT
  2
*XH56
  8
108
 10
3.7580826E+001
 20
2.4840294E+002
  0
LINE
  8
104
  6
CONTINUOUS
 62
40
 10
1.7400756E+001
 20
2.5083287E+002
 11
1.7400756E+001
 21
2.4583287E+002
  0
LINE
  8
104
  6
CONTINUOUS
 62
40
 10
1.7400756E+001
 20
2.4583287E+002
 11
2.4900756E+001
 21
2.4583287E+002
  0
LINE
  8
104
  6
CONTINUOUS
 62
40
 10
2.4900756E+001
 20
2.4583287E+002
 11
2.7400756E+001
 21
2.4833287E+002
  0
LINE
  8
104
  6
CONTINUOUS
 62
40
 10
2.7400756E+001
 20
2.4833287E+002
 11
2.7400756E+001
 21
2.5083287E+002
  0
LINE
  8
104
  6
CONTINUOUS
 62
40
 10
2.7400756E+001
 20
2.5083287E+002
 11
1.7400756E+001
 21
2.5083287E+002
  0
INSERT
  2
*XH57
  8
108
 10
2.2066016E+001
 20
2.4844445E+002
  0
LINE
  8
104
  6
CONTINUOUS
 62
40
 10
1.7400756E+001
 20
2.5083287E+002
 11
1.7400756E+001
 21
2.7783287E+002
  0
ARC
  8
104
  6
CONTINUOUS
 62
40
 10
1.9400757E+001
 20
2.7783286E+002
 40
2.0000012
 50
9.0000034E+001
 51
1.7999997E+002
  0
LINE
  8
104
  6
CONTINUOUS
 62
40
 10
1.9400756E+001
 20
2.7983287E+002
 11
4.0400753E+001
 21
2.7983287E+002
  0
ARC
  8
104
  6
CONTINUOUS
 62
40
 10
4.0400738E+001
 20
2.7783285E+002
 40
2.000015
 50
4.304046E-004
 51
8.999957E+001
  0
LINE
  8
104
  6
CONTINUOUS
 62
40
 10
4.2400753E+001
 20
2.7783287E+002
 11
4.2400753E+001
 21
2.5083287E+002
  0
LINE
  8
106
  6
CENTERLINE
 62
1
 10
2.9900756E+001
 20
2.831186E+002
 11
2.9900756E+001
 21
2.3746949E+002
  0
LINE
  8
104
  6
CONTINUOUS
 62
40
 10
2.2400756E+001
 20
2.712733E+002
 11
3.7400755E+001
 21
2.712733E+002
  0
LINE
  8
105
  6
HIDDEN
 62
1
 10
3.2400756E+001
 20
2.6582331E+002
 11
2.7400756E+001
 21
2.6582331E+002
  0
LINE
  8
105
  6
HIDDEN
 62
1
 10
3.2400756E+001
 20
2.6332331E+002
 11
2.7400756E+001
 21
2.6332331E+002
  0
ARC
  8
104
  6
CONTINUOUS
 62
40
 10
2.5150721E+001
 20
2.6782329E+002
 40
1.9999743
 50
2.7000101E+002
 51
3.6000074E+002
  0
LINE
  8
104
  6
CONTINUOUS
 62
40
 10
2.7150695E+001
 20
2.6782331E+002
 11
2.7150695E+001
 21
2.6927333E+002
  0
ARC
  8
104
  6
CONTINUOUS
 62
40
 10
2.5150717E+001
 20
2.6927332E+002
 40
1.9999776
 50
2.1727E-004
 51
8.9998892E+001
  0
LINE
  8
104
  6
CONTINUOUS
 62
40
 10
2.5150756E+001
 20
2.712733E+002
 11
2.2400756E+001
 21
2.712733E+002
  0
LINE
  8
104
  6
CONTINUOUS
 62
40
 10
2.2400756E+001
 20
2.712733E+002
 11
2.2400756E+001
 21
2.7382331E+002
  0
LINE
  8
104
  6
CONTINUOUS
 62
40
 10
2.2400756E+001
 20
2.7382331E+002
 11
3.7400755E+001
 21
2.7382331E+002
  0
LINE
  8
104
  6
CONTINUOUS
 62
40
 10
3.7400755E+001
 20
2.7382331E+002
 11
3.7400755E+001
 21
2.712733E+002
  0
LINE
  8
104
  6
CONTINUOUS
 62
40
 10
3.7400755E+001
 20
2.712733E+002
 11
3.4650755E+001
 21
2.712733E+002
  0
ARC
  8
104
  6
CONTINUOUS
 62
40
 10
3.4650734E+001
 20
2.6927329E+002
 40
2.0000086
 50
8.9999401E+001
 51
1.7999889E+002
  0
LINE
  8
104
  6
CONTINUOUS
 62
40
 10
3.2650726E+001
 20
2.6927333E+002
 11
3.2650726E+001
 21
2.6782331E+002
  0
ARC
  8
104
  6
CONTINUOUS
 62
40
 10
3.4650731E+001
 20
2.6782332E+002
 40
2.0000053
 50
1.8000015E+002
 51
2.7000069E+002
  0
LINE
  8
104
  6
CONTINUOUS
 62
40
 10
2.2400756E+001
 20
2.6582331E+002
 11
2.2400756E+001
 21
2.6332331E+002
  0
LINE
  8
104
  6
CONTINUOUS
 62
40
 10
2.2400756E+001
 20
2.6332331E+002
 11
2.7400756E+001
 21
2.6332331E+002
  0
LINE
  8
104
  6
CONTINUOUS
 62
40
 10
3.2400756E+001
 20
2.6332331E+002
 11
3.7400755E+001
 21
2.6332331E+002
  0
LINE
  8
104
  6
CONTINUOUS
 62
40
 10
3.7400755E+001
 20
2.6332331E+002
 11
3.7400755E+001
 21
2.6582331E+002
  0
LINE
  8
104
  6
CONTINUOUS
 62
40
 10
3.7400755E+001
 20
2.6582331E+002
 11
3.2400756E+001
 21
2.6582331E+002
  0
LINE
  8
104
  6
CONTINUOUS
 62
40
 10
2.2400756E+001
 20
2.6582331E+002
 11
2.7400756E+001
 21
2.6582331E+002
  0
LINE
  8
MED-0
  6
CENTERLINE
 62
150
 10
2.7400754E+001
 20
1.7555264E+002
 11
2.7400754E+001
 21
1.5305267E+002
  0
LINE
  8
MED-0
  6
CENTERLINE
 62
150
 10
2.7400754E+001
 20
1.5305267E+002
 11
3.2400754E+001
 21
1.5305267E+002
  0
LINE
  8
MED-0
  6
CENTERLINE
 62
150
 10
3.2400754E+001
 20
1.5305267E+002
 11
3.2400754E+001
 21
1.7555264E+002
  0
LINE
  8
MED-0
  6
CENTERLINE
 62
150
 10
3.2400754E+001
 20
1.7555264E+002
 11
2.7400754E+001
 21
1.7555264E+002
  0
LINE
  8
104
  6
CONTINUOUS
 62
40
 10
2.7400754E+001
 20
1.7555264E+002
 11
2.7400754E+001
 21
1.5305267E+002
  0
LINE
  8
104
  6
CONTINUOUS
 62
40
 10
2.7400754E+001
 20
1.5305267E+002
 11
3.2400754E+001
 21
1.5305267E+002
  0
LINE
  8
104
  6
CONTINUOUS
 62
40
 10
3.2400754E+001
 20
1.5305267E+002
 11
3.2400754E+001
 21
1.7555264E+002
  0
LINE
  8
99
  6
CONTINUOUS
 62
1
 10
3.1700742E+001
 20
1.7555264E+002
 11
3.1700742E+001
 21
1.5305267E+002
  0
LINE
  8
99
  6
CONTINUOUS
 62
1
 10
2.8100766E+001
 20
1.5305267E+002
 11
2.8100766E+001
 21
1.7555264E+002
  0
LINE
  8
104
  6
CONTINUOUS
 62
40
 10
4.4400753E+001
 20
1.8655264E+002
 11
4.4400753E+001
 21
1.7555264E+002
  0
LINE
  8
104
  6
CONTINUOUS
 62
40
 10
4.4400753E+001
 20
1.7555264E+002
 11
1.5400754E+001
 21
1.7555264E+002
  0
LINE
  8
104
  6
CONTINUOUS
 62
40
 10
1.5400754E+001
 20
1.7555264E+002
 11
1.5400754E+001
 21
1.8655264E+002
  0
LINE
  8
104
  6
CONTINUOUS
 62
40
 10
1.5400754E+001
 20
1.8655264E+002
 11
1.7800779E+001
 21
1.8655264E+002
  0
LINE
  8
104
  6
CONTINUOUS
 62
40
 10
1.7800779E+001
 20
1.8655264E+002
 11
1.7800779E+001
 21
1.7805264E+002
  0
LINE
  8
104
  6
CONTINUOUS
 62
40
 10
1.7800779E+001
 20
1.7805264E+002
 11
4.2000729E+001
 21
1.7805264E+002
  0
LINE
  8
104
  6
CONTINUOUS
 62
40
 10
4.2000729E+001
 20
1.7805264E+002
 11
4.2000729E+001
 21
1.8655264E+002
  0
LINE
  8
104
  6
CONTINUOUS
 62
40
 10
4.2000729E+001
 20
1.8655264E+002
 11
4.4400753E+001
 21
1.8655264E+002
  0
LINE
  8
104
  6
CONTINUOUS
 62
40
 10
3.4900753E+001
 20
1.7805264E+002
 11
3.4900753E+001
 21
1.7905264E+002
  0
LINE
  8
104
  6
CONTINUOUS
 62
40
 10
3.4900753E+001
 20
1.7905264E+002
 11
2.4900754E+001
 21
1.7905264E+002
  0
LINE
  8
104
  6
CONTINUOUS
 62
40
 10
2.4900754E+001
 20
1.7905264E+002
 11
2.4900754E+001
 21
1.7805264E+002
  0
LINE
  8
104
  6
CONTINUOUS
 62
40
 10
1.7800779E+001
 20
1.8655264E+002
 11
4.2000729E+001
 21
1.8655264E+002
  0
LINE
  8
106
  6
CENTERLINE
 62
1
 10
2.9900754E+001
 20
1.8799938E+002
 11
2.9900754E+001
 21
1.5084085E+002
  0
LINE
  8
MED-0
  6
CENTERLINE
 62
150
 10
1.9908096E+002
 20
1.5305264E+002
 11
1.9408096E+002
 21
1.5305264E+002
  0
LINE
  8
MED-0
  6
CENTERLINE
 62
150
 10
1.9408096E+002
 20
1.5305264E+002
 11
1.9408096E+002
 21
1.7555264E+002
  0
LINE
  8
MED-0
  6
CENTERLINE
 62
150
 10
1.9408096E+002
 20
1.7555264E+002
 11
1.9908096E+002
 21
1.7555264E+002
  0
LINE
  8
MED-0
  6
CENTERLINE
 62
150
 10
1.9908096E+002
 20
1.7555264E+002
 11
1.9908096E+002
 21
1.5305264E+002
  0
LINE
  8
99
  6
CONTINUOUS
 62
1
 10
1.9478098E+002
 20
1.5305264E+002
 11
1.9478098E+002
 21
1.7555264E+002
  0
LINE
  8
99
  6
CONTINUOUS
 62
1
 10
1.9838095E+002
 20
1.7555264E+002
 11
1.9838095E+002
 21
1.5305264E+002
  0
LINE
  8
104
  6
CONTINUOUS
 62
40
 10
1.9158096E+002
 20
1.7805264E+002
 11
1.9408096E+002
 21
1.7555264E+002
  0
LINE
  8
104
  6
CONTINUOUS
 62
40
 10
1.9408096E+002
 20
1.7555264E+002
 11
1.9408096E+002
 21
1.5305264E+002
  0
LINE
  8
104
  6
CONTINUOUS
 62
40
 10
1.9408096E+002
 20
1.5305264E+002
 11
1.9908096E+002
 21
1.5305264E+002
  0
LINE
  8
104
  6
CONTINUOUS
 62
40
 10
1.9908096E+002
 20
1.5305264E+002
 11
1.9908096E+002
 21
1.7555264E+002
  0
LINE
  8
104
  6
CONTINUOUS
 62
40
 10
1.9908096E+002
 20
1.7555264E+002
 11
2.0158096E+002
 21
1.7805264E+002
  0
LINE
  8
104
  6
CONTINUOUS
 62
40
 10
2.0158096E+002
 20
1.7805264E+002
 11
1.9158096E+002
 21
1.7805264E+002
  0
LINE
  8
104
  6
CONTINUOUS
 62
40
 10
1.9408096E+002
 20
1.7555264E+002
 11
1.9908096E+002
 21
1.7555264E+002
  0
LINE
  8
106
  6
CENTERLINE
 62
1
 10
1.9658096E+002
 20
1.5088946E+002
 11
1.9658096E+002
 21
1.7805264E+002
  0
LINE
  8
MED-0
  6
CENTERLINE
 62
150
 10
1.6408096E+002
 20
1.5305267E+002
 11
1.5908096E+002
 21
1.5305267E+002
  0
LINE
  8
MED-0
  6
CENTERLINE
 62
150
 10
1.5908096E+002
 20
1.5305267E+002
 11
1.5908096E+002
 21
1.7555264E+002
  0
LINE
  8
MED-0
  6
CENTERLINE
 62
150
 10
1.5908096E+002
 20
1.7555264E+002
 11
1.6408096E+002
 21
1.7555264E+002
  0
LINE
  8
MED-0
  6
CENTERLINE
 62
150
 10
1.6408096E+002
 20
1.7555264E+002
 11
1.6408096E+002
 21
1.5305267E+002
  0
LINE
  8
99
  6
CONTINUOUS
 62
1
 10
1.5978098E+002
 20
1.5305267E+002
 11
1.5978098E+002
 21
1.7555264E+002
  0
LINE
  8
99
  6
CONTINUOUS
 62
1
 10
1.6338095E+002
 20
1.7555264E+002
 11
1.6338095E+002
 21
1.5305267E+002
  0
LINE
  8
104
  6
CONTINUOUS
 62
40
 10
1.5658096E+002
 20
1.7805267E+002
 11
1.5908096E+002
 21
1.7555264E+002
  0
LINE
  8
104
  6
CONTINUOUS
 62
40
 10
1.5908096E+002
 20
1.7555264E+002
 11
1.5908096E+002
 21
1.5305267E+002
  0
LINE
  8
104
  6
CONTINUOUS
 62
40
 10
1.5908096E+002
 20
1.5305267E+002
 11
1.6408096E+002
 21
1.5305267E+002
  0
LINE
  8
104
  6
CONTINUOUS
 62
40
 10
1.6408096E+002
 20
1.5305267E+002
 11
1.6408096E+002
 21
1.7555264E+002
  0
LINE
  8
104
  6
CONTINUOUS
 62
40
 10
1.6408096E+002
 20
1.7555264E+002
 11
1.6658096E+002
 21
1.7805267E+002
  0
LINE
  8
104
  6
CONTINUOUS
 62
40
 10
1.6658096E+002
 20
1.7805267E+002
 11
1.5658096E+002
 21
1.7805267E+002
  0
LINE
  8
104
  6
CONTINUOUS
 62
40
 10
1.5908096E+002
 20
1.7555264E+002
 11
1.6408096E+002
 21
1.7555264E+002
  0
LINE
  8
106
  6
CENTERLINE
 62
1
 10
1.6158096E+002
 20
1.5088946E+002
 11
1.6158096E+002
 21
1.7805267E+002
  0
LINE
  8
MED-0
  6
CENTERLINE
 62
150
 10
1.2908096E+002
 20
1.5305264E+002
 11
1.2408097E+002
 21
1.5305264E+002
  0
LINE
  8
MED-0
  6
CENTERLINE
 62
150
 10
1.2408097E+002
 20
1.5305264E+002
 11
1.2408097E+002
 21
1.7555264E+002
  0
LINE
  8
MED-0
  6
CENTERLINE
 62
150
 10
1.2408097E+002
 20
1.7555264E+002
 11
1.2908096E+002
 21
1.7555264E+002
  0
LINE
  8
MED-0
  6
CENTERLINE
 62
150
 10
1.2908096E+002
 20
1.7555264E+002
 11
1.2908096E+002
 21
1.5305264E+002
  0
LINE
  8
99
  6
CONTINUOUS
 62
1
 10
1.2478098E+002
 20
1.5305264E+002
 11
1.2478098E+002
 21
1.7555264E+002
  0
LINE
  8
99
  6
CONTINUOUS
 62
1
 10
1.2838095E+002
 20
1.7555264E+002
 11
1.2838095E+002
 21
1.5305264E+002
  0
LINE
  8
104
  6
CONTINUOUS
 62
40
 10
1.2158097E+002
 20
1.7805264E+002
 11
1.2408097E+002
 21
1.7555264E+002
  0
LINE
  8
104
  6
CONTINUOUS
 62
40
 10
1.2408097E+002
 20
1.7555264E+002
 11
1.2408097E+002
 21
1.5305264E+002
  0
LINE
  8
104
  6
CONTINUOUS
 62
40
 10
1.2408097E+002
 20
1.5305264E+002
 11
1.2908096E+002
 21
1.5305264E+002
  0
LINE
  8
104
  6
CONTINUOUS
 62
40
 10
1.2908096E+002
 20
1.5305264E+002
 11
1.2908096E+002
 21
1.7555264E+002
  0
LINE
  8
104
  6
CONTINUOUS
 62
40
 10
1.2908096E+002
 20
1.7555264E+002
 11
1.3158096E+002
 21
1.7805264E+002
  0
LINE
  8
104
  6
CONTINUOUS
 62
40
 10
1.3158096E+002
 20
1.7805264E+002
 11
1.2158097E+002
 21
1.7805264E+002
  0
LINE
  8
104
  6
CONTINUOUS
 62
40
 10
1.2408097E+002
 20
1.7555264E+002
 11
1.2908096E+002
 21
1.7555264E+002
  0
LINE
  8
106
  6
CENTERLINE
 62
1
 10
1.2658097E+002
 20
1.5088946E+002
 11
1.2658097E+002
 21
1.7805264E+002
  0
LINE
  8
MED-0
  6
CENTERLINE
 62
150
 10
1.0508097E+002
 20
1.5305267E+002
 11
1.0008097E+002
 21
1.5305267E+002
  0
LINE
  8
MED-0
  6
CENTERLINE
 62
150
 10
1.0008097E+002
 20
1.5305267E+002
 11
1.0008097E+002
 21
1.7555264E+002
  0
LINE
  8
MED-0
  6
CENTERLINE
 62
150
 10
1.0008097E+002
 20
1.7555264E+002
 11
1.0508097E+002
 21
1.7555264E+002
  0
LINE
  8
MED-0
  6
CENTERLINE
 62
150
 10
1.0508097E+002
 20
1.7555264E+002
 11
1.0508097E+002
 21
1.5305267E+002
  0
LINE
  8
99
  6
CONTINUOUS
 62
1
 10
1.0078098E+002
 20
1.5305267E+002
 11
1.0078098E+002
 21
1.7555264E+002
  0
LINE
  8
99
  6
CONTINUOUS
 62
1
 10
1.0438096E+002
 20
1.7555264E+002
 11
1.0438096E+002
 21
1.5305267E+002
  0
LINE
  8
104
  6
CONTINUOUS
 62
40
 10
9.7580969E+001
 20
1.7805267E+002
 11
1.0008097E+002
 21
1.7555264E+002
  0
LINE
  8
104
  6
CONTINUOUS
 62
40
 10
1.0008097E+002
 20
1.7555264E+002
 11
1.0008097E+002
 21
1.5305267E+002
  0
LINE
  8
104
  6
CONTINUOUS
 62
40
 10
1.0008097E+002
 20
1.5305267E+002
 11
1.0508097E+002
 21
1.5305267E+002
  0
LINE
  8
104
  6
CONTINUOUS
 62
40
 10
1.0508097E+002
 20
1.5305267E+002
 11
1.0508097E+002
 21
1.7555264E+002
  0
LINE
  8
104
  6
CONTINUOUS
 62
40
 10
1.0508097E+002
 20
1.7555264E+002
 11
1.0758097E+002
 21
1.7805267E+002
  0
LINE
  8
104
  6
CONTINUOUS
 62
40
 10
1.0758097E+002
 20
1.7805267E+002
 11
9.7580969E+001
 21
1.7805267E+002
  0
LINE
  8
104
  6
CONTINUOUS
 62
40
 10
1.0008097E+002
 20
1.7555264E+002
 11
1.0508097E+002
 21
1.7555264E+002
  0
LINE
  8
106
  6
CENTERLINE
 62
1
 10
1.0258097E+002
 20
1.5088946E+002
 11
1.0258097E+002
 21
1.7805267E+002
  0
LINE
  8
104
  6
CONTINUOUS
 62
40
 10
1.5858096E+002
 20
1.8655264E+002
 11
1.5858096E+002
 21
1.7905264E+002
  0
LINE
  8
104
  6
CONTINUOUS
 62
40
 10
1.5858096E+002
 20
1.7905264E+002
 11
1.6633096E+002
 21
1.7905264E+002
  0
LINE
  8
104
  6
CONTINUOUS
 62
40
 10
1.6633096E+002
 20
1.7905264E+002
 11
1.6633096E+002
 21
1.8255264E+002
  0
LINE
  8
104
  6
CONTINUOUS
 62
40
 10
1.6633096E+002
 20
1.8255264E+002
 11
1.6308096E+002
 21
1.8255264E+002
  0
LINE
  8
104
  6
CONTINUOUS
 62
40
 10
1.6308096E+002
 20
1.8255264E+002
 11
1.6308096E+002
 21
1.8655264E+002
  0
LINE
  8
104
  6
CONTINUOUS
 62
40
 10
1.6308096E+002
 20
1.8655264E+002
 11
1.5858096E+002
 21
1.8655264E+002
  0
LINE
  8
104
  6
CONTINUOUS
 62
40
 10
1.9283096E+002
 20
1.7905264E+002
 11
1.9283096E+002
 21
1.8255264E+002
  0
LINE
  8
104
  6
CONTINUOUS
 62
40
 10
1.9283096E+002
 20
1.8255264E+002
 11
1.9608096E+002
 21
1.8255264E+002
  0
LINE
  8
104
  6
CONTINUOUS
 62
40
 10
1.9608096E+002
 20
1.8255264E+002
 11
1.9608096E+002
 21
1.8655264E+002
  0
LINE
  8
104
  6
CONTINUOUS
 62
40
 10
1.9608096E+002
 20
1.8655264E+002
 11
1.9958096E+002
 21
1.8655264E+002
  0
LINE
  8
104
  6
CONTINUOUS
 62
40
 10
1.9958096E+002
 20
1.8655264E+002
 11
1.9958096E+002
 21
1.7905264E+002
  0
LINE
  8
104
  6
CONTINUOUS
 62
40
 10
1.9958096E+002
 20
1.7905264E+002
 11
1.9283096E+002
 21
1.7905264E+002
  0
LINE
  8
104
  6
CONTINUOUS
 62
40
 10
1.9283096E+002
 20
1.8255264E+002
 11
1.6633096E+002
 21
1.8255264E+002
  0
LINE
  8
104
  6
CONTINUOUS
 62
40
 10
1.5858096E+002
 20
1.7905264E+002
 11
1.5858096E+002
 21
1.7805267E+002
  0
LINE
  8
104
  6
CONTINUOUS
 62
40
 10
1.6633096E+002
 20
1.7905264E+002
 11
1.7658096E+002
 21
1.7905264E+002
  0
LINE
  8
104
  6
CONTINUOUS
 62
40
 10
1.8258096E+002
 20
1.7905264E+002
 11
1.9283096E+002
 21
1.7905264E+002
  0
LINE
  8
104
  6
CONTINUOUS
 62
40
 10
1.9283096E+002
 20
1.7905264E+002
 11
1.9283096E+002
 21
1.7805264E+002
  0
LINE
  8
104
  6
CONTINUOUS
 62
40
 10
1.9958096E+002
 20
1.7905264E+002
 11
1.9958096E+002
 21
1.7805264E+002
  0
INSERT
  2
*XH58
  8
108
 10
1.968012E+002
 20
1.819824E+002
  0
INSERT
  2
*XH59
  8
108
 10
1.623135E+002
 20
1.8200149E+002
  0
LINE
  8
104
  6
CONTINUOUS
 62
40
 10
1.3458096E+002
 20
1.8655264E+002
 11
1.3008096E+002
 21
1.8655264E+002
  0
LINE
  8
104
  6
CONTINUOUS
 62
40
 10
1.3008096E+002
 20
1.8655264E+002
 11
1.3008096E+002
 21
1.7905264E+002
  0
LINE
  8
104
  6
CONTINUOUS
 62
40
 10
1.3008096E+002
 20
1.7905264E+002
 11
1.2758097E+002
 21
1.7905264E+002
  0
LINE
  8
104
  6
CONTINUOUS
 62
40
 10
1.2758097E+002
 20
1.7905264E+002
 11
1.2758097E+002
 21
1.7805264E+002
  0
LINE
  8
104
  6
CONTINUOUS
 62
40
 10
1.2758097E+002
 20
1.7805264E+002
 11
1.3458096E+002
 21
1.7805264E+002
  0
LINE
  8
104
  6
CONTINUOUS
 62
40
 10
1.3458096E+002
 20
1.7805264E+002
 11
1.3458096E+002
 21
1.8655264E+002
  0
INSERT
  2
*XH60
  8
108
 10
1.3131886E+002
 20
1.8211958E+002
  0
LINE
  8
104
  6
CONTINUOUS
 62
40
 10
1.0758097E+002
 20
1.8655264E+002
 11
1.0758097E+002
 21
1.7905264E+002
  0
LINE
  8
104
  6
CONTINUOUS
 62
40
 10
1.0758097E+002
 20
1.7905264E+002
 11
1.0458097E+002
 21
1.7905264E+002
  0
LINE
  8
104
  6
CONTINUOUS
 62
40
 10
1.0458097E+002
 20
1.7905264E+002
 11
1.0458097E+002
 21
1.7805267E+002
  0
LINE
  8
104
  6
CONTINUOUS
 62
40
 10
1.0458097E+002
 20
1.7805267E+002
 11
1.1158097E+002
 21
1.7805267E+002
  0
LINE
  8
104
  6
CONTINUOUS
 62
40
 10
1.1158097E+002
 20
1.7805267E+002
 11
1.1158097E+002
 21
1.7905267E+002
  0
LINE
  8
104
  6
CONTINUOUS
 62
40
 10
1.1158097E+002
 20
1.7905267E+002
 11
1.0908097E+002
 21
1.7905267E+002
  0
LINE
  8
104
  6
CONTINUOUS
 62
40
 10
1.0908097E+002
 20
1.7905267E+002
 11
1.0908097E+002
 21
1.8655264E+002
  0
LINE
  8
104
  6
CONTINUOUS
 62
40
 10
1.0908097E+002
 20
1.8655264E+002
 11
1.0758097E+002
 21
1.8655264E+002
  0
INSERT
  2
*XH61
  8
108
 10
1.0816697E+002
 20
1.8046372E+002
  0
LINE
  8
104
  6
CONTINUOUS
 62
40
 10
1.0758097E+002
 20
1.8655264E+002
 11
1.0458097E+002
 21
1.8655264E+002
  0
LINE
  8
104
  6
CONTINUOUS
 62
40
 10
1.0458097E+002
 20
1.8655264E+002
 11
1.0458097E+002
 21
1.8405267E+002
  0
LINE
  8
104
  6
CONTINUOUS
 62
40
 10
1.0458097E+002
 20
1.8005267E+002
 11
1.0458097E+002
 21
1.7905264E+002
  0
INSERT
  2
*XH62
  8
108
 10
2.042877E+002
 20
1.7677392E+002
  0
INSERT
  2
*XH63
  8
108
 10
1.8726155E+002
 20
1.7682949E+002
  0
INSERT
  2
*XH64
  8
108
 10
1.7151405E+002
 20
1.7702066E+002
  0
INSERT
  2
*XH65
  8
108
 10
1.4216413E+002
 20
1.7667209E+002
  0
INSERT
  2
*XH66
  8
108
 10
1.1385983E+002
 20
1.7669212E+002
  0
INSERT
  2
*XH67
  8
108
 10
8.7854307E+001
 20
1.857271E+002
  0
INSERT
  2
*XH68
  8
108
 10
9.0978572E+001
 20
1.7694596E+002
  0
LINE
  8
104
  6
CONTINUOUS
 62
40
 10
1.2408097E+002
 20
1.7555264E+002
 11
1.2158097E+002
 21
1.7805267E+002
  0
LINE
  8
106
  6
CENTERLINE
 62
1
 10
1.7958096E+002
 20
1.8775497E+002
 11
1.7958096E+002
 21
1.7347949E+002
  0
LINE
  8
106
  6
CENTERLINE
 62
1
 10
1.6158096E+002
 20
1.8057696E+002
 11
1.6158096E+002
 21
1.7575262E+002
  0
LINE
  8
106
  6
CENTERLINE
 62
1
 10
1.2658097E+002
 20
1.8057696E+002
 11
1.2658097E+002
 21
1.7595263E+002
  0
LINE
  8
106
  6
CENTERLINE
 62
1
 10
1.0258097E+002
 20
1.7871273E+002
 11
1.0258097E+002
 21
1.7575265E+002
  0
LINE
  8
106
  6
CENTERLINE
 62
1
 10
1.0824442E+002
 20
1.8205267E+002
 11
7.8911047E+001
 21
1.8205267E+002
  0
LINE
  8
106
  6
CENTERLINE
 62
1
 10
1.1958097E+002
 20
1.8861268E+002
 11
1.1958097E+002
 21
1.7555264E+002
  0
LINE
  8
99
  6
CONTINUOUS
 62
1
 10
1.7658096E+002
 20
1.7905264E+002
 11
1.7658096E+002
 21
1.7555264E+002
  0
LINE
  8
99
  6
CONTINUOUS
 62
1
 10
1.8258096E+002
 20
1.7905264E+002
 11
1.8258096E+002
 21
1.7555264E+002
  0
LINE
  8
104
  6
CONTINUOUS
 62
40
 10
2.0858096E+002
 20
1.8655264E+002
 11
2.0858096E+002
 21
1.7555264E+002
  0
LINE
  8
104
  6
CONTINUOUS
 62
40
 10
2.0858096E+002
 20
1.7555264E+002
 11
1.9908096E+002
 21
1.7555264E+002
  0
LINE
  8
104
  6
CONTINUOUS
 62
40
 10
1.9408096E+002
 20
1.7555264E+002
 11
1.6408096E+002
 21
1.7555264E+002
  0
LINE
  8
104
  6
CONTINUOUS
 62
40
 10
1.5908096E+002
 20
1.7555264E+002
 11
1.2908096E+002
 21
1.7555264E+002
  0
LINE
  8
104
  6
CONTINUOUS
 62
40
 10
1.2408097E+002
 20
1.7555264E+002
 11
1.0508097E+002
 21
1.7555264E+002
  0
LINE
  8
104
  6
CONTINUOUS
 62
40
 10
1.0008097E+002
 20
1.7555264E+002
 11
8.4080969E+001
 21
1.7555264E+002
  0
LINE
  8
104
  6
CONTINUOUS
 62
40
 10
8.4080969E+001
 20
1.7555264E+002
 11
8.4080969E+001
 21
1.7905267E+002
  0
LINE
  8
104
  6
CONTINUOUS
 62
40
 10
8.4080969E+001
 20
1.8505267E+002
 11
8.4080969E+001
 21
1.8655264E+002
  0
LINE
  8
104
  6
CONTINUOUS
 62
40
 10
8.4080969E+001
 20
1.8655264E+002
 11
1.1208097E+002
 21
1.8655264E+002
  0
LINE
  8
104
  6
CONTINUOUS
 62
40
 10
1.2708097E+002
 20
1.8655264E+002
 11
1.0458097E+002
 21
1.8655264E+002
  0
LINE
  8
104
  6
CONTINUOUS
 62
40
 10
1.0458097E+002
 20
1.8655264E+002
 11
1.7493839E+002
 21
1.8655264E+002
  0
LINE
  8
104
  6
CONTINUOUS
 62
40
 10
1.8428348E+002
 20
1.8655264E+002
 11
2.0858096E+002
 21
1.8655264E+002
  0
LINE
  8
104
  6
CONTINUOUS
 62
40
 10
9.7580969E+001
 20
1.7805267E+002
 11
1.0008097E+002
 21
1.7555264E+002
  0
LINE
  8
104
  6
CONTINUOUS
 62
40
 10
1.0508097E+002
 20
1.7555264E+002
 11
1.0758097E+002
 21
1.7805267E+002
  0
LINE
  8
104
  6
CONTINUOUS
 62
40
 10
1.9908096E+002
 20
1.7555264E+002
 11
2.0158096E+002
 21
1.7805267E+002
  0
LINE
  8
104
  6
CONTINUOUS
 62
40
 10
1.5908096E+002
 20
1.7555264E+002
 11
1.5658096E+002
 21
1.7805267E+002
  0
LINE
  8
104
  6
CONTINUOUS
 62
40
 10
1.9408096E+002
 20
1.7555264E+002
 11
1.9158096E+002
 21
1.7805267E+002
  0
LINE
  8
104
  6
CONTINUOUS
 62
40
 10
1.6408096E+002
 20
1.7555264E+002
 11
1.6658096E+002
 21
1.7805267E+002
  0
LINE
  8
104
  6
CONTINUOUS
 62
40
 10
1.2908096E+002
 20
1.7555264E+002
 11
1.3158096E+002
 21
1.7805267E+002
  0
LINE
  8
106
  6
CENTERLINE
 62
1
 10
1.9658096E+002
 20
1.8029608E+002
 11
1.9658096E+002
 21
1.7575262E+002
  0
LINE
  8
104
  6
CONTINUOUS
 62
40
 10
2.0858096E+002
 20
1.7805264E+002
 11
1.8508096E+002
 21
1.7805264E+002
  0
LINE
  8
104
  6
CONTINUOUS
 62
40
 10
1.8508096E+002
 20
1.7805264E+002
 11
1.8458096E+002
 21
1.7905264E+002
  0
LINE
  8
104
  6
CONTINUOUS
 62
40
 10
1.8458096E+002
 20
1.7905264E+002
 11
1.8258096E+002
 21
1.7905264E+002
  0
LINE
  8
104
  6
CONTINUOUS
 62
40
 10
1.7658096E+002
 20
1.7905264E+002
 11
1.7458096E+002
 21
1.7905264E+002
  0
LINE
  8
104
  6
CONTINUOUS
 62
40
 10
1.7458096E+002
 20
1.7905264E+002
 11
1.7408096E+002
 21
1.7805267E+002
  0
LINE
  8
104
  6
CONTINUOUS
 62
40
 10
1.7408096E+002
 20
1.7805267E+002
 11
9.2080969E+001
 21
1.7805267E+002
  0
LINE
  8
104
  6
CONTINUOUS
 62
40
 10
9.2080969E+001
 20
1.7805267E+002
 11
9.2080969E+001
 21
1.7905264E+002
  0
LINE
  8
104
  6
CONTINUOUS
 62
40
 10
9.2080969E+001
 20
1.8505267E+002
 11
9.2080969E+001
 21
1.8655264E+002
  0
LINE
  8
99
  6
CONTINUOUS
 62
1
 10
1.0408097E+002
 20
1.8430267E+002
 11
8.3080969E+001
 21
1.8430267E+002
  0
LINE
  8
99
  6
CONTINUOUS
 62
1
 10
1.0408097E+002
 20
1.7980267E+002
 11
8.3080969E+001
 21
1.7980267E+002
  0
LINE
  8
104
  6
CONTINUOUS
 62
40
 10
1.0408097E+002
 20
1.8505267E+002
 11
8.3080969E+001
 21
1.8505267E+002
  0
LINE
  8
104
  6
CONTINUOUS
 62
40
 10
8.3080969E+001
 20
1.8505267E+002
 11
8.2580969E+001
 21
1.8455267E+002
  0
LINE
  8
104
  6
CONTINUOUS
 62
40
 10
8.2580969E+001
 20
1.8455267E+002
 11
8.2580969E+001
 21
1.8265267E+002
  0
LINE
  8
104
  6
CONTINUOUS
 62
40
 10
8.2580969E+001
 20
1.8265267E+002
 11
8.5580969E+001
 21
1.8265267E+002
  0
LINE
  8
104
  6
CONTINUOUS
 62
40
 10
8.5580969E+001
 20
1.8265267E+002
 11
8.5580969E+001
 21
1.8145266E+002
  0
LINE
  8
104
  6
CONTINUOUS
 62
40
 10
8.5580969E+001
 20
1.8145266E+002
 11
8.2580969E+001
 21
1.8145266E+002
  0
LINE
  8
104
  6
CONTINUOUS
 62
40
 10
8.2580969E+001
 20
1.8145266E+002
 11
8.2580969E+001
 21
1.7955267E+002
  0
LINE
  8
104
  6
CONTINUOUS
 62
40
 10
8.2580969E+001
 20
1.7955267E+002
 11
8.3080969E+001
 21
1.7905267E+002
  0
LINE
  8
104
  6
CONTINUOUS
 62
40
 10
8.3080969E+001
 20
1.7905267E+002
 11
1.0408097E+002
 21
1.7905267E+002
  0
LINE
  8
104
  6
CONTINUOUS
 62
40
 10
1.0408097E+002
 20
1.7905267E+002
 11
1.0408097E+002
 21
1.8505267E+002
  0
LINE
  8
104
  6
CONTINUOUS
 62
40
 10
8.3080969E+001
 20
1.8505267E+002
 11
8.3080969E+001
 21
1.8265267E+002
  0
LINE
  8
104
  6
CONTINUOUS
 62
40
 10
8.3080969E+001
 20
1.7905267E+002
 11
8.3080969E+001
 21
1.8145266E+002
  0
ARC
  8
104
  6
CONTINUOUS
 62
40
 10
1.0718096E+002
 20
1.8045264E+002
 40
4.0000695E-001
 50
2.700063E+002
 51
3.6000244E+002
  0
LINE
  8
104
  6
CONTINUOUS
 62
40
 10
1.07181E+002
 20
1.8005264E+002
 11
1.0408097E+002
 21
1.8005264E+002
  0
LINE
  8
104
  6
CONTINUOUS
 62
40
 10
1.0408097E+002
 20
1.8005264E+002
 11
1.0408097E+002
 21
1.8405267E+002
  0
LINE
  8
104
  6
CONTINUOUS
 62
40
 10
1.0408097E+002
 20
1.8405267E+002
 11
1.07181E+002
 21
1.8405267E+002
  0
ARC
  8
104
  6
CONTINUOUS
 62
40
 10
1.0718099E+002
 20
1.8365269E+002
 40
3.9997885E-001
 50
3.5999783E+002
 51
4.4999773E+002
  0
LINE
  8
104
  6
CONTINUOUS
 62
40
 10
1.0758097E+002
 20
1.8365267E+002
 11
1.0758097E+002
 21
1.8045266E+002
  0
LINE
  8
104
  6
CONTINUOUS
 62
40
 10
1.7358096E+002
 20
1.8618441E+002
 11
1.8558096E+002
 21
1.8618441E+002
  0
LINE
  8
104
  6
CONTINUOUS
 62
40
 10
1.8558096E+002
 20
1.8618441E+002
 11
1.8558096E+002
 21
1.8255264E+002
  0
LINE
  8
104
  6
CONTINUOUS
 62
40
 10
1.8558096E+002
 20
1.8255264E+002
 11
1.8258096E+002
 21
1.8255264E+002
  0
LINE
  8
104
  6
CONTINUOUS
 62
40
 10
1.8258096E+002
 20
1.8255264E+002
 11
1.8258096E+002
 21
1.7555264E+002
  0
LINE
  8
104
  6
CONTINUOUS
 62
40
 10
1.8258096E+002
 20
1.7555264E+002
 11
1.7658096E+002
 21
1.7555264E+002
  0
LINE
  8
104
  6
CONTINUOUS
 62
40
 10
1.7658096E+002
 20
1.7555264E+002
 11
1.7658096E+002
 21
1.8255264E+002
  0
LINE
  8
104
  6
CONTINUOUS
 62
40
 10
1.7658096E+002
 20
1.8255264E+002
 11
1.7358096E+002
 21
1.8255264E+002
  0
LINE
  8
104
  6
CONTINUOUS
 62
40
 10
1.7358096E+002
 20
1.8255264E+002
 11
1.7358096E+002
 21
1.8618441E+002
  0
LINE
  8
104
  6
CONTINUOUS
 62
40
 10
1.7658096E+002
 20
1.8255264E+002
 11
1.8258096E+002
 21
1.8255264E+002
  0
ARC
  8
104
  6
CONTINUOUS
 62
40
 10
1.7958114E+002
 20
1.7108124E+002
 40
1.6251396E+001
 50
9.0000608E+001
 51
1.1166688E+002
  0
ARC
  8
104
  6
CONTINUOUS
 62
40
 10
1.7958074E+002
 20
1.7108097E+002
 40
1.625167E+001
 50
6.8333302E+001
 51
8.9999208E+001
  0
LINE
  8
99
  6
CONTINUOUS
 62
1
 10
1.7733096E+002
 20
1.8255264E+002
 11
1.7733096E+002
 21
1.7555264E+002
  0
LINE
  8
99
  6
CONTINUOUS
 62
1
 10
1.8183096E+002
 20
1.8255264E+002
 11
1.8183096E+002
 21
1.7555264E+002
  0
LINE
  8
104
  6
CONTINUOUS
 62
40
 10
1.7658096E+002
 20
1.7555264E+002
 11
1.8258096E+002
 21
1.7555264E+002
  0
LINE
  8
104
  6
CONTINUOUS
 62
40
 10
1.8258096E+002
 20
1.7555264E+002
 11
1.8258096E+002
 21
1.8255264E+002
  0
LINE
  8
104
  6
CONTINUOUS
 62
40
 10
1.8258096E+002
 20
1.8255264E+002
 11
1.8558096E+002
 21
1.8255264E+002
  0
LINE
  8
104
  6
CONTINUOUS
 62
40
 10
1.2708097E+002
 20
1.8655264E+002
 11
1.2708097E+002
 21
1.8555264E+002
  0
LINE
  8
104
  6
CONTINUOUS
 62
40
 10
1.2708097E+002
 20
1.8555264E+002
 11
1.2908096E+002
 21
1.8555264E+002
  0
LINE
  8
104
  6
CONTINUOUS
 62
40
 10
1.2908096E+002
 20
1.8555264E+002
 11
1.2908096E+002
 21
1.8005267E+002
  0
LINE
  8
104
  6
CONTINUOUS
 62
40
 10
1.2908096E+002
 20
1.8005267E+002
 11
1.2708097E+002
 21
1.8005267E+002
  0
LINE
  8
104
  6
CONTINUOUS
 62
40
 10
1.2708097E+002
 20
1.8005267E+002
 11
1.2708097E+002
 21
1.7905267E+002
  0
LINE
  8
104
  6
CONTINUOUS
 62
40
 10
1.2708097E+002
 20
1.7905267E+002
 11
1.3008096E+002
 21
1.7905267E+002
  0
LINE
  8
104
  6
CONTINUOUS
 62
40
 10
1.3008096E+002
 20
1.7905267E+002
 11
1.3008096E+002
 21
1.8655264E+002
  0
LINE
  8
104
  6
CONTINUOUS
 62
40
 10
1.3008096E+002
 20
1.8655264E+002
 11
1.2708097E+002
 21
1.8655264E+002
  0
INSERT
  2
*XH69
  8
108
 10
1.2837299E+002
 20
1.8280265E+002
  0
LINE
  8
104
  6
CONTINUOUS
 62
40
 10
1.1208097E+002
 20
1.8655264E+002
 11
1.1208097E+002
 21
1.8555264E+002
  0
LINE
  8
104
  6
CONTINUOUS
 62
40
 10
1.1208097E+002
 20
1.8555264E+002
 11
1.1008097E+002
 21
1.8555264E+002
  0
LINE
  8
104
  6
CONTINUOUS
 62
40
 10
1.1008097E+002
 20
1.8555264E+002
 11
1.1008097E+002
 21
1.8005267E+002
  0
LINE
  8
104
  6
CONTINUOUS
 62
40
 10
1.1008097E+002
 20
1.8005267E+002
 11
1.1208097E+002
 21
1.8005267E+002
  0
LINE
  8
104
  6
CONTINUOUS
 62
40
 10
1.1208097E+002
 20
1.8005267E+002
 11
1.1208097E+002
 21
1.7905267E+002
  0
LINE
  8
104
  6
CONTINUOUS
 62
40
 10
1.1208097E+002
 20
1.7905267E+002
 11
1.0908097E+002
 21
1.7905267E+002
  0
LINE
  8
104
  6
CONTINUOUS
 62
40
 10
1.0908097E+002
 20
1.7905267E+002
 11
1.0908097E+002
 21
1.8655264E+002
  0
LINE
  8
104
  6
CONTINUOUS
 62
40
 10
1.0908097E+002
 20
1.8655264E+002
 11
1.1208097E+002
 21
1.8655264E+002
  0
INSERT
  2
*XH70
  8
108
 10
1.1078662E+002
 20
1.8280265E+002
  0
LINE
  8
104
  6
CONTINUOUS
 62
40
 10
1.1208097E+002
 20
1.8555264E+002
 11
1.1208097E+002
 21
1.8005267E+002
  0
LINE
  8
104
  6
CONTINUOUS
 62
40
 10
1.2708097E+002
 20
1.8555264E+002
 11
1.2708097E+002
 21
1.8005267E+002
  0
LINE
  8
MED-0
  6
CENTERLINE
 62
150
 10
2.370502E+002
 20
2.7083287E+002
 11
2.320502E+002
 21
2.7083287E+002
  0
LINE
  8
MED-0
  6
CENTERLINE
 62
150
 10
2.320502E+002
 20
2.7083287E+002
 11
2.320502E+002
 21
2.4833287E+002
  0
LINE
  8
MED-0
  6
CENTERLINE
 62
150
 10
2.320502E+002
 20
2.4833287E+002
 11
2.370502E+002
 21
2.4833287E+002
  0
LINE
  8
MED-0
  6
CENTERLINE
 62
150
 10
2.370502E+002
 20
2.4833287E+002
 11
2.370502E+002
 21
2.7083287E+002
  0
LINE
  8
99
  6
CONTINUOUS
 62
1
 10
2.3275022E+002
 20
2.7083287E+002
 11
2.3275022E+002
 21
2.4833287E+002
  0
LINE
  8
99
  6
CONTINUOUS
 62
1
 10
2.3635018E+002
 20
2.4833287E+002
 11
2.3635018E+002
 21
2.7083287E+002
  0
LINE
  8
104
  6
CONTINUOUS
 62
40
 10
2.295502E+002
 20
2.4583287E+002
 11
2.320502E+002
 21
2.4833287E+002
  0
LINE
  8
104
  6
CONTINUOUS
 62
40
 10
2.320502E+002
 20
2.4833287E+002
 11
2.320502E+002
 21
2.7083287E+002
  0
LINE
  8
104
  6
CONTINUOUS
 62
40
 10
2.320502E+002
 20
2.7083287E+002
 11
2.370502E+002
 21
2.7083287E+002
  0
LINE
  8
104
  6
CONTINUOUS
 62
40
 10
2.370502E+002
 20
2.7083287E+002
 11
2.370502E+002
 21
2.4833287E+002
  0
LINE
  8
104
  6
CONTINUOUS
 62
40
 10
2.370502E+002
 20
2.4833287E+002
 11
2.395502E+002
 21
2.4583287E+002
  0
LINE
  8
104
  6
CONTINUOUS
 62
40
 10
2.395502E+002
 20
2.4583287E+002
 11
2.295502E+002
 21
2.4583287E+002
  0
LINE
  8
104
  6
CONTINUOUS
 62
40
 10
2.320502E+002
 20
2.4833287E+002
 11
2.370502E+002
 21
2.4833287E+002
  0
LINE
  8
106
  6
CENTERLINE
 62
1
 10
2.345502E+002
 20
2.7299604E+002
 11
2.345502E+002
 21
2.4583287E+002
  0
LINE
  8
MED-0
  6
CENTERLINE
 62
150
 10
8.7050204E+001
 20
2.7083287E+002
 11
8.2050204E+001
 21
2.7083287E+002
  0
LINE
  8
MED-0
  6
CENTERLINE
 62
150
 10
8.2050204E+001
 20
2.7083287E+002
 11
8.2050204E+001
 21
2.4833287E+002
  0
LINE
  8
MED-0
  6
CENTERLINE
 62
150
 10
8.2050204E+001
 20
2.4833287E+002
 11
8.7050204E+001
 21
2.4833287E+002
  0
LINE
  8
MED-0
  6
CENTERLINE
 62
150
 10
8.7050204E+001
 20
2.4833287E+002
 11
8.7050204E+001
 21
2.7083287E+002
  0
LINE
  8
99
  6
CONTINUOUS
 62
1
 10
8.2750216E+001
 20
2.7083287E+002
 11
8.2750216E+001
 21
2.4833287E+002
  0
LINE
  8
99
  6
CONTINUOUS
 62
1
 10
8.6350191E+001
 20
2.4833287E+002
 11
8.6350191E+001
 21
2.7083287E+002
  0
LINE
  8
104
  6
CONTINUOUS
 62
40
 10
7.9550204E+001
 20
2.4583287E+002
 11
8.2050204E+001
 21
2.4833287E+002
  0
LINE
  8
104
  6
CONTINUOUS
 62
40
 10
8.2050204E+001
 20
2.4833287E+002
 11
8.2050204E+001
 21
2.7083287E+002
  0
LINE
  8
104
  6
CONTINUOUS
 62
40
 10
8.2050204E+001
 20
2.7083287E+002
 11
8.7050204E+001
 21
2.7083287E+002
  0
LINE
  8
104
  6
CONTINUOUS
 62
40
 10
8.7050204E+001
 20
2.7083287E+002
 11
8.7050204E+001
 21
2.4833287E+002
  0
LINE
  8
104
  6
CONTINUOUS
 62
40
 10
8.7050204E+001
 20
2.4833287E+002
 11
8.9550204E+001
 21
2.4583287E+002
  0
LINE
  8
104
  6
CONTINUOUS
 62
40
 10
8.9550204E+001
 20
2.4583287E+002
 11
7.9550204E+001
 21
2.4583287E+002
  0
LINE
  8
104
  6
CONTINUOUS
 62
40
 10
8.2050204E+001
 20
2.4833287E+002
 11
8.7050204E+001
 21
2.4833287E+002
  0
LINE
  8
106
  6
CENTERLINE
 62
1
 10
8.4550204E+001
 20
2.7299604E+002
 11
8.4550204E+001
 21
2.4583287E+002
  0
LINE
  8
106
  6
CENTERLINE
 62
1
 10
1.2708097E+002
 20
2.0852275E+002
 11
1.1208097E+002
 21
2.0852275E+002
  0
LINE
  8
106
  6
CENTERLINE
 62
1
 10
1.2708097E+002
 20
2.3092518E+002
 11
1.2708097E+002
 21
2.0852275E+002
  0
LINE
  8
106
  6
CENTERLINE
 62
1
 10
1.2708097E+002
 20
2.0852275E+002
 11
1.2608097E+002
 21
2.0752275E+002
  0
LINE
  8
106
  6
CENTERLINE
 62
1
 10
1.2608097E+002
 20
2.0752275E+002
 11
1.1308097E+002
 21
2.0752275E+002
  0
LINE
  8
106
  6
CENTERLINE
 62
1
 10
1.1308097E+002
 20
2.0752275E+002
 11
1.1208097E+002
 21
2.0852275E+002
  0
LINE
  8
106
  6
CENTERLINE
 62
1
 10
1.1208097E+002
 20
2.0852275E+002
 11
1.1208097E+002
 21
2.3226136E+002
  0
LINE
  8
106
  6
CENTERLINE
 62
1
 10
1.2708097E+002
 20
2.1752275E+002
 11
1.1208097E+002
 21
2.1752275E+002
  0
TEXT
  8
103
  6
CONTINUOUS
 62
150
 10
1.235123E+002
 20
2.6839079E+002
 40
3.4999999
  1
C
 72
1
 11
1.217623E+002
 21
2.6664079E+002
 73
2
  0
TEXT
  8
103
  6
CONTINUOUS
 62
150
 10
1.2418997E+002
 20
2.459134E+002
 40
3.4999999
  1
A
 72
1
 11
1.2243997E+002
 21
2.441634E+002
 73
2
  0
TEXT
  8
103
  6
CONTINUOUS
 62
150
 10
1.1696109E+002
 20
2.5686973E+002
 40
3.4999999
  1
B
 72
1
 11
1.1521109E+002
 21
2.5511973E+002
 73
2
  0
LINE
  8
99
  6
CONTINUOUS
 62
1
 10
1.2708097E+002
 20
2.5957276E+002
 11
1.2578098E+002
 21
2.5827275E+002
  0
LINE
  8
99
  6
CONTINUOUS
 62
1
 10
1.2578098E+002
 20
2.5827275E+002
 11
1.2058097E+002
 21
2.5827275E+002
  0
LINE
  8
99
  6
CONTINUOUS
 62
1
 10
1.2058097E+002
 20
2.5827275E+002
 11
1.1870456E+002
 21
2.5502275E+002
  0
LINE
  8
99
  6
CONTINUOUS
 62
1
 10
1.1870456E+002
 20
2.5502275E+002
 11
1.2058097E+002
 21
2.5177275E+002
  0
LINE
  8
99
  6
CONTINUOUS
 62
1
 10
1.2058097E+002
 20
2.5177275E+002
 11
1.2578098E+002
 21
2.5177275E+002
  0
LINE
  8
99
  6
CONTINUOUS
 62
1
 10
1.2578098E+002
 20
2.5177275E+002
 11
1.2708097E+002
 21
2.5050709E+002
  0
LINE
  8
99
  6
CONTINUOUS
 62
1
 10
1.2708097E+002
 20
2.5050709E+002
 11
1.2708097E+002
 21
2.4763188E+002
  0
ARC
  8
99
  6
CONTINUOUS
 62
1
 10
1.2186987E+002
 20
2.3511837E+002
 40
1.3555196E+001
 50
6.7391318E+001
 51
7.4994956E+001
  0
ARC
  8
99
  6
CONTINUOUS
 62
1
 10
1.2186887E+002
 20
2.3511677E+002
 40
1.3557005E+001
 50
7.4992624E+001
 51
8.3928582E+001
  0
ARC
  8
99
  6
CONTINUOUS
 62
1
 10
1.2404724E+002
 20
2.5581089E+002
 40
7.2514773
 50
2.5840906E+002
 51
2.6410736E+002
  0
ARC
  8
99
  6
CONTINUOUS
 62
1
 10
1.2356719E+002
 20
2.5350124E+002
 40
4.8924846
 50
2.5107233E+002
 51
2.5848158E+002
  0
ARC
  8
99
  6
CONTINUOUS
 62
1
 10
1.2315642E+002
 20
2.5227005E+002
 40
3.5946367
 50
2.4635543E+002
 51
2.5090007E+002
  0
ARC
  8
99
  6
CONTINUOUS
 62
1
 10
1.2288528E+002
 20
2.5165208E+002
 40
2.9197993
 50
2.4114564E+002
 51
2.4636594E+002
  0
ARC
  8
99
  6
CONTINUOUS
 62
1
 10
1.2262808E+002
 20
2.5118594E+002
 40
2.3874133
 50
2.3518339E+002
 51
2.4115322E+002
  0
ARC
  8
99
  6
CONTINUOUS
 62
1
 10
1.2239718E+002
 20
2.5085398E+002
 40
1.983039
 50
2.2842876E+002
 51
2.3518433E+002
  0
ARC
  8
99
  6
CONTINUOUS
 62
1
 10
1.226025E+002
 20
2.5106813E+002
 40
2.2795232
 50
2.2152712E+002
 51
2.2813951E+002
  0
ARC
  8
99
  6
CONTINUOUS
 62
1
 10
1.2332306E+002
 20
2.5170888E+002
 40
3.2437652
 50
2.1633518E+002
 51
2.2156219E+002
  0
ARC
  8
99
  6
CONTINUOUS
 62
1
 10
1.2515495E+002
 20
2.530235E+002
 40
5.4984562
 50
2.0868153E+002
 51
2.1606004E+002
  0
ARC
  8
99
  6
CONTINUOUS
 62
1
 10
1.1604201E+002
 20
2.4799628E+002
 40
4.909238
 50
2.9109915E+001
 51
4.3873018E+001
  0
ARC
  8
99
  6
CONTINUOUS
 62
1
 10
1.1604047E+002
 20
2.4799528E+002
 40
4.9110357
 50
4.3869057E+001
 51
7.55469E+001
  0
LINE
  8
99
  6
CONTINUOUS
 62
1
 10
1.1726621E+002
 20
2.527509E+002
 11
1.1745255E+002
 21
2.5502275E+002
  0
LINE
  8
99
  6
CONTINUOUS
 62
1
 10
1.1745255E+002
 20
2.5502275E+002
 11
1.1710849E+002
 21
2.5673686E+002
  0
LINE
  8
99
  6
CONTINUOUS
 62
1
 10
1.1710849E+002
 20
2.5673686E+002
 11
1.1910135E+002
 21
2.58546E+002
  0
LINE
  8
99
  6
CONTINUOUS
 62
1
 10
1.1910135E+002
 20
2.58546E+002
 11
1.2141934E+002
 21
2.6023625E+002
  0
ARC
  8
99
  6
CONTINUOUS
 62
1
 10
1.2342948E+002
 20
2.550462E+002
 40
5.5657169
 50
9.8544187E+001
 51
1.1117172E+002
  0
ARC
  8
99
  6
CONTINUOUS
 62
1
 10
1.2119976E+002
 20
2.7003224E+002
 40
9.5853017
 50
2.784155E+002
 51
2.8089398E+002
  0
ARC
  8
99
  6
CONTINUOUS
 62
1
 10
1.2207531E+002
 20
2.6551852E+002
 40
4.9874538
 50
2.8081683E+002
 51
2.8464874E+002
  0
ARC
  8
99
  6
CONTINUOUS
 62
1
 10
1.226931E+002
 20
2.6317638E+002
 40
2.565219
 50
2.8452808E+002
 51
2.9049785E+002
  0
ARC
  8
99
  6
CONTINUOUS
 62
1
 10
1.23037E+002
 20
2.6223945E+002
 40
1.5671937
 50
2.9071583E+002
 51
2.9484853E+002
  0
ARC
  8
99
  6
CONTINUOUS
 62
1
 10
1.2321792E+002
 20
2.6184976E+002
 40
1.137556
 50
2.9482807E+002
 51
2.9994445E+002
  0
ARC
  8
99
  6
CONTINUOUS
 62
1
 10
1.2262736E+002
 20
2.628606E+002
 40
2.308259
 50
3.0012198E+002
 51
3.1028377E+002
  0
ARC
  8
99
  6
CONTINUOUS
 62
1
 10
1.2254054E+002
 20
2.6296315E+002
 40
2.4426173
 50
3.1028204E+002
 51
3.2006769E+002
  0
ARC
  8
99
  6
CONTINUOUS
 62
1
 10
1.2626775E+002
 20
2.5984066E+002
 40
2.4196852
 50
1.2045529E+002
 51
1.4002267E+002
  0
ARC
  8
99
  6
CONTINUOUS
 62
1
 10
1.2626784E+002
 20
2.5984044E+002
 40
2.4199284
 50
7.0366036E+001
 51
1.2045457E+002
  0
LINE
  8
99
  6
CONTINUOUS
 62
1
 10
1.2708097E+002
 20
2.6211967E+002
 11
1.2708097E+002
 21
2.5957276E+002
  0
INSERT
  2
*XH71
  8
108
 10
1.2280535E+002
 20
2.5649052E+002
  0
LINE
  8
106
  6
CENTERLINE
 62
1
 10
1.2171927E+002
 20
2.6252275E+002
 11
1.1074057E+002
 21
2.6252275E+002
  0
LINE
  8
106
  6
CENTERLINE
 62
1
 10
1.2231748E+002
 20
2.4752275E+002
 11
1.1205381E+002
 21
2.4752275E+002
  0
LINE
  8
104
  6
CONTINUOUS
 62
40
 10
1.2708097E+002
 20
2.5957276E+002
 11
1.2578098E+002
 21
2.5827275E+002
  0
LINE
  8
104
  6
CONTINUOUS
 62
40
 10
1.2578098E+002
 20
2.5827275E+002
 11
1.2058097E+002
 21
2.5827275E+002
  0
LINE
  8
104
  6
CONTINUOUS
 62
40
 10
1.2058097E+002
 20
2.5827275E+002
 11
1.1870456E+002
 21
2.5502275E+002
  0
LINE
  8
104
  6
CONTINUOUS
 62
40
 10
1.1870456E+002
 20
2.5502275E+002
 11
1.2058097E+002
 21
2.5177275E+002
  0
LINE
  8
104
  6
CONTINUOUS
 62
40
 10
1.2058097E+002
 20
2.5177275E+002
 11
1.2578098E+002
 21
2.5177275E+002
  0
LINE
  8
104
  6
CONTINUOUS
 62
40
 10
1.2578098E+002
 20
2.5177275E+002
 11
1.2708097E+002
 21
2.5047276E+002
  0
LINE
  8
105
  6
HIDDEN
 62
1
 10
1.1208097E+002
 20
2.5238285E+002
 11
1.1338095E+002
 21
2.5108287E+002
  0
LINE
  8
105
  6
HIDDEN
 62
1
 10
1.1338095E+002
 20
2.5108287E+002
 11
1.1858097E+002
 21
2.5108287E+002
  0
LINE
  8
105
  6
HIDDEN
 62
1
 10
1.1858097E+002
 20
2.5108287E+002
 11
1.2045737E+002
 21
2.4783287E+002
  0
LINE
  8
105
  6
HIDDEN
 62
1
 10
1.2045737E+002
 20
2.4783287E+002
 11
1.1858097E+002
 21
2.4458287E+002
  0
LINE
  8
105
  6
HIDDEN
 62
1
 10
1.1858097E+002
 20
2.4458287E+002
 11
1.1338095E+002
 21
2.4458287E+002
  0
LINE
  8
105
  6
HIDDEN
 62
1
 10
1.1338095E+002
 20
2.4458287E+002
 11
1.1208097E+002
 21
2.4328285E+002
  0
LINE
  8
105
  6
HIDDEN
 62
1
 10
1.1208097E+002
 20
2.6707276E+002
 11
1.1338095E+002
 21
2.6577275E+002
  0
LINE
  8
105
  6
HIDDEN
 62
1
 10
1.1338095E+002
 20
2.6577275E+002
 11
1.1858097E+002
 21
2.6577275E+002
  0
LINE
  8
105
  6
HIDDEN
 62
1
 10
1.1858097E+002
 20
2.6577275E+002
 11
1.2045737E+002
 21
2.6252275E+002
  0
LINE
  8
105
  6
HIDDEN
 62
1
 10
1.2045737E+002
 20
2.6252275E+002
 11
1.1858097E+002
 21
2.5927275E+002
  0
LINE
  8
105
  6
HIDDEN
 62
1
 10
1.1858097E+002
 20
2.5927275E+002
 11
1.1338095E+002
 21
2.5927275E+002
  0
LINE
  8
105
  6
HIDDEN
 62
1
 10
1.1338095E+002
 20
2.5927275E+002
 11
1.1208097E+002
 21
2.5797276E+002
  0
LINE
  8
105
  6
HIDDEN
 62
1
 10
1.1338095E+002
 20
2.6577275E+002
 11
1.1338095E+002
 21
2.5927275E+002
  0
LINE
  8
105
  6
HIDDEN
 62
1
 10
1.1338095E+002
 20
2.5108287E+002
 11
1.1338095E+002
 21
2.4458287E+002
  0
LINE
  8
105
  6
HIDDEN
 62
1
 10
1.1858097E+002
 20
2.5108287E+002
 11
1.1858097E+002
 21
2.4458287E+002
  0
LINE
  8
105
  6
HIDDEN
 62
1
 10
1.1858097E+002
 20
2.6577275E+002
 11
1.1858097E+002
 21
2.5927275E+002
  0
LINE
  8
104
  6
CONTINUOUS
 62
40
 10
1.2578098E+002
 20
2.5177275E+002
 11
1.2578098E+002
 21
2.5315751E+002
  0
LINE
  8
104
  6
CONTINUOUS
 62
40
 10
1.2578098E+002
 20
2.5315751E+002
 11
1.2578098E+002
 21
2.5306694E+002
  0
LINE
  8
104
  6
CONTINUOUS
 62
40
 10
1.2578098E+002
 20
2.5827275E+002
 11
1.2578098E+002
 21
2.572996E+002
  0
LINE
  8
104
  6
CONTINUOUS
 62
40
 10
1.2058097E+002
 20
2.5827275E+002
 11
1.2058097E+002
 21
2.5177275E+002
  0
LINE
  8
106
  6
CENTERLINE
 62
1
 10
1.1745255E+002
 20
2.5502275E+002
 11
1.2448825E+002
 21
2.5502275E+002
  0
ARC
  8
104
  6
CONTINUOUS
 62
40
 10
1.4076359E+002
 20
2.5372455E+002
 40
1.4891705E+001
 50
1.61345E+002
 51
1.6620028E+002
  0
ARC
  8
104
  6
CONTINUOUS
 62
40
 10
1.3778794E+002
 20
2.5473502E+002
 40
1.1749173E+001
 50
1.5568509E+002
 51
1.6137213E+002
  0
LINE
  8
104
  6
CONTINUOUS
 62
40
 10
1.2708097E+002
 20
2.5957276E+002
 11
1.2708097E+002
 21
2.7202275E+002
  0
LINE
  8
104
  6
CONTINUOUS
 62
40
 10
1.2708097E+002
 20
2.7202275E+002
 11
1.2658097E+002
 21
2.7252278E+002
  0
LINE
  8
104
  6
CONTINUOUS
 62
40
 10
1.2658097E+002
 20
2.7252278E+002
 11
1.1258097E+002
 21
2.7252278E+002
  0
LINE
  8
104
  6
CONTINUOUS
 62
40
 10
1.1258097E+002
 20
2.7252278E+002
 11
1.1208097E+002
 21
2.7202278E+002
  0
LINE
  8
104
  6
CONTINUOUS
 62
40
 10
1.1208097E+002
 20
2.7202278E+002
 11
1.1208097E+002
 21
2.2802275E+002
  0
LINE
  8
104
  6
CONTINUOUS
 62
40
 10
1.1208097E+002
 20
2.2802275E+002
 11
1.1258097E+002
 21
2.2752275E+002
  0
LINE
  8
104
  6
CONTINUOUS
 62
40
 10
1.1258097E+002
 20
2.2752275E+002
 11
1.2658097E+002
 21
2.2752275E+002
  0
LINE
  8
104
  6
CONTINUOUS
 62
40
 10
1.2658097E+002
 20
2.2752275E+002
 11
1.2708097E+002
 21
2.2802275E+002
  0
LINE
  8
104
  6
CONTINUOUS
 62
40
 10
1.2708097E+002
 20
2.2802275E+002
 11
1.2708097E+002
 21
2.5047276E+002
  0
ARC
  8
104
  6
CONTINUOUS
 62
40
 10
1.3739609E+002
 20
2.5517426E+002
 40
1.1336051E+001
 50
1.9720974E+002
 51
2.0450291E+002
  0
ARC
  8
104
  6
CONTINUOUS
 62
40
 10
1.3619678E+002
 20
2.5480451E+002
 40
1.0081032E+001
 50
1.8933241E+002
 51
1.9721906E+002
  0
LINE
  8
104
  6
CONTINUOUS
 62
40
 10
1.1208097E+002
 20
2.7202278E+002
 11
1.2708097E+002
 21
2.7202278E+002
  0
LINE
  8
104
  6
CONTINUOUS
 62
40
 10
1.1208097E+002
 20
2.2802275E+002
 11
1.2708097E+002
 21
2.2802275E+002
  0
LINE
  8
104
  6
CONTINUOUS
 62
40
 10
1.1208097E+002
 20
2.2752275E+002
 11
1.2708097E+002
 21
2.2752275E+002
  0
LINE
  8
106
  6
CENTERLINE
 62
1
 10
1.1958097E+002
 20
2.78429E+002
 11
1.1958097E+002
 21
2.0564904E+002
  0
LINE
  8
104
  6
CONTINUOUS
 62
40
 10
1.9358096E+002
 20
2.4582331E+002
 11
1.9358096E+002
 21
2.4982331E+002
  0
LINE
  8
104
  6
CONTINUOUS
 62
40
 10
1.9358096E+002
 20
2.4982331E+002
 11
1.9158096E+002
 21
2.4982331E+002
  0
LINE
  8
104
  6
CONTINUOUS
 62
40
 10
1.9158096E+002
 20
2.4982331E+002
 11
1.9158096E+002
 21
2.4582331E+002
  0
LINE
  8
104
  6
CONTINUOUS
 62
40
 10
1.9158096E+002
 20
2.4582331E+002
 11
1.8765598E+002
 21
2.4582331E+002
  0
LINE
  8
104
  6
CONTINUOUS
 62
40
 10
1.8765598E+002
 20
2.4582331E+002
 11
1.8658096E+002
 21
2.4689829E+002
  0
LINE
  8
104
  6
CONTINUOUS
 62
40
 10
1.8658096E+002
 20
2.4689829E+002
 11
1.8658096E+002
 21
2.5982331E+002
  0
LINE
  8
104
  6
CONTINUOUS
 62
40
 10
1.8658096E+002
 20
2.5982331E+002
 11
1.8688095E+002
 21
2.5982331E+002
  0
ARC
  8
104
  6
CONTINUOUS
 62
40
 10
1.8688093E+002
 20
2.6082334E+002
 40
1.0000231
 50
2.7000132E+002
 51
3.5999868E+002
  0
LINE
  8
104
  6
CONTINUOUS
 62
40
 10
1.8788095E+002
 20
2.6082331E+002
 11
1.8788095E+002
 21
2.6232331E+002
  0
ARC
  8
104
  6
CONTINUOUS
 62
40
 10
1.8688094E+002
 20
2.6232327E+002
 40
1.0000129
 50
2.45715E-003
 51
8.9999262E+001
  0
LINE
  8
104
  6
CONTINUOUS
 62
40
 10
1.8688095E+002
 20
2.6332328E+002
 11
1.8508096E+002
 21
2.6332328E+002
  0
LINE
  8
104
  6
CONTINUOUS
 62
40
 10
1.8508096E+002
 20
2.6332328E+002
 11
1.8508096E+002
 21
2.6582331E+002
  0
LINE
  8
104
  6
CONTINUOUS
 62
40
 10
1.8508096E+002
 20
2.6582331E+002
 11
1.8783096E+002
 21
2.6582331E+002
  0
ARC
  8
104
  6
CONTINUOUS
 62
40
 10
1.8783093E+002
 20
2.6782332E+002
 40
2.0000046
 50
2.7000099E+002
 51
3.5999987E+002
  0
LINE
  8
104
  6
CONTINUOUS
 62
40
 10
1.8983094E+002
 20
2.6782331E+002
 11
1.8983094E+002
 21
2.6927333E+002
  0
ARC
  8
104
  6
CONTINUOUS
 62
40
 10
1.8783095E+002
 20
2.6927331E+002
 40
1.999986
 50
4.581491E-004
 51
8.9999542E+001
  0
LINE
  8
104
  6
CONTINUOUS
 62
40
 10
1.8783096E+002
 20
2.712733E+002
 11
1.8508096E+002
 21
2.712733E+002
  0
LINE
  8
104
  6
CONTINUOUS
 62
40
 10
1.8508096E+002
 20
2.712733E+002
 11
1.8508096E+002
 21
2.7382331E+002
  0
LINE
  8
104
  6
CONTINUOUS
 62
40
 10
1.8508096E+002
 20
2.7382331E+002
 11
2.0008096E+002
 21
2.7382331E+002
  0
LINE
  8
104
  6
CONTINUOUS
 62
40
 10
2.0008096E+002
 20
2.7382331E+002
 11
2.0008096E+002
 21
2.7127333E+002
  0
LINE
  8
104
  6
CONTINUOUS
 62
40
 10
2.0008096E+002
 20
2.7127333E+002
 11
1.9733096E+002
 21
2.7127333E+002
  0
ARC
  8
104
  6
CONTINUOUS
 62
40
 10
1.9733094E+002
 20
2.6927335E+002
 40
1.9999796
 50
8.9999414E+001
 51
1.8000059E+002
  0
LINE
  8
104
  6
CONTINUOUS
 62
40
 10
1.9533096E+002
 20
2.6927333E+002
 11
1.9533096E+002
 21
2.6782331E+002
  0
ARC
  8
104
  6
CONTINUOUS
 62
40
 10
1.9733096E+002
 20
2.6782328E+002
 40
1.9999982
 50
1.7999909E+002
 51
2.7000005E+002
  0
LINE
  8
104
  6
CONTINUOUS
 62
40
 10
1.9733096E+002
 20
2.6582328E+002
 11
2.0008096E+002
 21
2.6582328E+002
  0
LINE
  8
104
  6
CONTINUOUS
 62
40
 10
2.0008096E+002
 20
2.6582328E+002
 11
2.0008096E+002
 21
2.6332331E+002
  0
LINE
  8
104
  6
CONTINUOUS
 62
40
 10
2.0008096E+002
 20
2.6332331E+002
 11
1.9828098E+002
 21
2.6332331E+002
  0
ARC
  8
104
  6
CONTINUOUS
 62
40
 10
1.9828095E+002
 20
2.6232331E+002
 40
1.0000064
 50
8.9998651E+001
 51
1.7999963E+002
  0
LINE
  8
104
  6
CONTINUOUS
 62
40
 10
1.9728095E+002
 20
2.6232331E+002
 11
1.9728095E+002
 21
2.6082331E+002
  0
ARC
  8
104
  6
CONTINUOUS
 62
40
 10
1.9828096E+002
 20
2.608233E+002
 40
1.0000167
 50
1.7999924E+002
 51
2.7000076E+002
  0
LINE
  8
104
  6
CONTINUOUS
 62
40
 10
1.9828098E+002
 20
2.5982328E+002
 11
1.9858096E+002
 21
2.5982328E+002
  0
LINE
  8
104
  6
CONTINUOUS
 62
40
 10
1.9858096E+002
 20
2.5982328E+002
 11
1.9858096E+002
 21
2.469669E+002
  0
LINE
  8
104
  6
CONTINUOUS
 62
40
 10
1.9858096E+002
 20
2.469669E+002
 11
1.9858096E+002
 21
2.4689829E+002
  0
LINE
  8
104
  6
CONTINUOUS
 62
40
 10
1.9858096E+002
 20
2.4689829E+002
 11
1.9750595E+002
 21
2.4582331E+002
  0
LINE
  8
104
  6
CONTINUOUS
 62
40
 10
1.9750595E+002
 20
2.4582331E+002
 11
1.9358096E+002
 21
2.4582331E+002
  0
LINE
  8
104
  6
CONTINUOUS
 62
40
 10
1.8783096E+002
 20
2.7127333E+002
 11
1.9733096E+002
 21
2.7127333E+002
  0
LINE
  8
104
  6
CONTINUOUS
 62
40
 10
1.9733096E+002
 20
2.6582331E+002
 11
1.8783096E+002
 21
2.6582331E+002
  0
LINE
  8
104
  6
CONTINUOUS
 62
40
 10
1.8688095E+002
 20
2.6332331E+002
 11
1.9828098E+002
 21
2.6332331E+002
  0
LINE
  8
104
  6
CONTINUOUS
 62
40
 10
1.9858096E+002
 20
2.5982331E+002
 11
1.8688095E+002
 21
2.5982331E+002
  0
LINE
  8
104
  6
CONTINUOUS
 62
40
 10
1.8658096E+002
 20
2.4689829E+002
 11
1.9158096E+002
 21
2.4689829E+002
  0
LINE
  8
104
  6
CONTINUOUS
 62
40
 10
1.9358096E+002
 20
2.4689829E+002
 11
1.9858096E+002
 21
2.4689829E+002
  0
LINE
  8
99
  6
CONTINUOUS
 62
1
 10
1.8765598E+002
 20
2.5982331E+002
 11
1.8765598E+002
 21
2.4582331E+002
  0
LINE
  8
99
  6
CONTINUOUS
 62
1
 10
1.9750595E+002
 20
2.4582331E+002
 11
1.9750595E+002
 21
2.5982331E+002
  0
LINE
  8
106
  6
CENTERLINE
 62
1
 10
1.9258096E+002
 20
2.7636314E+002
 11
1.9258096E+002
 21
2.4321507E+002
  0
LINE
  8
104
  6
CONTINUOUS
 62
40
 10
2.245502E+002
 20
2.5083287E+002
 11
2.195502E+002
 21
2.5083287E+002
  0
LINE
  8
104
  6
CONTINUOUS
 62
40
 10
2.195502E+002
 20
2.5083287E+002
 11
2.195502E+002
 21
2.4833287E+002
  0
LINE
  8
104
  6
CONTINUOUS
 62
40
 10
2.195502E+002
 20
2.4833287E+002
 11
2.245502E+002
 21
2.4833287E+002
  0
LINE
  8
104
  6
CONTINUOUS
 62
40
 10
2.270502E+002
 20
2.4583287E+002
 11
2.170502E+002
 21
2.4583287E+002
  0
LINE
  8
104
  6
CONTINUOUS
 62
40
 10
9.9550204E+001
 20
2.4833287E+002
 11
9.4431002E+001
 21
2.4843287E+002
  0
LINE
  8
104
  6
CONTINUOUS
 62
40
 10
9.9550204E+001
 20
2.5083287E+002
 11
9.3670809E+001
 21
2.5083287E+002
  0
LINE
  8
104
  6
CONTINUOUS
 62
40
 10
2.370502E+002
 20
2.4833287E+002
 11
2.320502E+002
 21
2.4833287E+002
  0
LINE
  8
104
  6
CONTINUOUS
 62
40
 10
2.395502E+002
 20
2.4583287E+002
 11
2.295502E+002
 21
2.4583287E+002
  0
ARC
  8
99
  6
CONTINUOUS
 62
1
 10
2.2914951E+002
 20
2.4993615E+002
 40
9.8892775E-001
 50
1.1493933E+002
 51
1.857888E+002
  0
ARC
  8
99
  6
CONTINUOUS
 62
1
 10
2.2914929E+002
 20
2.4993606E+002
 40
9.8870208E-001
 50
1.8578496E+002
 51
2.2490963E+002
  0
ARC
  8
99
  6
CONTINUOUS
 62
1
 10
2.2755477E+002
 20
2.4834083E+002
 40
1.2667985
 50
3.6230779E+001
 51
4.5093333E+001
  0
ARC
  8
99
  6
CONTINUOUS
 62
1
 10
2.2780619E+002
 20
2.485234E+002
 40
9.560842E-001
 50
2.5616646E+001
 51
3.6310556E+001
  0
ARC
  8
99
  6
CONTINUOUS
 62
1
 10
2.279831E+002
 20
2.4861097E+002
 40
7.5870717E-001
 50
1.9194907E+001
 51
2.5429152E+001
  0
ARC
  8
99
  6
CONTINUOUS
 62
1
 10
2.2808629E+002
 20
2.4864683E+002
 40
6.4945783E-001
 50
1.2285943E+001
 51
1.9200958E+001
  0
ARC
  8
99
  6
CONTINUOUS
 62
1
 10
2.2817232E+002
 20
2.4866557E+002
 40
5.6141473E-001
 50
4.6655224
 51
1.2285503E+001
  0
ARC
  8
99
  6
CONTINUOUS
 62
1
 10
2.2823815E+002
 20
2.4867103E+002
 40
4.9535376E-001
 50
3.5637229E+002
 51
3.6465501E+002
  0
ARC
  8
99
  6
CONTINUOUS
 62
1
 10
2.2805231E+002
 20
2.4868374E+002
 40
6.8163511E-001
 50
2.9632508E+002
 51
3.5629479E+002
  0
ARC
  8
99
  6
CONTINUOUS
 62
1
 10
2.2877272E+002
 20
2.4722579E+002
 40
9.4459338E-001
 50
1.1627363E+002
 51
1.2282153E+002
  0
ARC
  8
99
  6
CONTINUOUS
 62
1
 10
2.2871998E+002
 20
2.4730688E+002
 40
8.4786126E-001
 50
1.2279659E+002
 51
1.2983402E+002
  0
ARC
  8
99
  6
CONTINUOUS
 62
1
 10
2.2864776E+002
 20
2.473929E+002
 40
7.3554747E-001
 50
1.298064E+002
 51
1.3754376E+002
  0
ARC
  8
99
  6
CONTINUOUS
 62
1
 10
2.2856296E+002
 20
2.4747006E+002
 40
6.2089596E-001
 50
1.3751525E+002
 51
1.4617857E+002
  0
ARC
  8
99
  6
CONTINUOUS
 62
1
 10
2.2847564E+002
 20
2.4752831E+002
 40
5.1593265E-001
 50
1.4615494E+002
 51
1.5595691E+002
  0
ARC
  8
99
  6
CONTINUOUS
 62
1
 10
2.2839702E+002
 20
2.4756333E+002
 40
4.2986067E-001
 50
1.559501E+002
 51
1.6701981E+002
  0
ARC
  8
99
  6
CONTINUOUS
 62
1
 10
2.2833718E+002
 20
2.4757729E+002
 40
3.6841283E-001
 50
1.6704608E+002
 51
1.7931327E+002
  0
ARC
  8
99
  6
CONTINUOUS
 62
1
 10
2.2830305E+002
 20
2.475781E+002
 40
3.3427989E-001
 50
1.793812E+002
 51
1.9246818E+002
  0
ARC
  8
99
  6
CONTINUOUS
 62
1
 10
2.2830231E+002
 20
2.4757881E+002
 40
3.3370707E-001
 50
1.9261552E+002
 51
2.0118353E+002
  0
ARC
  8
99
  6
CONTINUOUS
 62
1
 10
2.2834726E+002
 20
2.4759632E+002
 40
3.8194548E-001
 50
2.0119555E+002
 51
2.0902662E+002
  0
ARC
  8
99
  6
CONTINUOUS
 62
1
 10
2.2840443E+002
 20
2.4762804E+002
 40
4.473282E-001
 50
2.0902656E+002
 51
2.1607499E+002
  0
ARC
  8
99
  6
CONTINUOUS
 62
1
 10
2.2847094E+002
 20
2.4767642E+002
 40
5.2957019E-001
 50
2.1606744E+002
 51
2.2236591E+002
  0
ARC
  8
99
  6
CONTINUOUS
 62
1
 10
2.2858072E+002
 20
2.4777977E+002
 40
6.8033036E-001
 50
2.2256703E+002
 51
2.3323424E+002
  0
ARC
  8
99
  6
CONTINUOUS
 62
1
 10
2.2872683E+002
 20
2.4797291E+002
 40
9.2250917E-001
 50
2.3314484E+002
 51
2.418497E+002
  0
ARC
  8
99
  6
CONTINUOUS
 62
1
 10
2.2795606E+002
 20
2.4653812E+002
 40
7.0620838E-001
 50
2.2914832E+001
 51
6.1632563E+001
  0
ARC
  8
99
  6
CONTINUOUS
 62
1
 10
2.2795639E+002
 20
2.4653838E+002
 40
7.0580537E-001
 50
2.7164547E+002
 51
3.8290572E+002
  0
LINE
  8
104
  6
CONTINUOUS
 62
40
 10
2.320502E+002
 20
2.5083287E+002
 11
2.320502E+002
 21
2.4833287E+002
  0
LINE
  8
104
  6
CONTINUOUS
 62
40
 10
2.320502E+002
 20
2.4833287E+002
 11
2.295502E+002
 21
2.4583287E+002
  0
LINE
  8
104
  6
CONTINUOUS
 62
40
 10
2.295502E+002
 20
2.4583287E+002
 11
2.270502E+002
 21
2.4583287E+002
  0
LINE
  8
104
  6
CONTINUOUS
 62
40
 10
2.270502E+002
 20
2.4583287E+002
 11
2.245502E+002
 21
2.4833287E+002
  0
LINE
  8
104
  6
CONTINUOUS
 62
40
 10
2.245502E+002
 20
2.4833287E+002
 11
2.245502E+002
 21
2.5083287E+002
  0
LINE
  8
104
  6
CONTINUOUS
 62
40
 10
2.245502E+002
 20
2.5083287E+002
 11
2.320502E+002
 21
2.5083287E+002
  0
INSERT
  2
*XH72
  8
108
 10
2.2652838E+002
 20
2.4934014E+002
  0
ARC
  8
99
  6
CONTINUOUS
 62
1
 10
9.120363E+001
 20
2.500744E+002
 40
7.7102502E-001
 50
1.0035517E+002
 51
1.7324112E+002
  0
ARC
  8
99
  6
CONTINUOUS
 62
1
 10
9.1203703E+001
 20
2.5007447E+002
 40
7.7108884E-001
 50
1.7324721E+002
 51
2.1927457E+002
  0
ARC
  8
99
  6
CONTINUOUS
 62
1
 10
8.9859261E+001
 20
2.4897061E+002
 40
9.6846647E-001
 50
2.8939812E+001
 51
3.9478319E+001
  0
ARC
  8
99
  6
CONTINUOUS
 62
1
 10
9.0000057E+001
 20
2.4905053E+002
 40
8.0657884E-001
 50
2.2859968E+001
 51
2.8810809E+001
  0
ARC
  8
99
  6
CONTINUOUS
 62
1
 10
9.0097202E+001
 20
2.4909133E+002
 40
7.0121518E-001
 50
1.6338743E+001
 51
2.2871849E+001
  0
ARC
  8
99
  6
CONTINUOUS
 62
1
 10
9.0188921E+001
 20
2.4911811E+002
 40
6.0566612E-001
 50
9.1452041
 51
1.6348565E+001
  0
ARC
  8
99
  6
CONTINUOUS
 62
1
 10
9.0269543E+001
 20
2.4913105E+002
 40
5.240133E-001
 50
1.2165377
 51
9.1498555
  0
ARC
  8
99
  6
CONTINUOUS
 62
1
 10
9.0334535E+001
 20
2.4913246E+002
 40
4.590053E-001
 50
3.5254655E+002
 51
3.6121187E+002
  0
ARC
  8
99
  6
CONTINUOUS
 62
1
 10
9.038097E+001
 20
2.4912652E+002
 40
4.1219119E-001
 50
3.4321978E+002
 51
3.525288E+002
  0
ARC
  8
99
  6
CONTINUOUS
 62
1
 10
9.024744E+001
 20
2.4916739E+002
 40
5.5183675E-001
 50
2.9564166E+002
 51
3.4315917E+002
  0
ARC
  8
99
  6
CONTINUOUS
 62
1
 10
9.0744741E+001
 20
2.4812961E+002
 40
5.9894997E-001
 50
1.1556825E+002
 51
1.2708289E+002
  0
ARC
  8
99
  6
CONTINUOUS
 62
1
 10
9.07131E+001
 20
2.4817109E+002
 40
5.4677353E-001
 50
1.2705927E+002
 51
1.3929563E+002
  0
ARC
  8
99
  6
CONTINUOUS
 62
1
 10
9.0673174E+001
 20
2.4820535E+002
 40
4.9416722E-001
 50
1.3928739E+002
 51
1.5237746E+002
  0
ARC
  8
99
  6
CONTINUOUS
 62
1
 10
9.0634856E+001
 20
2.4822554E+002
 40
4.5085235E-001
 50
1.5239383E+002
 51
1.6630893E+002
  0
ARC
  8
99
  6
CONTINUOUS
 62
1
 10
9.0432435E+001
 20
2.4827604E+002
 40
2.4223312E-001
 50
1.6658196E+002
 51
1.8241183E+002
  0
ARC
  8
99
  6
CONTINUOUS
 62
1
 10
9.0469727E+001
 20
2.4827713E+002
 40
2.7953857E-001
 50
1.8231215E+002
 51
1.8950617E+002
  0
ARC
  8
99
  6
CONTINUOUS
 62
1
 10
9.0511873E+001
 20
2.4828423E+002
 40
3.2227918E-001
 50
1.8951413E+002
 51
1.9605761E+002
  0
ARC
  8
99
  6
CONTINUOUS
 62
1
 10
9.0567228E+001
 20
2.4830016E+002
 40
3.7987986E-001
 50
1.9605716E+002
 51
2.0192154E+002
  0
ARC
  8
99
  6
CONTINUOUS
 62
1
 10
9.0635528E+001
 20
2.483276E+002
 40
4.5348533E-001
 50
2.0191583E+002
 51
2.0712725E+002
  0
ARC
  8
99
  6
CONTINUOUS
 62
1
 10
9.0760597E+001
 20
2.4839383E+002
 40
5.949981E-001
 50
2.0731184E+002
 51
2.1601651E+002
  0
ARC
  8
99
  6
CONTINUOUS
 62
1
 10
9.0965059E+001
 20
2.4854122E+002
 40
8.470451E-001
 50
2.1594812E+002
 51
2.2282555E+002
  0
ARC
  8
99
  6
CONTINUOUS
 62
1
 10
9.1202559E+001
 20
2.4875983E+002
 40
1.1698375
 50
2.2277108E+002
 51
2.2831545E+002
  0
ARC
  8
99
  6
CONTINUOUS
 62
1
 10
9.1585029E+001
 20
2.4919873E+002
 40
1.7519803
 50
2.2851968E+002
 51
2.3700247E+002
  0
ARC
  8
99
  6
CONTINUOUS
 62
1
 10
9.0058747E+001
 20
2.4685961E+002
 40
1.0410618
 50
1.4849743E+001
 51
5.6661671E+001
  0
ARC
  8
99
  6
CONTINUOUS
 62
1
 10
9.0058593E+001
 20
2.468595E+002
 40
1.0412383
 50
2.885443E+002
 51
3.7485322E+002
  0
LINE
  8
104
  6
CONTINUOUS
 62
40
 10
7.9550207E+001
 20
2.4583287E+002
 11
8.9550207E+001
 21
2.4583287E+002
  0
LINE
  8
104
  6
CONTINUOUS
 62
40
 10
8.7050207E+001
 20
2.4833287E+002
 11
8.2050207E+001
 21
2.4833287E+002
  0
LINE
  8
104
  6
CONTINUOUS
 62
40
 10
8.9550207E+001
 20
2.4583287E+002
 11
9.2080969E+001
 21
2.4583287E+002
  0
LINE
  8
104
  6
CONTINUOUS
 62
40
 10
9.2080969E+001
 20
2.4583287E+002
 11
9.4550207E+001
 21
2.4833287E+002
  0
LINE
  8
104
  6
CONTINUOUS
 62
40
 10
9.4550207E+001
 20
2.4833287E+002
 11
9.4550207E+001
 21
2.5083287E+002
  0
LINE
  8
104
  6
CONTINUOUS
 62
40
 10
9.4550207E+001
 20
2.5083287E+002
 11
8.7050207E+001
 21
2.5083287E+002
  0
LINE
  8
104
  6
CONTINUOUS
 62
40
 10
8.7050207E+001
 20
2.5083287E+002
 11
8.7050207E+001
 21
2.4833287E+002
  0
LINE
  8
104
  6
CONTINUOUS
 62
40
 10
8.7050207E+001
 20
2.4833287E+002
 11
8.9550207E+001
 21
2.4583287E+002
  0
INSERT
  2
*XH73
  8
108
 10
9.1390661E+001
 20
2.4855271E+002
  0
LINE
  8
105
  6
HIDDEN
 62
1
 10
1.8132553E+002
 20
2.6345005E+002
 11
1.7906742E+002
 21
2.6804005E+002
  0
ARC
  8
105
  6
HIDDEN
 62
1
 10
1.7475578E+002
 20
2.659191E+002
 40
4.8050647
 50
2.6193164E+001
 51
5.755377E+001
  0
ARC
  8
105
  6
HIDDEN
 62
1
 10
1.7473455E+002
 20
2.6587747E+002
 40
4.8515839
 50
5.7605949E+001
 51
8.8765979E+001
  0
ARC
  8
105
  6
HIDDEN
 62
1
 10
1.747323E+002
 20
2.657775E+002
 40
4.9515794
 50
8.8764862E+001
 51
1.1950416E+002
  0
ARC
  8
105
  6
HIDDEN
 62
1
 10
1.7475194E+002
 20
2.6573383E+002
 40
4.9992631
 50
1.1945357E+002
 51
1.4999708E+002
  0
LINE
  8
105
  6
HIDDEN
 62
1
 10
1.7042258E+002
 20
2.6823368E+002
 11
1.6614664E+002
 21
2.6082752E+002
  0
LINE
  8
105
  6
HIDDEN
 62
1
 10
1.6614664E+002
 20
2.6082752E+002
 11
1.6452005E+002
 21
2.5872154E+002
  0
LINE
  8
105
  6
HIDDEN
 62
1
 10
1.6452005E+002
 20
2.5872154E+002
 11
1.6375394E+002
 21
2.5817854E+002
  0
LINE
  8
104
  6
CONTINUOUS
 62
40
 10
1.8658096E+002
 20
2.5683287E+002
 11
1.8520346E+002
 21
2.5683287E+002
  0
ARC
  8
104
  6
CONTINUOUS
 62
40
 10
1.852035E+002
 20
2.578329E+002
 40
1.0000366
 50
2.0619691E+002
 51
2.6999788E+002
  0
LINE
  8
104
  6
CONTINUOUS
 62
40
 10
1.8430619E+002
 20
2.5739143E+002
 11
1.8132553E+002
 21
2.6345005E+002
  0
LINE
  8
104
  6
CONTINUOUS
 62
40
 10
1.6375388E+002
 20
2.5817854E+002
 11
1.6262955E+002
 21
2.5725502E+002
  0
LINE
  8
104
  6
CONTINUOUS
 62
40
 10
1.6262955E+002
 20
2.5725502E+002
 11
1.6003543E+002
 21
2.5616236E+002
  0
LINE
  8
104
  6
CONTINUOUS
 62
40
 10
1.6003543E+002
 20
2.5616236E+002
 11
1.575026E+002
 21
2.5583287E+002
  0
LINE
  8
104
  6
CONTINUOUS
 62
40
 10
1.575026E+002
 20
2.5583287E+002
 11
1.4778079E+002
 21
2.5583287E+002
  0
LINE
  8
106
  6
CENTERLINE
 62
1
 10
1.0398032E+002
 20
2.5083287E+002
 11
1.0398032E+002
 21
2.4460517E+002
  0
LINE
  8
106
  6
CENTERLINE
 62
1
 10
2.1408096E+002
 20
2.5168788E+002
 11
2.1408096E+002
 21
2.4493882E+002
  0
LINE
  8
104
  6
CONTINUOUS
 62
40
 10
2.0088095E+002
 20
2.4583287E+002
 11
1.8428098E+002
 21
2.4583287E+002
  0
LINE
  8
104
  6
CONTINUOUS
 62
40
 10
1.6958096E+002
 20
2.4583287E+002
 11
1.7758096E+002
 21
2.4583287E+002
  0
LINE
  8
104
  6
CONTINUOUS
 62
40
 10
1.2708097E+002
 20
2.4583287E+002
 11
1.8608096E+002
 21
2.4583287E+002
  0
LINE
  8
104
  6
CONTINUOUS
 62
40
 10
1.8608096E+002
 20
2.4583287E+002
 11
1.8608096E+002
 21
2.4733287E+002
  0
LINE
  8
104
  6
CONTINUOUS
 62
40
 10
1.8608096E+002
 20
2.4733287E+002
 11
1.8658096E+002
 21
2.4733287E+002
  0
LINE
  8
104
  6
CONTINUOUS
 62
40
 10
1.8658096E+002
 20
2.4733287E+002
 11
1.8658096E+002
 21
2.5683287E+002
  0
LINE
  8
104
  6
CONTINUOUS
 62
40
 10
1.8658096E+002
 20
2.5683287E+002
 11
1.8458096E+002
 21
2.5683287E+002
  0
LINE
  8
104
  6
CONTINUOUS
 62
40
 10
1.8458096E+002
 20
2.5683287E+002
 11
1.8458096E+002
 21
2.5183287E+002
  0
ARC
  8
104
  6
CONTINUOUS
 62
40
 10
1.8358093E+002
 20
2.5183287E+002
 40
1.0000303
 50
2.7000174E+002
 51
3.5999998E+002
  0
LINE
  8
104
  6
CONTINUOUS
 62
40
 10
1.8358096E+002
 20
2.5083283E+002
 11
1.6958096E+002
 21
2.5083283E+002
  0
LINE
  8
104
  6
CONTINUOUS
 62
40
 10
1.6958096E+002
 20
2.5083283E+002
 11
1.2708097E+002
 21
2.5083283E+002
  0
LINE
  8
104
  6
CONTINUOUS
 62
40
 10
1.2708097E+002
 20
2.5083283E+002
 11
1.2708097E+002
 21
2.4583287E+002
  0
INSERT
  2
*XH74
  8
108
 10
1.5946303E+002
 20
2.4912725E+002
  0
LINE
  8
104
  6
CONTINUOUS
 62
40
 10
1.2708097E+002
 20
2.5791746E+002
 11
1.2708097E+002
 21
2.574694E+002
  0
LINE
  8
104
  6
CONTINUOUS
 62
40
 10
1.2708097E+002
 20
2.574694E+002
 11
1.2708097E+002
 21
2.7783287E+002
  0
ARC
  8
104
  6
CONTINUOUS
 62
40
 10
1.2908095E+002
 20
2.7783285E+002
 40
1.999987
 50
8.9999628E+001
 51
1.7999951E+002
  0
LINE
  8
104
  6
CONTINUOUS
 62
40
 10
1.2908096E+002
 20
2.7983283E+002
 11
1.3008096E+002
 21
2.7983283E+002
  0
ARC
  8
104
  6
CONTINUOUS
 62
40
 10
1.3008094E+002
 20
2.7783284E+002
 40
1.9999948
 50
7.101537E-004
 51
8.999929E+001
  0
LINE
  8
104
  6
CONTINUOUS
 62
40
 10
1.3208094E+002
 20
2.7783287E+002
 11
1.3208094E+002
 21
2.6011003E+002
  0
LINE
  8
104
  6
CONTINUOUS
 62
40
 10
1.3208094E+002
 20
2.6011003E+002
 11
1.3208094E+002
 21
2.5849745E+002
  0
LINE
  8
104
  6
CONTINUOUS
 62
40
 10
1.2908096E+002
 20
2.7983287E+002
 11
1.1008097E+002
 21
2.7983287E+002
  0
LINE
  8
106
  6
CENTERLINE
 62
1
 10
9.7050204E+001
 20
2.4414439E+002
 11
9.7050204E+001
 21
2.4583287E+002
  0
LINE
  8
106
  6
CENTERLINE
 62
1
 10
9.7050204E+001
 20
2.4583287E+002
 11
9.7050204E+001
 21
2.5169917E+002
  0
LINE
  8
104
  6
CONTINUOUS
 62
40
 10
1.3208096E+002
 20
2.5445063E+002
 11
1.3208096E+002
 21
2.5383287E+002
  0
ARC
  8
104
  6
CONTINUOUS
 62
40
 10
1.3508097E+002
 20
2.5383284E+002
 40
3.0000098
 50
1.7999961E+002
 51
2.6999981E+002
  0
LINE
  8
104
  6
CONTINUOUS
 62
40
 10
1.3508096E+002
 20
2.5083283E+002
 11
1.3808695E+002
 21
2.5083283E+002
  0
LINE
  8
104
  6
CONTINUOUS
 62
40
 10
1.2708097E+002
 20
2.5335246E+002
 11
1.2708097E+002
 21
2.4583287E+002
  0
LINE
  8
104
  6
CONTINUOUS
 62
40
 10
9.4550207E+001
 20
2.4843287E+002
 11
9.4431006E+001
 21
2.4843287E+002
  0
LINE
  8
104
  6
CONTINUOUS
 62
40
 10
1.0208097E+002
 20
2.4583287E+002
 11
9.2080969E+001
 21
2.4583287E+002
  0
LINE
  8
104
  6
CONTINUOUS
 62
40
 10
9.9550207E+001
 20
2.5083287E+002
 11
9.9550207E+001
 21
2.4833287E+002
  0
LINE
  8
104
  6
CONTINUOUS
 62
40
 10
9.9550207E+001
 20
2.4833287E+002
 11
1.0208097E+002
 21
2.4583287E+002
  0
LINE
  8
104
  6
CONTINUOUS
 62
40
 10
1.0208097E+002
 20
2.4583287E+002
 11
1.0758097E+002
 21
2.4583287E+002
  0
LINE
  8
104
  6
CONTINUOUS
 62
40
 10
1.0758097E+002
 20
2.4583287E+002
 11
1.1208097E+002
 21
2.4583287E+002
  0
LINE
  8
104
  6
CONTINUOUS
 62
40
 10
1.1208097E+002
 20
2.4583287E+002
 11
1.1208097E+002
 21
2.7783287E+002
  0
ARC
  8
104
  6
CONTINUOUS
 62
40
 10
1.1008096E+002
 20
2.7783283E+002
 40
2.0000055
 50
1.0156633E-003
 51
8.9999844E+001
  0
LINE
  8
104
  6
CONTINUOUS
 62
40
 10
1.1008097E+002
 20
2.7983283E+002
 11
1.0908097E+002
 21
2.7983283E+002
  0
ARC
  8
104
  6
CONTINUOUS
 62
40
 10
1.0908093E+002
 20
2.7783284E+002
 40
1.999998
 50
8.9999083E+001
 51
1.799992E+002
  0
LINE
  8
104
  6
CONTINUOUS
 62
40
 10
1.0708094E+002
 20
2.7783287E+002
 11
1.0708094E+002
 21
2.5383287E+002
  0
ARC
  8
104
  6
CONTINUOUS
 62
40
 10
1.0408093E+002
 20
2.5383284E+002
 40
3.0000046
 50
2.7000074E+002
 51
3.6000049E+002
  0
LINE
  8
104
  6
CONTINUOUS
 62
40
 10
1.0408097E+002
 20
2.5083283E+002
 11
9.9550207E+001
 21
2.5083287E+002
  0
INSERT
  2
*XH75
  8
108
 10
1.0839515E+002
 20
2.5977969E+002
  0
LINE
  8
104
  6
CONTINUOUS
 62
40
 10
2.1248099E+002
 20
2.5083287E+002
 11
2.195502E+002
 21
2.5083287E+002
  0
LINE
  8
104
  6
CONTINUOUS
 62
40
 10
2.195502E+002
 20
2.5083287E+002
 11
2.195502E+002
 21
2.4833287E+002
  0
LINE
  8
104
  6
CONTINUOUS
 62
40
 10
2.195502E+002
 20
2.4833287E+002
 11
2.170502E+002
 21
2.4583287E+002
  0
LINE
  8
104
  6
CONTINUOUS
 62
40
 10
2.170502E+002
 20
2.4583287E+002
 11
1.9908096E+002
 21
2.4583287E+002
  0
LINE
  8
104
  6
CONTINUOUS
 62
40
 10
1.9908096E+002
 20
2.4583287E+002
 11
1.9908096E+002
 21
2.4733287E+002
  0
LINE
  8
104
  6
CONTINUOUS
 62
40
 10
1.9908096E+002
 20
2.4733287E+002
 11
1.9858096E+002
 21
2.4721867E+002
  0
LINE
  8
104
  6
CONTINUOUS
 62
40
 10
1.9858096E+002
 20
2.4721867E+002
 11
1.9858096E+002
 21
2.5683287E+002
  0
LINE
  8
104
  6
CONTINUOUS
 62
40
 10
1.9858096E+002
 20
2.5683287E+002
 11
2.0058096E+002
 21
2.5683287E+002
  0
LINE
  8
104
  6
CONTINUOUS
 62
40
 10
2.0058096E+002
 20
2.5683287E+002
 11
2.0058096E+002
 21
2.5183287E+002
  0
ARC
  8
104
  6
CONTINUOUS
 62
40
 10
2.0158095E+002
 20
2.5183282E+002
 40
9.9998006E-001
 50
1.7999714E+002
 51
2.7000114E+002
  0
LINE
  8
104
  6
CONTINUOUS
 62
40
 10
2.0158096E+002
 20
2.5083283E+002
 11
2.1248099E+002
 21
2.5083287E+002
  0
INSERT
  2
*XH76
  8
108
 10
2.0467063E+002
 20
2.5049421E+002
  0
LINE
  8
106
  6
CENTERLINE
 62
1
 10
2.220502E+002
 20
2.5135005E+002
 11
2.220502E+002
 21
2.4512211E+002
  0
LINE
  8
104
  6
CONTINUOUS
 62
40
 10
7.7080969E+001
 20
2.4583287E+002
 11
7.7080969E+001
 21
2.5083287E+002
  0
LINE
  8
104
  6
CONTINUOUS
 62
40
 10
7.7080969E+001
 20
2.5083287E+002
 11
8.2050204E+001
 21
2.5083287E+002
  0
LINE
  8
104
  6
CONTINUOUS
 62
40
 10
8.2050204E+001
 20
2.5083287E+002
 11
8.2050204E+001
 21
2.4833287E+002
  0
LINE
  8
104
  6
CONTINUOUS
 62
40
 10
8.2050204E+001
 20
2.4833287E+002
 11
7.9550204E+001
 21
2.4583287E+002
  0
LINE
  8
104
  6
CONTINUOUS
 62
40
 10
7.9550204E+001
 20
2.4583287E+002
 11
7.7080969E+001
 21
2.4583287E+002
  0
INSERT
  2
*XH77
  8
108
 10
7.8304816E+001
 20
2.4960902E+002
  0
LINE
  8
104
  6
CONTINUOUS
 62
40
 10
2.370502E+002
 20
2.5083287E+002
 11
2.4208096E+002
 21
2.5083287E+002
  0
LINE
  8
104
  6
CONTINUOUS
 62
40
 10
2.4208096E+002
 20
2.5083287E+002
 11
2.4208096E+002
 21
2.4583287E+002
  0
LINE
  8
104
  6
CONTINUOUS
 62
40
 10
2.4208096E+002
 20
2.4583287E+002
 11
2.395502E+002
 21
2.4583287E+002
  0
LINE
  8
104
  6
CONTINUOUS
 62
40
 10
2.395502E+002
 20
2.4583287E+002
 11
2.370502E+002
 21
2.4833287E+002
  0
LINE
  8
104
  6
CONTINUOUS
 62
40
 10
2.370502E+002
 20
2.4833287E+002
 11
2.370502E+002
 21
2.5083287E+002
  0
INSERT
  2
*XH78
  8
108
 10
2.4021884E+002
 20
2.4888847E+002
  0
ARC
  8
104
  6
CONTINUOUS
 62
40
 10
1.3282532E+002
 20
2.5410218E+002
 40
5.0001356E-001
 50
1.2387907E+001
 51
1.023882E+002
  0
LINE
  8
104
  6
CONTINUOUS
 62
40
 10
1.3331369E+002
 20
2.5420945E+002
 11
1.3331369E+002
 21
2.5417915E+002
  0
ARC
  8
104
  6
CONTINUOUS
 62
40
 10
1.3380924E+002
 20
2.542957E+002
 40
5.0907369E-001
 50
1.9323514E+002
 51
2.3591754E+002
  0
ARC
  8
104
  6
CONTINUOUS
 62
40
 10
1.3380985E+002
 20
2.5429549E+002
 40
5.0924266E-001
 50
2.358475E+002
 51
2.5718352E+002
  0
ARC
  8
104
  6
CONTINUOUS
 62
40
 10
1.3380853E+002
 20
2.5428921E+002
 40
5.0282568E-001
 50
2.5717164E+002
 51
2.7868881E+002
  0
LINE
  8
104
  6
CONTINUOUS
 62
40
 10
1.3388449E+002
 20
2.5379216E+002
 11
1.7547147E+002
 21
2.5989927E+002
  0
ARC
  8
104
  6
CONTINUOUS
 62
40
 10
1.7458098E+002
 20
2.6583281E+002
 40
5.9999922
 50
2.7853511E+002
 51
3.0755601E+002
  0
LINE
  8
104
  6
CONTINUOUS
 62
40
 10
1.7823819E+002
 20
2.6107627E+002
 11
1.8444437E+002
 21
2.6584803E+002
  0
ARC
  8
104
  6
CONTINUOUS
 62
40
 10
1.8527321E+002
 20
2.6459782E+002
 40
1.5000045
 50
6.8830109E+001
 51
1.2354273E+002
  0
ARC
  8
104
  6
CONTINUOUS
 62
40
 10
1.8678995E+002
 20
2.6851437E+002
 40
2.6999858
 50
2.4883052E+002
 51
5.0459241E+002
  0
ARC
  8
104
  6
CONTINUOUS
 62
40
 10
1.8407467E+002
 20
2.7093433E+002
 40
9.9847698E-001
 50
2.9374933E+002
 51
3.0102729E+002
  0
ARC
  8
104
  6
CONTINUOUS
 62
40
 10
1.840255E+002
 20
2.7104636E+002
 40
1.1208222
 50
2.870051E+002
 51
2.9374358E+002
  0
ARC
  8
104
  6
CONTINUOUS
 62
40
 10
1.8395822E+002
 20
2.7128268E+002
 40
1.366491
 50
2.7498904E+002
 51
2.8680461E+002
  0
ARC
  8
104
  6
CONTINUOUS
 62
40
 10
1.8391912E+002
 20
2.7171259E+002
 40
1.79817
 50
2.6519966E+002
 51
2.7503886E+002
  0
ARC
  8
104
  6
CONTINUOUS
 62
40
 10
1.8396026E+002
 20
2.7223039E+002
 40
2.3175977
 50
2.5695101E+002
 51
2.6525753E+002
  0
LINE
  8
104
  6
CONTINUOUS
 62
40
 10
1.8343698E+002
 20
2.6997264E+002
 11
1.7587998E+002
 21
2.7169056E+002
  0
ARC
  8
104
  6
CONTINUOUS
 62
40
 10
1.7458103E+002
 20
2.6583284E+002
 40
6.0000164
 50
7.7497033E+001
 51
1.0624072E+002
  0
LINE
  8
104
  6
CONTINUOUS
 62
40
 10
1.7290299E+002
 20
2.7159342E+002
 11
1.3258139E+002
 21
2.5971284E+002
  0
ARC
  8
104
  6
CONTINUOUS
 62
40
 10
1.3272226E+002
 20
2.592331E+002
 40
4.9999131E-001
 50
1.0636414E+002
 51
1.9239229E+002
  0
LINE
  8
104
  6
CONTINUOUS
 62
40
 10
1.3223392E+002
 20
2.591258E+002
 11
1.3223392E+002
 21
2.5909306E+002
  0
ARC
  8
104
  6
CONTINUOUS
 62
40
 10
1.3174817E+002
 20
2.5897893E+002
 40
4.989801E-001
 50
3.5066714E+002
 51
3.7322158E+002
  0
ARC
  8
104
  6
CONTINUOUS
 62
40
 10
1.3175482E+002
 20
2.5897795E+002
 40
4.9225255E-001
 50
3.2789502E+002
 51
3.5065442E+002
  0
ARC
  8
104
  6
CONTINUOUS
 62
40
 10
1.3175482E+002
 20
2.5897881E+002
 40
4.9271114E-001
 50
2.8232063E+002
 51
3.2781023E+002
  0
LINE
  8
104
  6
CONTINUOUS
 62
40
 10
1.3185996E+002
 20
2.5849745E+002
 11
1.2453464E+002
 21
2.5688853E+002
  0
ARC
  8
104
  6
CONTINUOUS
 62
40
 10
1.2496365E+002
 20
2.5493508E+002
 40
2.0000076
 50
1.0238657E+002
 51
2.8238845E+002
  0
LINE
  8
104
  6
CONTINUOUS
 62
40
 10
1.2539273E+002
 20
2.5298164E+002
 11
1.3271805E+002
 21
2.5459056E+002
  0
LINE
  8
106
  6
CENTERLINE
 62
1
 10
1.2239951E+002
 20
2.543719E+002
 11
1.3728781E+002
 21
2.5764192E+002
  0
LINE
  8
106
  6
CENTERLINE
 62
1
 10
1.3728781E+002
 20
2.5764192E+002
 11
1.4573142E+002
 21
2.5949644E+002
  0
LINE
  8
106
  6
CENTERLINE
 62
1
 10
1.4573142E+002
 20
2.5949644E+002
 11
1.7731577E+002
 21
2.6643351E+002
  0
LINE
  8
106
  6
CENTERLINE
 62
1
 10
1.7731577E+002
 20
2.6643351E+002
 11
1.8255503E+002
 21
2.6758424E+002
  0
LINE
  8
106
  6
CENTERLINE
 62
1
 10
1.8255503E+002
 20
2.6758424E+002
 11
1.9168192E+002
 21
2.6958882E+002
  0
LINE
  8
106
  6
CENTERLINE
 62
1
 10
1.8567728E+002
 20
2.7358055E+002
 11
1.8777902E+002
 21
2.6401109E+002
  0
LINE
  8
106
  6
CENTERLINE
 62
1
 10
1.7651792E+002
 20
2.5701396E+002
 11
1.7272647E+002
 21
2.7427647E+002
  0
LINE
  8
106
  6
CENTERLINE
 62
1
 10
1.2439554E+002
 20
2.5752168E+002
 11
1.254968E+002
 21
2.5250782E+002
  0
CIRCLE
  8
104
  6
CONTINUOUS
 62
40
 10
1.7458096E+002
 20
2.6583283E+002
 40
2.7999929
  0
INSERT
  2
*XH79
  8
108
 10
1.745193E+002
 20
2.6590053E+002
  0
TEXT
  8
103
  6
CONTINUOUS
 62
40
 10
6.2958634E+001
 20
2.1905996E+002
 40
5.0
  1
Zapfenband 8062
 41
6.6E-001
 72
1
 11
3.8208634E+001
 21
2.1655996E+002
 73
2
  0
LINE
  8
98
  6
CONTINUOUS
 62
1
 10
5.0
 20
5.0
 11
4.15E+002
 21
5.0
  0
LINE
  8
98
  6
CONTINUOUS
 62
1
 10
4.15E+002
 20
5.0
 11
4.15E+002
 21
2.92E+002
  0
LINE
  8
98
  6
CONTINUOUS
 62
1
 10
4.15E+002
 20
2.92E+002
 11
5.0
 21
2.92E+002
  0
LINE
  8
98
  6
CONTINUOUS
 62
1
 10
5.0
 20
2.92E+002
 11
5.0
 21
5.0
  0
TEXT
  8
103
  6
CONTINUOUS
 62
40
 10
4.0734713E+002
 20
2.8565022E+002
 40
5.0
  1
M 1:1
 41
6.3E-001
 72
1
 11
3.9947213E+002
 21
2.8315022E+002
 73
2
  0
ENDSEC
  0
EOF
